Oops, an error
Loading. Please wait.

Stiff Upper Lip Tab

ver1
ver1

Album

Whole song

Interactive

More versions @911Tabs.com
88,007 views 84 this week
12 commentsread comments
1 2 3 4 5
accurate
x 17
add to favorites launch autoscroll
font size
0
reset
Autoscroll
+/-
esc
set tempo
stop
Contributor
WARNING: You are trying to view
                                    content from Ultimate-Guitar.com
                                    in an unauthorized application,
                                    which is prohibited.

                                    Please use an official Ultimate
                                    Guitar Tabs application for iPhone,
                                    iPad or Android to access legitimate
                                    chords, guitar, bass, and drum tabs
                                    from Ultimate-Guitar.com database.

                                    Type "ultimate guitar tabs" in Apple
                                    App Store's or Android Market's
                                    search to find the application.
AC/DC    Stiff Upper Lip Album tab
 tab by Voytazz

Songs:
Stiff Upper Lip
Meltdown
House of Jazz
Hold Me Back
Safe in New York City
Can't Stand Still
Can't Stop Rock "N" Roll
Satellite Blues
Damned
Come And Get It
All Screwed Up
Give It Up

:::::::::::::::::::::::::::::

Stiff Upper Lip 


Riff
E|------5------5-----------------------|      
B|--8^--5--8-5-5----7--5-5-----7---5---|
G|------------------7--5h6-----7---5---|
D|-------------------------------------|
A|--0---0--0-0--0---0--0-0---0-0-0-0---|
E|-------------------------------------|

Solo
E|------------------------------------------------------------------8b--5-x|
B|-17b-17b-----------------x-x-5-5b\\---------5----5-7b-5-7-5b------7b--5-x|
G|-17b-17b-----------------x-x-5-5b\\\--------5----5-7b-5-7-5b-------------|
D|--------19~-21\\\\\\\\\--------------7-x-7~---7m-------------7m----------|
A|------------21\\\\\\\\\\-------------------------------------------------|
E|-------------------------------------------------------------------------|


E|5-8b-5-x-8b-5----------------------------------------------9-10-11-12-9--|
B|5-7b-5-x-7b-5-8-7-5------------------10~----12-13r12-10~-10------------10|
G|--------------7-7-5h6--------------------11------------------------------|
D|---------------------7m-x-7~10-12-14-------------------------------------|
A|------------------------7-----------0m-----------------------------------|
E|-------------------------------------------------------------------------|


E|-----------------------//8--8-8-8-8-8-8-8////17--18b-18b-18b---------8b-5|
B|10~-10r8---8--8-8\\\--///7--7-7-7-7-7-7-7////17--17b-17b-17b---------7b-5|
G|--------9m-7--7-7\\\\----------------------------------------------------|
D|-------------------------------------------------------------21\\\\\-----|
A|-------------------------------------------------------------21\\\\\\----|
E|-------------------------------------------------------------------------|


E|--8b--5-------------------------------------------------|
B|--7b--5-5-8-8-8-8-7-7~-7-7-7-7-7-7-7------5b----5-7-5~--|
G|----------7-7-7-7-7-7~-7-7-7-7-7-7-7------5b----5-7-5~--|
D|-------------------------------------7m-7----7m---------|
A|--------------------------------------------------------|
E|--------------------------------------------------------|


E|----------------------------------------------------------20~~--|
B|----------------------------------------------------------------|
G|----------------------------------------3/////21----------------|
D|----5b-7~~--(then a few seconds later)--3/////21\\\\\\0--x------|
A|---x------------------------------------3/////21\\\\\\0--x------|
E|--x----------------------------------------------\\\\\0--x------|


E|-------------------|
B|--888888888888-----|
G|--------------9~~--|
D|-------------------|
A|-------------------|
E|-------------------|

                  
E|------5-----------5---5-8--|
B|------5-8-5-------5-8-5-7--|
G|-----x--7-5h6----x---------|
D|----x--------7--x----------|
A|---x-----------x-----------|
E|--x-----------x------------|
:::::::::::::::::::::::::::::::::::::::::::::::

Meltdown



Intro:

E|-------------------|-----------------------|----------------|-------------
B|-------------------|-----------------------|----------------|-------------
G|-------------------|-----9--7----6--9------|----------------|--9--7--6--9-
D|----------------5/-|--6--7--9----7--7------|----------------|--7--9--7--7-
A|-------------------|-----------------------|-------------5/-|-7-----------
E|-------------------|-----------------------|-------------0--|-0-----------

Both guitars:
|-------------------|------------------------|------------------------|
|-------------------|------------------------|------------------------|
|-------------------|-----9--7----6--9-------|-----9--7----6--9-------|
|-------------------|-----7--9----7--7-------|-----7--9----7--7-------|
|----------------5/-|--7------------------5/-|--7------------------5/-|
|----------------0--|--0------------------0--|--0------------------0--|

|-------------------|------------------------|------------------------|
|-------------------|------------------------|------------------------|
|-------------------|-------------2--2-------|-------------2--2-------|
|-------------------|--2--2-------2--2-------|--2--2-------2--2-------|
|----------------0--|--2--2--5----0--0----0--|--2--2--5----0--0----0--|
|-------------------|--0--0------------------|--0--0------------------|

Angus to verse:       !!!
|------------------------|
|------------------------|
|-----9--7----6--9-------|
|-----7--9----7--7----5/-|
|--7---------------------|
|--0---------------------|

Verse:

|------------------------|------------------------|------------------------|
|------------------------|------------------------|------------------------|
|-----9--7----6--9-------|-----9--7----6--9-------|-----9--7----6--9-------|
|--6--7--9----7--7----5/-|--6--7--9----7--7----5/-|--6--7--9----7--7----5/-|
|------------------------|------------------------|------------------------|
|------------------------|------------------------|------------------------|

|------------------------|------------------------|------------------------|
|------------------------|------------------------|------------------------|
|------------------------|------------------------|------------------------|
|-------------2--2-------|-------------2--2-------|-------------2--2-------|
|--2--2--5----0--0----0--|--2--2--5----0--0----0--|--2--2--5----0--0----0--|
|--0--0------------------|--0--0------------------|--0--0------------------|

Bridge to chorus:

                     man  it's getting hot     hot
|------------------------|------------------------|
|---------------------7~-|---------------------7~-|
|-----9--7----6--9----7~-|------0--2--0--2--0--7~-|
|--6--7--9----7--7-------|------0--2--0--2--0-----|
|------------------------|------------------------|
|------------------------|------------------------|

|------------------------|------------------------|
|------------------------|------------------------|
|---------------------7~-|------0--2--0--2--0--7~-|
|-------------2--2----7~-|------0--2--0--2--0--7~-|
|--2--2--5----0--0-------|------------------------|
|--0--0------------------|------------------------|

         hot   I say man  it's getting hot     hot         hot  it's getting hotter
|------------------------|------------------------|------------------------|
|---------------------7~-|---------------------7~-|---------------------7~-|
|------0--2--0--2--0--7~-|------0--2--0--2--0--7~-|------0--2--0--2--0--7~-|
|------0--2--0--2--0-----|------0--2--0--2--0-----|------0--2--0--2--0-----|
|------------------------|------------------------|------------------------|
|------------------------|------------------------|------------------------|

|------------------------|------------------------|------------------------|
|------------------------|------------------------|------------------------|
|------0--2--0--2--0--7~-|------0--2--0--2--0--7~-|------0--2--0--2--0--7~-|
|------0--2--0--2--0--7~-|------0--2--0--2--0--7~-|------0--2--0--2--0--7~-|
|------------------------|------------------------|------------------------|
|------------------------|------------------------|------------------------|

                  and hotter                  man  it's getting hot     hot
|------------------------|------------------------|------------------------|
|---------------------7~-|---------------------7~-|---------------------7~-|
|------0--2--0--2--0--7~-|------0--2--0--2--0--7~-|------0--2--0--2--0--7~-|
|------0--2--0--2--0-----|------0--2--0--2--0-----|------0--2--0--2--0-----|
|------------------------|------------------------|------------------------|
|------------------------|------------------------|------------------------|

|------------------------|------------------------|------------------------|
|------------------------|------------------------|------------------------|
|------0--2--0--2--0--7~-|------0--2--0--2--0--7~-|------0--2--0--2--0--7~-|
|------0--2--0--2--0--7~-|------0--2--0--2--0--7~-|------0--2--0--2--0--7~-|
|------------------------|------------------------|------------------------|
|------------------------|------------------------|------------------------|

 getting hotter round     here
|-----------------------|--------------------------------------|
|-----------------------|--------------------------------------|
|------0--2--0--2--0----|--2--2--2--2--2--2--2--2--2--2--2--2--|
|------0--2--0--2--0----|--2--2--2--2--2--2--2--2--2--2--2--2--|
|-----------------------|--0--0--0--0--0--0--0--0--0--0--0--0--|
|-----------------------|--------------------------------------|

|-----------------------|--------------------------------------|
|-----------------------|--------------------------------------|
|------0--2--0--2--0----|--2--------2--------2--------2--------|
|------0--2--0--2--0----|--2--------2--------2--------2--------|
|-----------------------|--0--------0--------0--------0--------|
|-----------------------|--------------------------------------|

                                    Chorus:

                            it's a  meltdown
|-----------------------------------|------------------------|
|-----------------------------------|------------------------|
|--2--2--2--2--2--2--2--2--2--2--2--|-----9--7----6--9-------|
|--2--2--2--2--2--2--2--2--2--2--2--|-----7--9----7--7-------|
|--0--0--0--0--0--0--0--0--0--0--0--|--7------------------5/-|
|-----------------------------------|--0------------------0--|
|                                   |                        |
|-----------------------------------|------------------------|
|-----------------------------------|------------------------|
|--2--------2--------2--------2-----|-------------2--2-------|
|--2--------2--------2--------2-----|--2--2-------2--2-------|
|--0--------0--------0--------0-----|--2--2--5----0--0----0--|
|-----------------------------------|--0--0------------------|


                   it's a meltdown                                    2nd verse:
|------------------------|------------------------|------------------------|
|------------------------|------------------------|------------------------|
|-----9--7----6--9-------|-----9--7----6--9-------|-----9--7----6--9-------|
|-----7--9----7--7-------|-----7--9----7--7-------|-----7--9----7--7----5/-|
|--7------------------5/-|--7------------------5/-|--7---------------------|
|--0------------------0--|--0------------------0--|--0---------------------|
|                        |                        |                        |
|------------------------|------------------------|------------------------|
|------------------------|------------------------|------------------------|
|-------------2--2-------|-------------2--2-------|-------------2--2-------|
|--2--2-------2--2-------|--2--2-------2--2-------|--2--2-------2--2-------|
|--2--2--5----0--0----0--|--2--2--5----0--0----0--|--2--2--5----0--0----0--|
|--0--0------------------|--0--0------------------|--0--0------------------|

Malcolm chord change during solo:
|------------------------|------------------------|
|------------------------|-------------3--3-------|
|-------------2--2-------|--2--2-------2--2-------|
|--2--2-------2--2-------|--2--2--5----0--0----0--|
|--2--2--5----0--0----0--|--0--0------------------|
|--0--0------------------|------------------------|

|------------------------|------------------------|
|-------------3--3-------|------------------------|
|--2--2-------2--2-------|-------------2--2-------|
|--2--2--5----0--0----0--|--2--2-------2--2-------|
|--0--0------------------|--2--2--5----0--0----0--|
|------------------------|--0--0------------------|

:::::::::::::::::::::::::::::::::::::::::::::::::::::



House Of Jazz 

Intro

Part 1
 Main     Ending A  Ending B  Ending C  Ending D
|--------|---------|---------|--0---0--|------3---------------0--|
|-0-2----|---------|---------|--0---0--|------3---2-----------0--|
|-0-2-320|---------|---------|---------|------0---2---320-----1--|
|--------|---------|--2---2--|---------|------0---2-----------2--|
|--------|---------|---------|---------|----------0-----------2--|
|--------|0-0-0-0-0|0---0---0|0---0---0|0-0-0-3-----------0-0-0--|

Part 2

|-------------0---------------------------------------------|
|-0-2---------0---------------------------------------------|
|-0-2-320-----1---------------------------------------------|
|-------------2---------------------------------------------|
|-------------2---------------------------------------------|
|---------0-0-0---------------------------------------------|

Part 3

|-----------------------------------------------------------|
|-0-2-------------------------------------------------------|
|-0-2-320---------------------------------------------------|
|-----------------------------------------------------------|
|-----------------------------------------------------------|
|---------0-0-0---------------------------------------------|


Part 4

|-3-3-3-3-3-3-3-3-------------------------------------------|
|-3-3-3-3-3-3-3-3---2-2-2-2-2-2-2-2-------------------------|
|-0-0-0-0-0-0-0-0---2-2-2-2-2-2-2-2-------------------------|
|-0-0-0-0-0-0-0-0---2-2-2-2-2-2-2-2-------------------------|
|-------------------0-0-0-0-0-0-0-0-------------------------|
|-3-3-3-3-3-3-3-3-------------------------------------------|

    |___________|   |_____________|
    Slightly mutted  Start mutted but build up

Chorus

Part 5

|-----------------------------------3-3-3-3-3-3-3-3---------|
|------------------2-2-2-2-2-2-2-2--3-3-3-3-3-3-3-3---------|
|-1-1-1-1-1-1-1-1--2-2-2-2-2-2-2-2--0-0-0-0-0-0-0-0---------|
|-2-2-2-2-2-2-2-2--2-2-2-2-2-2-2-2--0-0-0-0-0-0-0-0---------|
|-2-2-2-2-2-2-2-2--0-0-0-0-0-0-0-0--------------------------|
|-0-0-0-0-0-0-0-0-------------------3-3-3-3-3-3-3-3---------|

 Ending A          Ending B

|-0-0-0-0-0-0-0-0-|-----------------------------------------|
|-3-3-3-3-3-3-3-3-|-----------------------------------------|
|-2-2-2-2-2-2-2-2-|-4-4-4-4-4-4-4-4-------------------------|
|-----------------|-4-4-4-4-4-4-4-4-------------------------|
|-----------------|-2-2-2-2-2-2-2-2-------------------------|
|-----------------|-----------------------------------------|


Play the parts

1a 1b 1c 1d 2 2 3 3 3 2 3 3 3 2 3 3 3 2 3 2 4 5a 5 b 2 and so on

:::::::::::::::::::::::::::::::::::::::::::::::::::::::::::::::::




Hold Me Back

Key

~~~ let the note ring out

Parts 1 & 2 are played with the thumb and first finger plucking the
two strings together

Part 1                                     End  End
                                            A    B
|-------------------------------------------|----|----|-------------|
|--12-13-15-13-12-13-15-13-12-13-15-13-12---|-15-|----|-------------|
|--12-12-12-12-12-12-12-12-12-12-12-12-12-12|-12-|-12-|-------------|
|-------------------------------------------|----|-12-|-------------|
|-------------------------------------------|----|----|-------------|
|-------------------------------------------|----|----|-------------|

Play the first part with ending A then again with ending B

Part 2                                     End  End
                                            A    B
|-------------------------------------------|----|----|-------------|
|---3--5--6--5--3--5--6--5--3--5--6--5--3---|----|----|-------------|
|---0--0--0--0--0--0--0--0--0--0--0--0--0---|-5--|-0--|-------------|
|-------------------------------------------|-5--|-0--|-------------|
|-------------------------------------------|----|----|-------------|
|-------------------------------------------|----|----|-------------|

Play the first part with ending A then again with ending B

The chorus is part 1 but with only ending A played over. The backing
is shown below it

Chorus - Part 3

|-------------------------------------------------------------------|
|--12-13-15-13-12-13-15-13-12-13-15-13-12----15---------------------|
|--12-12-12-12-12-12-12-12-12-12-12-12-12-12-12---------------------|
|-------------------------------------------------------------------|
|-------------------------------------------------------------------|
|-------------------------------------------------------------------|
|                                                                   |
|---------------------------3~~~~~~~~~~-----------------------------|
|---------------------------3~~~~~~~~~~-----------------------------|
|---------------5~~~~~~~~~~-0~~~~~~~~~~-----------------------------|
|---3~~~~~~~~~~-5~~~~~~~~~~-0~~~~~~~~~~-----------------------------|
|---3~~~~~~~~~~-3~~~~~~~~~~-----------------------------------------|
|---1~~~~~~~~~~-------------3~~~~~~~~~~-----------------------------|

The song plays like this

1A 1B 1A 1B 2A 2B 2A 2B 2A 2B 2A 2B 3 3 3 3 2A ...........


:::::::::::::::::::::::::::::::::::::::::::::::::::::::::::::::::::



Safe In New York City 

  Intro:
E|--------------------|------------------|--------------------|-------------
B|--------------------|------------------|--------------------|-------------
G|--0--2--------------|------------------|--0--------2--------|--0----------
D|--0--2--------------|------------------|--0--------2--------|--0--2-------
A|-----0--------------|------------------|-----------0--------|-----2-------
E|--3-----------------|------------------|--3-----------------|--3--0-------

Theme 1
this is the main riff where the guitars coming in (repeat):
|-------------------|--------------------------|-------------------------|
|-------------------|--------------------------|-------------------------|
|-------------------|--------------------------|-------------------------|
|-------------------|--------------------------|-----------------2-------|
|-------------------|--5-----7-----8-----7-----|--5-----7-----5--2-------|
|----------------0--|--3--0--5--0--6--0--5--0--|--3--0--5--0--3--0----0--|


before the vocals starts the end is a bit different:
|--------------------------|---------------------|
|--------------------------|---------------------|
|--------------------------|---------------------|
|--------------------------|----------2----------|
|--5--5--7--7--8--8--7--7--|--5----7--2----------|
|--3--3--5--5--6--6--5--5--|--3----5--0----------|


Theme 2
 verse part:                                                             
|---------------------|--------------------------|---------------------|
|---------------------|--------------------------|---------------------|
|---------------------|--------------------------|---------------------|
|---------------------|--------------------------|--------------2------|
|---------------------|--------------------------|-----2--------2------|
|------------0--6--5--|--3--0--6--5--3--0--6--5--|--3--0--------0------|


 Chorus: simply play E and then start with theme 1
|-------------------|
|-------------------|
|-------------------|
|--------------2----|
|--------------2----|
|--------------0----|

::::::::::::::::::::::::::::::::::::::::::::::::::::::::

Can't Stand Still
Riff 1

E-|-5---5---4---4---2---2---4---4---|
B-|---0---0---0---0---0---0---0---0-|
G-|---------------------------------|
D-|---------------------------------|
A-|---------------------------------|
E-|---------------------------------|

Riff 2

E-|-7---7---7---7---10---10---9---9---|
B-|-----------------------------------|
G-|---9---9---9---9----9----9---9---9-|
D-|-----------------------------------|
A-|-----------------------------------|
E-|-----------------------------------|

Riff 3A

E-|-9---9---11---11---12---12---11---11----|
B-|----------------------------------------|
G-|---11--11---11---11---11---11---11---11-|
D-|----------------------------------------|
A-|----------------------------------------|
E-|----------------------------------------|

Riff 3B

E-|-7---7---9---9---10---10---9---9---|
B-|-----------------------------------|
G-|---9---9---9---9----9----9---9---9-|
D-|-----------------------------------|
A-|-----------------------------------|
E-|-----------------------------------|

PLAY THIS ORDER THROUGH WHOLE SONG:

Riff 1 - 4x
Riff 2 - 2x
Riff 1 - 2x
Riff 3 - 1x
Riff 1 - 2x
Repeat from start
:::::::::::::::::::::::::::::::::::::::::::::::::::::::
Cant Stop Rock N Roll
Intro:
E|----------------------|--------------------|
B|-------3----3----1----|--------------------|
G|--2----0----2----0----|--2--5--------------|
D|--2----0----0----2----|--2--5--------------|
A|--0--------------3----|--0--3--------------|
E|-------3--------------|--------------------|

|---------------------------|---------------------------|
|---------------------------|---------------------------|
|---------------------------|---------------------------|
|--7--7--7--7-7--7-7--7--7--|--7--7--7--7-7--7-7--7--7--|
|--0--0--0--0-0--0-0--0--0--|--0--0--0--0-0--0-0--0--0--|
|---------------------------|---------------------------|

Theme (4x):
|---------------------------|----------------------------|
|---------------------------|----------------------------|
|---------------------------|----------------------------|
|---------------------------|--9-8-7--7--7-7--7-7--7--7--|
|--7--7--7---7-7-5-5--5--5--|--7-6-5--5--5-5--5-5--5--5--|
|--5--5--5---5-5-3-3--3--3--|----------------------------|


Verse:                         Don't you give...                            better run...
|-----------------------|---------------|----------------------|------------
|-----------------------|---------------|----------------------|------------
|----2--------7--5------|--2--5---------|---2--------7--5------|--2--5------
|----2--5---5-7--5------|--2--5-=-------|---2--5---5-7--5------|--2--5------
|----0--5---5-5--3------|--0--3---------|---0--5---5-5--3------|--0--3------
|-------3---3-----------|---------------|------3---3-----------|------------

                               just like a...                              so don't give...
|-----------------------|---------------|-----------------------|-----------
|-----------------------|---------------|-----------------------|-----------
|----2--------7--5------|--2--5---------|----2--------7--5------|--2--5-----
|----2--5---5-7--5------|--2--5---------|----2--5---5-7--5------|--2--5-----
|----0--5---5-5--3------|--0--3---------|----0--5---5-5--3------|--0--3-----
|-------3---3-----------|---------------|-------3---3-----------|-----------

       don't you give...                          ...give me no lies                    you
|--------------------|---------|------------------|-------------------------
|--------------------|---------|------------------|-------------------------
|--------------------|--2--2---|------------------|--7----7--7-7--7-7--7----
|--3--3--------------|--2--2---|--3--3------5--5--|--7----7--7-7--7-7--7--7-
|--3--3--------------|--0--0---|--3--3------5--5--|--5----5--5-5--5-5--5--5-
|--1--1--------------|---------|--1--1------3--3--|-------------------------

 Chorus:
 can't stop   rock 'n'       roll                    you
|---------------------------|----------------------------|
|---------------------------|----------------------------|
|---------------------------|----------------------------|
|---------------------------|--9-8-7--7--7-7--7-7--7--7--|
|--7--7--7---7-7-5-5--5--5--|--7-6-5--5--5-5--5-5--5--5--|
|--5--5--5---5-5-3-3--3--3--|----------------------------|

 can't stop   rock 'n'       roll                          to verse:
|---------------------------|----------------------------|
|---------------------------|----------------------------|
|---------------------------|----------------------------|
|---------------------------|--9-8-7--7--7-7--7-7--7--7--|
|--7--7--7---7-7-5-5--5--5--|--7-6-5--5--5-5--5-5--5--5--|
|--5--5--5---5-5-3-3--3--3--|----------------------------|

after 2nd chorus:

|-----------------------------|----------------------------|
|-----------------------------|----------------------------|
|-----------------------------|----------------------------|
|--2--2--2--2-2-2-5-5--5--5-5-|--5-7-7--7--7-7--7-7--7--7--|
|--0--0--0--0-0-0-3-3--3--3-3-|--3-5-5--5--5-5--5-5--5--5--|
|-----------------------------|----------------------------|

|-----------------------------|----------------------------|
|-----------------------------|----------------------------|
|-----------------------------|----------------------------|
|--2--2--2--2-2-2-5-5--5--5-5-|--5-7-7--7--7-7--7-7--7--7--|
|--0--0--0--0-0-0-3-3--3--3-3-|--3-5-5--5--5-5--5-5--5--5--|
|-----------------------------|----------------------------|

|-----------------------------|----------------------------|
|-----------------------------|----------------------------|
|-----------------------------|----------------------------|
|--2--2--2--2-2-2-5-5--5--5-5-|--5-7-7--7--7-7--7-7--7--7--|
|--0--0--0--0-0-0-3-3--3--3-3-|--3-5-5--5--5-5--5-5--5--5--|
|-----------------------------|----------------------------|

 riffs on solo:
|-----------------------|--------------------|----------------------|-------
|-----------------------|---------|----------------------|------------------
|----2--------7--5------|--2--5---|--2-------------------|--2--5------------
|----2--5---5-7--5------|--2--5---|--0--3------3--5------|--2--5------------
|----0--5---5-5--3------|--0--3---|--0--3------3--5------|--0--3------------
|-------3---3-----------|---------|-----1------1--3------|------------------

|------------------|---------------|----------------------|-----------------
|------------------|---------------|----------------------|-----------------
|--2---------------|--2--5---------|--2-------------------|--2--5------2--5-
|--0--3------3--5--|--2--5---------|--0--3------3--5------|--2--5------2--5-
|--0--3------3--5--|--0--3---------|--0--3------3--5------|--0--3------0--3-
|-----1------1--3--|---------------|-----1------1--3------|-------------
                                                                           you
|----------------------|--------------------------|-------------------------
|----------------------|--------------------------|-------------------------
|--2-------------------|--7----7--7-7--7-7--7--7--|--7--7--7--7-7--7-7--7---
|--0--3------3--5------|--7----7--7-7--7-7--7--7--|--7--7--7--7-7--7-7--7-7-
|--0--3------3--5------|--5----5--5-5--5-5--5--5--|--5--5--5--5-5--5-5--5-5-
|-----1------1--3------|--------------------------|-------------------------

 can't stop...(chorus)
|---------------------------|
|---------------------------|
|---------------------------|
|--2--2--2---2-2------------|
|--0--0--0---0-0-5-5--5--5--|
|----------------3-3--3--3--|


:::::::::::::::::::::::::::::::::::::::::::::::::::::::::

Satellite Blues
 Intro + verse:
E|------------------------|-------------------|----3--3-----3---------|
B|------------------------|----------------3--|----3--3--3--3--3------|
G|--0--2--0----0--2--2----|----------------2--|----0--0--2--0--2------|
D|--0--2--0----0--2--2----|----------------0--|----0--0--0--0--0------|
A|--0--0--0----0--0--0----|-------------------|-----------------------|
E|------------------------|-------------------|-----------------------|
                                                                
 
 before chorus:                                    new satellite
|-------------------|----3--3-----3----------|------------------|
|----------------3--|----3--3--3--3--3----3--|------------------|
|----------------2--|----0--0--2--0--2----2--|------------------|
|----------------0--|----0--0--0--0--0----0--|------------------|
|-------------------|------------------------|------------------|
|-------------------|------------------------|------------------|
  
Chorus:
  blues                       new satellite  blues 
|------------------------|-----------------------|
|------------------------|--------------------3--|
|--0--2--0----0--2--2----|------2--0----2--2--2--|
|--0--2--0----0--2--2----|------2--0----2--2--0--|
|--0--0--0----0--0--0----|------0-------0--0-----|
|------------------------|-----------------------|

                            new satellite         blues
|----3--3-----3----------|----3--3-----3--------|------------------------|
|----3--3--3--3--3----3--|----3--3--3--3--------|------------------------|
|----0--0--2--0--2----2--|----0--0--2--0--------|--0--2--0----0--2--2----|
|----0--0--0--0--0----0--|----0--0--0--0--------|--0--2--0----0--2--2----|
|------------------------|----------------------|--0--0--0----0--0--0----|
|------------------------|----------------------|------------------------|

     new satellite  blues                                        to 
verse:                           
|-----------------------|----3--3-----3-------3--|----------3-----3------|
|--------------------3--|----3--3--3--3--3----3--|----1--1--3--1--3------|
|------2--0----2--2--2--|----0--0--2--0--2----0--|----0--0--0--0--0------|
|------2--0----2--2--0--|----0--0--0--0--0----0--|----2--2--0--2--0------|
|------0-------0--0-----|------------------------|----3--3-----3---------|
|-----------------------|------------------------|-----------------------|


 end of 2nd chorus:                                                     
to solo:         
|----------3-----3----3--|----------3-----3----3--|----------3-----3-------|
|----1--1--3--1--3----3--|----1--1--3--1--3----3--|----1--1--3--1--3----3--|
|----0--0--0--0--0----0--|----0--0--0--0--0----0--|----0--0--0--0--0----2--|
|----2--2--0--2--0----0--|----2--2--0--2--0----0--|----2--2--0--2--0----0--|
|----3--3-----3----------|----3--3-----3----------|----3--3-----3----------|
|------------------------|------------------------|------------------------|
 
solo chords same as 2nd chorus

 chorus part till end:
|------------------------|-----------------------|
|------------------------|--------------------3--|
|--0--2--0----0--2--2----|------2--0----2--2--2--|
|--0--2--0----0--2--2----|------2--0----2--2--0--|
|--0--0--0----0--0--0----|------0-------0--0-----|
|------------------------|-----------------------|
                                                              
|----3--3-----3-------3--|----------3-----3------|
|----3--3--3--3--3----3--|----1--1--3--1--3------|
|----0--0--2--0--2----0--|----0--0--0--0--0------|
|----0--0--0--0--0----0--|----2--2--0--2--0------|
|------------------------|----3--3-----3---------|
|------------------------|-----------------------|


 end chords:                                                                
|--3----3---------3----|-------------------|-------------------|
|--3----3----3----3----|--3----------------|-------------------|
|--0----0----2----0----|--2----------------|--2----------------|
|--0----0----0----0----|--0----------------|--2----------------|
|----------------------|-------------------|--0----------------|
|----------------------|-------------------|-------------------|

::::::::::::::::::::::::::::::::::::::::::::

Damned

Intro + verse:

E|--------------------|--------------------|--------------------|-----------
B|--------------------|--------------------|--------------------|-----------
G|----------------2-2-|--5------2----------|----------------2-2-|--5------2-
D|----------------2-2-|--5------2----------|----------------2-2-|--5------2-
A|----------------0-0-|--3------0----------|----------------0-0-|--3------0-
E|--------------------|--------------------|--------------------|-----------


to chorus:                        I'll be damned                            I'll be
|--------------------|-----------------------|-------------------|----------
|--------------------|-----------------------|-------------------|----------
|----------------2-2-|--5------2----9--8--7--|------7------------|----------
|----------------2-2-|--5------2----9--8--7--|------7\-----------|----------
|----------------0-0-|--3------0----7--6--5--|------5------------|----------
|--------------------|-----------------------|-------------------|----------

 Damned     if I...                            Damned     if I...
|---------------------|----------------------|---------------------|--------
|------------------3--|----------------------|------------------3--|----3---
|--5------2--------2--|--------2-------2-0-2-|--5------2--------2--|----0-2-
|--5------2--------0--|--------2-------------|--5------2--------0-------0-2-
|--0------0-----------|--------0-------------|--0------0-----------|------0-
|---------------------|----------------------|---------------------|----3---

 Damned     if I...
|---------------------|-------------------|----------------------|--------
|------------------3--|-------------------|----------------------|--------
|--5------2--------2--|--------2----------|--5----5----5--7--8--9|9--9--9-9\
|--5------2--------0--|--------2----------|--5----5----5--7--8--9|9--9--9-9-
|--0------0-----------|--------0----------|--3----3----3--5--6--7|7--7--7-7-
|---------------------|-------------------|----------------------|----------

2nd verse:

|--------------------|--------------------|--------------------|------------
|--------------------|--------------------|--------------------|------------
|--5------2----------|----------------2-2-|--5------2----------|------------
|--5------2----------|----------------2-2-|--5------2----------|------------
|--3------0----------|----------------0-0-|--3------0-----------------------
|--------------------|--------------------|--------------------|------------

during solo after 2nd chorus:

|--------------------|--------------------|--------------------|--3---------
|--------------------|---------3----------|--------------------|--3------3--
|--2------2----------|--5------2----------|--2------2----------|--0------2--
|--2------2----------|--5------0----------|--2------2----------|--0------0--
|--0------0----------|--3-----------------|--0------0----------|------------
|--------------------|--------------------|--------------------|--3------2--

|--------------------|--------------------|--------------------|--3---------
|--------------------|---------3----------|--------------------|--3------3--
|--2------2----------|--5------2----------|--2------2----------|--0------2--
|--2------2----------|--5------0----------|--2------2----------|--0------0--
|--0------0----------|--3-----------------|--0------0----------|-----------|
|--------------------|--------------------|--------------------|--3------2--

|--------------------------|--------------------------|---------------------
|--------------------------|--------------------------|---------------------
|--5--5--5--5--5--5--5--5--|--5--5--5--5--5--7--8--9--|9--9--9--9--9--9--9--
|--5--5--5--5--5--5--5--5--|--5--5--5--5--5--7--8--9--|9--9--9--9--9--9--9--
|--3--3--3--3--3--3--3--3--|--3--3--3--3--3--5--6--7--|7--7--7--7--7--7--7--
|--------------------------|--------------------------|---------------------

                      Chorus:

              I'll be damned     if I ...
|-------------------|---------------------|----------------------|
|-------------------|------------------3--|----------------------|
|--9----------------|--5------2--------2--|--------2-------2-0-2-|
|--9----------------|--5------2--------0--|--------2-------------|
|--7----------------|--0------0-----------|--------0-------------|
|-------------------|---------------------|----------------------|


:::::::::::::::::::::::::::::::::::::::::::::::

Come And Get It

Intro:

E|---------------------------|---------------------------|
B|---------------------------|---------------------------|
G|--5--2-----2~---0----------|--5--2-----2~---0----------|
D|--5--2-------------0-1-2---|--5--2-------------0-1-2---|
A|--3--0--0----------------0-|--3--0--0----------------0-|
E|---------------------------|---------------------------|

                                                    picking up...
|---------------------------|----------------------|------------------|
|---------------------------|----------------------|------------------|
|--5--2-----2~---0----------|--5--2-----2----------|------------------|
|--5--2-------------0-1-2---|--5--2-----2----------|------------------|
|--3--0--0----------------0-|--3--0--0--0----------|------------------|
|---------------------------|----------------------|------------------|

                              hell no distance...
|---------------------------|-------------------|---------------------------
|---------------------------|-------------------|---------------------------
|-----------2~---0----------|-------------------|-----------2~---0----------
|--5--2-------------0-1-2---|-------------------|--5--2-------------0-1-2---
|--3--0--0----------------3-|--0----------------|--3--0--0----------------3-
|---------------------------|-------------------|---------------------------

    burning down...                                 don't you...
|-------------------|---------------------------|-------------------|
|-------------------|---------------------------|-------------------|
|-------------------|-----------2~---0----------|-------------------|
|-------------------|--5--2-------------0-1-2---|-------------------|
|--0----------------|--3--0--0----------------3-|--0----------------|
|-------------------|---------------------------|-------------------|

                              these are...
|------------------------|-------------------|------------------------|
|------------------------|-------------------|------------------------|
|--5--5-----5---------5--|--5----------------|--5--5-----5---------5--|
|--7--7--5--7----5----7--|--7----------------|--7--7--5--7----5----7--|
|--5--5--5--5----5----5--|--5----------------|--5--5--5--5----5----5--|
|--------3-------3-------|-------------------|--------3-------3-------|

    don't think...                               I've got my...
|-------------------|------------------------|-------------------|
|-------------------|------------------------|-------------------|
|--5----------------|--7--7-----7---------7--|--7----------------|
|--7----------------|--9--9--7--9----7----9--|--9----------------|
|--5----------------|--7--7--7--7----7----7--|--7----------------|
|-------------------|--------5-------5-------|-------------------|

                          upon my...     ...want it   come and get it
|------------------------|-------------------|--------------------------|
|--3--3--2--3----2-------|-------------------|--------------------------|
|--2--2--2--2----2-------|-------------------|----------2~---0----------|
|--0--0--2--0----2----2--|--2----------------|--5--2------------0-1-2---|
|--0--0--0--0----0----2--|--2----------------|--3--0------------------3-|
|---------------------0--|--0----------------|--------------------------|

  (come and get it)  want it come and get it     (come and get it)
|-------------------|--------------------------|-------------------|
|-------------------|--------------------------|-------------------|
|-------------------|----------2~---0----------|-------------------|
|-------------------|--5--2------------0-1-2---|-------------------|
|--0----------------|--3--0------------------3-|--0----------------|
|-------------------|--------------------------|-------------------|

 want it come and get it     (come and get it)   want it come and get it
|--------------------------|-------------------|--------------------------|
|--------------------------|-------------------|--------------------------|
|----------2~---0----------|-------------------|----------2~---0----------|
|--5--2------------0-1-2---|-------------------|--5--2------------0-1-2---|
|--3--0------------------3-|--0----------------|--3--0------------------0-|
|--------------------------|-------------------|--------------------------|

                         2nd verse:
|----------------------|------------------|
|----------------------|------------------|
|--5--2-----2----------|------------------|
|--5--2-----2----------|------------------|
|--3--0--0--0----------|------------------|
|----------------------|------------------|

after 2nd chorus to solo part:

 want it         come and get it
|----------------------|----------------------|----------------------|
|----------------------|----------------------|----------------------|
|----------------------|--5--2-----2----------|-----------2----------|
|--5--2------5--2------|--5--2-----2----------|-----------2----------|
|--3--0------3--0------|--3--0--0--0----------|--3--0--0-------------|
|----------------------|----------------------|----------------------|

|----------------------|-------------------------|----------------------|
|----------------------|-------------------------|----------------------|
|-----------2----------|-----------2-------------|-----------2----------|
|-----------2----------|-----------2-------------|-----------2----------|
|--3--0--0--0----------|--3--0--0--0----0--0--0--|--3--0--0--0----------|
|----------------------|-------------------------|----------------------|

solo:

|----------------------|----------------------|----------------------|
|----------------------|----------------------|----------------------|
|----------------------|----------------------|----------------------|
|--5--2--2--2----------|--5--2--2--2----------|--5--2--2--2----------|
|--5--2--2--2----------|--5--2--2--2----------|--5--2--2--2----------|
|--3--0--0--0----------|--3--0--0--0----------|--3--0--0--0----------|

|----------------------|------------------------|-----------------------|
|----------------------|------------------------|----------------3------|
|----------------------|-----2--2-------2--2----|-----2--2--2----2------|
|--5--2--2--2----------|--5--2--2----5--2--2----|--5--2--2--2----0------|
|--5--2--2--2----------|--3--0--0----3--0--0----|--3--0--0--0-----------|
|--3--0--0--0----------|------------------------|-----------------------|

|------------------------|-----------------------|------------------------|
|------------------------|----------------3------|------------------------|
|-----2--2-------2--2----|-----2--2--2----2------|-----2--2-------2--2----|
|--5--2--2----5--2--2----|--5--2--2--2----0------|--5--2--2----5--2--2----|
|--3--0--0----3--0--0----|--3--0--0--0-----------|--3--0--0----3--0--0----|
|------------------------|----------------2------|------------------------|

|-----------------------|------------------------|-------------------------|
|----------------3------|------------------------|-------------------------|
|-----2--2--2----2------|--5--5-----5---------5--|--5----5--5--5--5--5--5--|
|--5--2--2--2----0------|--7--7--5--7----5----7--|--7----7--7--7--7--7--7--|
|--3--0--0--0-----------|--5--5--5--5----5----5--|--5----5--5--5--5--5--5--|
|-----------------------|--------3-------3-------|-------------------------|

                                              want it        come and
|------------------------|-------------------|----------------------|
|------------------------|-------------------|----------------------|
|--7--7-----7------------|-------------------|----------------------|
|--9--9--7--9----7----2--|--2----------------|--5--2----------------|
|--7--7--7--7----7----2--|--2----------------|--3--0----------5--7--|
|--------5-------5----0--|--0----------------|----------------3--5--|

  get it               want it      come and get it
|--------------------|----------------------|--------------------|
|--------------------|----------------------|--------------------|
|--------------------|----------------------|--------------------|
|--5--2--------------|--5--2----------------|--5--2--------------|
|--3--0--------------|--3--0----------5--7--|--3--0--------------|
|--------------------|----------------3--5--|--------------------|

::::::::::::::::::::::::::::::::::::::::::::::::::::::::

All Screwed Up

Main riff:

E|---------------------------|
B|---------------------------|
G|--4-4-4-4-4-4-4-4-4--------|
D|--4-4-4-4-4-4-4-4-4--------|
A|--0-2-2-0-2-2-0-2-2--------|
E|---------------------------|


Verse:

You think  you're   kinda     tough
|---------------------------|---------------------------|
|---------------------------|---------------------------|
|--4-4-4-4-4-4-4-4-4--------|--4-4-4-4-4-4-4-4-4--------|
|--4-4-4-4-4-4-4-4-4--------|--4-4-4-4-4-4-4-4-4--------|
|--0-2-2-0-2-2-0-2-2--------|--0-2-2-0-2-2-0-2-2--------|
|---------------------------|---------------------------|

 you're   walking   kinda     rough
|---------------------------|---------------------------|
|---------------------------|---------------------------|
|--4-4-4-4-4-4-4-4-4--------|--4-4-4-4-4-4-4-4-4--------|
|--4-4-4-4-4-4-4-4-4--------|--4-4-4-4-4-4-4-4-4--------|
|--0-2-2-0-2-2-0-2-2--------|--0-2-2-0-2-2-0-2-2--------|
|---------------------------|---------------------------|

when you   want    any       more
|---------------------------|---------------------------|
|---------------------------|---------------------------|
|---------------------------|---------------------------|
|--4-4-4-4-4-4-4-4-4--------|--4-4-4-4-4-4-4-4-4--------|
|--4-4-4-4-4-4-4-4-4--------|--4-4-4-4-4-4-4-4-4--------|
|--0-2-2-0-2-2-0-2-2--------|--0-2-2-0-2-2-0-2-2--------|

you go    fast     wo'        wo'               things go
|---------------------------|---------------------------|
|---------------------------|---------------------------|
|--4-4-4-4-4-4-4-4-4--------|--4-4-4-4-4-4-4-4-4--------|
|--4-4-4-4-4-4-4-4-4--------|--4-4-4-4-4-4-4-4-4--------|
|--0-2-2-0-2-2-0-2-2--------|--0-2-2-0-2-2-0-2-2--------|
|---------------------------|---------------------------|

 tough                       and you strut your stuff                     and I want your
|-----------------------|-------------------|-----------------------|-------
|----7----9----------8--|----7--------------|----7----9----------8--|----7--
|----7----9----9--7--7--|----7--------------|----7----9----9--7--7--|----7--
|--------------9--7-----|-------------------|--------------9--7-----|-------
|-----------------------|-------------------|-----------------------|-------
|-----------------------|-------------------|-----------------------|-------

|-----------------------|-------------------|-----------------------|-------
|-----------------------|-------------------|-----------------------|------|
|-----------------------|-------------------|-----------------------|-------
|-----------------------|-------------------|-----------------------|-------
|----4----2----2--4--5--|----5--------------|----4----2----2--4--5--|----5--
|----2----0----0--2--3--|----2--------------|----2----0----0--2--3--|----2--


 thing                        then you're out of luck                          all screwed
|-----------------------|-------------------|
|----7----9----------8--|----7--------------|
|----7----9----9--7--7--|----7--------------|
|--------------9--7-----|-------------------|
|-----------------------|-------------------|
|-----------------------|-------------------|

|-----------------------|-------------------|------|------------------------
|-----------------------|-------------------|------|------------------------
|-----------------------|-------------------|------|------------------------
|-----------------------|-------------------|--2---|--2----2--2----2--2--2--
|----4----2----2--4--5--|----5--------------|--2---|--2----2--2----2--2--2--
|----2----0----0--2--3--|----2--------------|--0---|--0----0--0----0--0--0--


Chorus:

  up                                            all screwed
|---------------------------|---------------------------|
|---------------------------|---------------------------|
|--4-4-4-4-4-4-4-4-4--------|--4-4-4-4-4-4-4-4-4--------|
|--4-4-4-4-4-4-4-4-4--------|--4-4-4-4-4-4-4-4-4--------|
|--0-2-2-0-2-2-0-2-2--------|--0-2-2-0-2-2-0-2-2--------|
|---------------------------|---------------------------|

  up                                    all screwed
|-----------------------------|---(0)---------------|
|-----------------------------|---(0)---------------|
|--4-4-4-4-4-4-4-4-4----------|---(1)---7----7------|
|--4-4-4-4-4-4-4-4-4----4--2--|---------7----7------|
|--0-2-2-0-2-2-0-2-2----2--2--|---------5----4------|
|--------------------------0--|---------------------|

  up                                            all screwed
|---------------------------|---------------------------|
|---------------------------|---------------------------|
|--4-4-4-4-4-4-4-4-4--------|--4-4-4-4-4-4-4-4-4--------|
|--4-4-4-4-4-4-2-4-4--------|--4-4-4-4-4-4-4-4-4--------|
|--0-2-2-0-2-2-0-2-2--------|--0-2-2-0-2-2-0-2-2--------|
|---------------------------|---------------------------|

  up                                               2nd verse:
|-----------------------------|--------------------|------------------------
|-----------------------------|--------------------|------------------------
|--4-4-4-4-4-4-4-4-4----------|--------7----7------|--4-4-4-4-4-4-4-4-4-----
|--4-4-4-4-4-4-4-4-4----4--2--|--------7----7------|--4-4-4-4-4-4-4-4-4-----
|--0-2-2-0-2-2-0-2-2----2--2--|--------5----4------|--0-2-2-0-2-2-0-2-2-----
|--------------------------0--|--------------------|------------------------


 end of 2nd chorus:
|---------------------------|----------------------|----------|
|---------------------------|----------------------|----------|
|--4-4-4-4-4-4-4-4-4--------|----------------------|----------|
|--4-4-4-4-4-4-4-4-4--------|----------------------|----------|
|--0-2-2-0-2-2-0-2-2--------|----2--4--5----7------|----------|
|---------------------------|----0--2--3----5------|----------|


solo part starts with these chords:
(play single string first, then two strings, then full chords)

   B               D       A          E
|----------------------------------|----------------------------------|
|----------------------------------|----------------------------------|
|--4-4-4-4-4-4-4-4-7-7-7-7-2-2-2-2-|----------------------------------|
|--4-4-4-4-4-4-4-4-7-7-7-7-2-2-2-2-|--2-2-2-2-2-2-2-2-2-2-2-2-2-2-2-2-|
|--2-2-2-2-2-2-2-2-5-5-5-5-0-0-0-0-|--2-2-2-2-2-2-2-2-2-2-2-2-2-2-2-2-|
|----------------------------------|--0-0-0-0-0-0-0-0-0-0-0-0-0-0-0-0-|


here's the same pattern with additional chords at the end:

   B               D       A          E               D    A
|----------------------------------|----------------------------|
|----------------------------------|------------------3----2----|
|--4-4-4-4-4-4-4-4-7-7-7-7-2-2-2-2-|------------------2----2----|
|--4-4-4-4-4-4-4-4-7-7-7-7-2-2-2-2-|--2-2-2-2-2-2-2-2-0----2----|
|--2-2-2-2-2-2-2-2-5-5-5-5-0-0-0-0-|--2-2-2-2-2-2-2-2------0----|
|----------------------------------|--0-0-0-0-0-0-0-0-----------|

::::::::::::::::::::::::::::::::::::::::::::::::::::::::

Give It Up

Intro:
E|------------------------|------------------|------------------------|-----
B|------------------------|------------------|------------------------|-----
G|--2--2--0----2--2--0----|------------------|--2--2--0----2--2--0----|-----
D|--2--2--0----2--2--0----|------------------|--2--2--0----2--2--0----|-----
A|--0--0--0----0--0--0----|------------------|--0--0--0----0--0--0----|-----
E|------------------------|------------------|------------------------|-----

 Angus riff on verse:
|------------------------|------------------------|
|------------------------|------------------------|
|--2--2--0----2--2--0----|-----------7----7--7----|
|--2--2--0----2--2--0----|--0--7--7--7----7--7----|
|--0--0--0----0--0--0----|--0--5--5--5----5--5----|
|------------------------|------------------------|

 Malcolm riff on verse:
|------------------------|-------------------------|
|------------------------|-------------------------|
|--2--2--0----2--2--0----|-----------7----0--2--0--|
|--2--2--0----2--2--0----|--0--7--7--7----0--2--0--|
|--0--0--0----0--0--0----|--0--5--5--5-------------|
|------------------------|-------------------------|

 Bridge to chorus:
                         do I make myself clear
|------------------------|----------------------|
|------------------------|----------------------|
|--2--2--0----2--2--0----|-----2--2--2----------|
|--2--2--0----2--2--0----|--0--2--2--2----------|
|--0--0--0----0--0--0----|--0--0--0--0----------|
|------------------------|----------------------|

I'm ready to rock...
|--3--3--3---------3----|-----------3---------|
|--3--3--3--3------3----|----3------3--3------|
|--0--0--0--2------0----|----2------0--2------|
|--0--0--0--0------0----|----0------0--0------|
|-----------------------|---------------------|
|--3--3--3---------3----|-----------3---------|

  ready to rock...
|-----------------------|---------------------|
|-----------------------|---------------------|
|--2--2--2--1------2----|----1------2--1------|
|--2--2--2--2------2----|----2------2--2------|
|--0--0--0--2------0----|----2------0--2------|
|-----------0-----------|----0---------0------|

Chorus:
 Give it up...
|------------------------|-------------------------|
|------------------------|-------------------------|
|--2--2--0----2--2--0----|-----7--7--7----0--2--0--|
|--2--2--0----2--2--0----|--0--7--7--7----0--2--0--|
|--0--0--0----0--0--0----|--0--5--5--5----0--0--0--|
|------------------------|-------------------------|

 whip it...
|------------------------|-------------------------|
|------------------------|-------------------------|
|--2--2--0----2--2--0----|-----7--7--7----0--2--0--|
|--2--2--0----2--2--0----|--0--7--7--7----0--2--0--|
|--0--0--0----0--0--0----|--0--5--5--5----0--0--0--|
|------------------------|-------------------------|

 stick it...                                            give it up
|------------------------|-------------------------|------------------------
|------------------------|----------------3--------|-----------------3------
|--2--2--0----2--2--0----|-----7--7--7----2--2-----|-----------------2--2---
|--2--2--0----2--2--0----|--0--7--7--7----0--2-----|-----------------0--2---
|--0--0--0----0--0--0----|--0--5--5--5-------0-----|--2-----------------0---
|------------------------|----------------------3--|--0--0--0--0--0-------3-

    give it up                 give it up                  give it up
|--------------------------|--------------------------|-------------------|
|-----------------3--------|-----------------3--------|-------------------|
|-----------------2--2-----|-----------------2--2-----|-------------------|
|-----------------0--2-----|-----------------0--2-----|--2----------------|
|--2-----------------0-----|--2-----------------0-----|--2----------------|
|--0--0--0--0--0--------3--|--0--0--0--0--0--------3--|--0----------------|

|------------------------|-------------------------|------------------------
|------------------------|-------------------------|------------------------
|--2--2--0----2--2--0----|-----7--7--7----0--2--0--|--2--2--0----2--2--0----
|--2--2--0----2--2--0----|--0--7--7--7----0--2--0--|--2--2--0----2--2--0----
|--0--0--0----0--0--0----|--0--5--5--5----0--0--0--|--0--0--0----0--0--0----
|------------------------|-------------------------|------------------------

                           2nd verse:
|-------------------------|------------------------|
|-------------------------|------------------------|
|-----7--7--7----0--2--0--|--2--2--0----2--2--0----|
|--0--7--7--7----0--2--0--|--2--2--0----2--2--0----|
|--0--5--5--5----0--0--0--|--0--0--0----0--0--0----|
|-------------------------|------------------------|


after 2nd chorus to solo:

    give it up                give it up                 I' going crazy...
|--------------------------|------------------------|-------------3-----3--|
|-----------------3--------|------------------------|--3----------3--3--3--|
|-----------------2--2-----|------------------------|--2----------0--2--0--|
|-----------------0--2-----|--2----2--2----2--2--2--|--0----------0--0--0--|
|--2-----------------0-----|--2----2--2----2--2--2--|----------------------|
|--0--0--0--0--0--------3--|--0----0--0----0--0--0--|----------------------|

                        take a...               give it up
|-------------------|-------------3-----3--|-------------------|
|--3----------------|--3----------3--3--3--|--3----------------|
|--2----------------|--2----------0--2--0--|--2----------------|
|--0----------------|--0----------0--0--0--|--0----------------|
|-------------------|----------------------|-------------------|
|-------------------|----------------------|-------------------|

 solo:                                 give it up
|-----------------------|------------------------|-----------------------|
|-----------------------|--3----3----------------|-----------------------|
|--2----2------2--2--2--|--2----2--5-------------|--2----2------2--2--2--|
|--2----2------2--2--2--|--0----0--5----5--5--5--|--2----2------2--2--2--|
|--0----0------0--0--0--|--0----0--3----3--3--3--|--0----0------0--0--0--|
|-----------------------|------------------------|-----------------------|

                              send me...
|------------------------|-------------3-----3--|-------------------|
|--3----3----------------|--3----------3--3--3--|--3----------------|
|--2----2--5-------------|--2----------0--2--0--|--2----------------|
|--0----0--5----5--5--5--|--0----------0--0--0--|--0----------------|
|--0----0--3----3--3--3--|----------------------|-------------------|
|------------------------|----------------------|-------------------|

       she'll give it up...        give it up                 give it up
|-------------3-----3--|----------------------|--------------------------|
|--3----------3--3--3--|--3----------3--------|-----------------3--------|
|--2----------0--2--0--|--2----------2--2-----|-----------------2--2-----|
|--0----------0--0--0--|--0----------0--2-----|-----------------0--2-----|
|----------------------|----------------0-----|--2--2--2--2--2-----0-----|
|----------------------|-------------------3--|--0--0--0--0--0--------3--|

                 give it up                 give it up
|--------------------------|--------------------------|
|-----------------3--------|-----------------3--------|
|-----------------2--2-----|-----------------2--2-----|
|-----------------0--2-----|-----------------0--2-----|
|--2--2--2--2--2-----0-----|--2--2--2--2--2-----0-----|
|--0--0--0--0--0--------3--|--0--0--0--0--0--------3--|

                            Chorus:
                                   Give it up...
|--------------------------|------------------------|
|--------------------------|------------------------|
|--------------------------|--2--2--0----2--2--0----|
|--------------------2--2--|--2--2--0----2--2--0----|
|--2--2--2--2--2--2--2--2--|--0--0--0----0--0--0----|
|--0--0--0--0--0--0--0--0--|------------------------|


Rock On!

wojciechtkocz@interia.pl

Hail to AC/DC
comments
print report bad tab
12 comments total. Showing first comments.
0 reply
mikedeit wrote on September 25 2005, 05:57 am

Well, it is accurate, that's for sure, but its missing the solo.

0 reply
TheJim wrote on June 8 2006, 11:10 am

yep...really good my friend bit messy in some places though...still get a 5 star off me tho

0 reply
AcdcTXfan wrote on July 17 2006, 12:47 am

i think this is great, it gets 5 stars for me. Stiff Upper Lip is the best tab out of the other Stiff Upper Lip tabs.

I want to post or [tab]
guest
You may want to rate the tab now too:
select rating
Please do not post tabs as comments. Select "correction" instead!