Oops, an error
Loading. Please wait.

Thunderstruck Tab

ver4
ver4

Intro

Interactive

Video

More versions @911Tabs.com
12,390 views 9 this week
4 commentsread comments
1 2 3 4 5
accurate
x 8
add to favorites launch autoscroll
font size
0
reset
Autoscroll
+/-
esc
set tempo
stop
Contributor
WARNING: You are trying to view
                                    content from Ultimate-Guitar.com
                                    in an unauthorized application,
                                    which is prohibited.

                                    Please use an official Ultimate
                                    Guitar Tabs application for iPhone,
                                    iPad or Android to access legitimate
                                    chords, guitar, bass, and drum tabs
                                    from Ultimate-Guitar.com database.

                                    Type "ultimate guitar tabs" in Apple
                                    App Store's or Android Market's
                                    search to find the application.
THUNDERSTRUCK
                              As recorded by AC/DC
                      (From the 1990 Album THE RAZORS EDGE)


         B5/F#                 B5                  B5IV                  A5
      x x 4 4 x x          x 2 4 4 x x          7 x 4 x x x          x 0 2 x x x

          E5
      0 2 x x x x

Gtr I (E A D G B E) - 'Angus Young'
Gtr II (E A D G B E) - 'Malcolm Young'
Gtr III (E A D G B E) - 'Angus Young Solo'

   Intro
    Fast Rock Q=140
   4/4
    Gtr I
||----------------------------------|----------------------------------|
||o-4p0h7p0h4p0h7p0h4p0h7p0h4p0h7p0h|=4p0h7p0h4p0h7p0h4p0h7p0h4p0h7p0--|
||----------------------------------|----------------------------------|
||----------------------------------|----------------------------------|
||o---------------------------------|----------------------------------|
||----------------------------------|----------------------------------|


  Gtr I
|---------------------------------|----------------------------------||
|-5p0h8p0h5p0h8p0h5p0h8p0h5p0h8p0h|=5p0h8p0h5p0h8p0h5p0h8p0h5p0h8p0-o||
|---------------------------------|----------------------------------||
|---------------------------------|----------------------------------||
|---------------------------------|---------------------------------o||
|---------------------------------|----------------------------------||


    Gtr I
                                                                         10x
||-------------------------------------|----------------------------------||
||o-12p0h10p0h9p0h10p0h9p0h7p0h9p0h5p0h|=7p0h4p0h5p0h4p0h5p0h4p0h5p0h4p0-o||
||-------------------------------------|----------------------------------||
||-------------------------------------|----------------------------------||
||o------------------------------------|---------------------------------o||
||-------------------------------------|----------------------------------||


   End Intro/1st Verse
       B5/F#                             B5      B5/F# B5    B5IVB5
    Gtr I
||-------------------------------------|---------------------------------|
||o-12p0h10p0h9p0h10p0h9p0h7p0h9p0h5p0h|=7p0h4p0h5p0h4p0h5p0h4p0h5p0h4p0-|
||-------------------------------------|---------------------------------|
||-------------------------------------|---------------------------------|
||o------------------------------------|---------------------------------|
||-------------------------------------|---------------------------------|
|
|   Gtr II
||-------------------------------------|---------------------------------|
||o------------------------------------|---------------------------------|
||-----4------4----------4-----4-------|-4-4-----4---------4-----4-------|
||-----4------4------4---4-----4-------|-4-4-----4-----4---4-4---4-------|
||o--2----2--------2-------2-------2---|-2---2-------2-2-------------2---|
||-------------------------------------|---------------------7-----------|


  B5        B5/F#                      B5IV    B5/F# B5/F#
  Gtr I
                                                                        6x
|------------------------------------|----------------------------------||
|-12p0h10p0h9p0h10p0h9p0h7p0h9p0h5p0h|=7p0h4p0h5p0h4p0h5p0h4p0h5p0h4p0-o||
|------------------------------------|----------------------------------||
|------------------------------------|----------------------------------||
|------------------------------------|---------------------------------o||
|------------------------------------|----------------------------------||
|
| Gtr II
|                                                                       6x
|------------------------------------|----------------------------------||
|------------------------------------|---------------------------------o||
|----4------4------4---4-----4-------|---4-----4-----4---4-----4--------||
|--4--------4------4---4-----4-------|-4-------4-----4---4-----4--------||
|--2----2--------2-------2-------2---|-2---2-------2-------2-------2---o||
|------------------------------------|----------------------------------||


     B5/F#                             B5      A5  E5
  Gtr I
|------------------------------------|---------------------------------|
|-12p0h10p0h9p0h10p0h9p0h7p0h9p0h5p0h|=7p0h4p0h5p0h4p0h5p0h4p0h5p0h4p0-|
|------------------------------------|---------------------------------|
|------------------------------------|---------------------------------|
|------------------------------------|---------------------------------|
|------------------------------------|---------------------------------|
|
| Gtr II
|------------------------------------|---------------------------------|
|------------------------------------|---------------------------------|
|----4------4----------4-----4-------|---------------------------------|
|----4------4------4---4-----4-------|-4-------2-----------------------|
|--2----2--------2-------2-------2---|-2-------0---2-------------------|
|------------------------------------|-------------0-------------------|


       A5            E5                B5      A5  E5
  Gtr I
|------------------------------------|---------------------------------|
|-12p0h10p0h9p0h10p0h9p0h7p0h9p0h5p0h|=7p0h4p0h5p0h4p0h5p0h4p0h5p0h4p0-|
|------------------------------------|---------------------------------|
|------------------------------------|---------------------------------|
|------------------------------------|---------------------------------|
|------------------------------------|---------------------------------|
|
| Gtr II
|------------------------------------|---------------------------------|
|------------------------------------|---------------------------------|
|------------------------------------|---------------------------------|
|-------2--------2-------------------|-4-------2-----------------------|
|-------0--------0---2---------------|-2-------0---2-------------------|
|--------------------0---------------|-------------0-------------------|


       A5            E5                B5      A5  E5
  Gtr I
|------------------------------------|---------------------------------|
|-12p0h10p0h9p0h10p0h9p0h7p0h9p0h5p0h|=7p0h4p0h5p0h4p0h5p0h4p0h5p0h4p0-|
|------------------------------------|---------------------------------|
|------------------------------------|---------------------------------|
|------------------------------------|---------------------------------|
|------------------------------------|---------------------------------|
|
| Gtr II
|------------------------------------|---------------------------------|
|------------------------------------|---------------------------------|
|------------------------------------|---------------------------------|
|-------2--------2-------------------|-4-------2-----------------------|
|-------0--------0---2---------------|-2-------0---2-------------------|
|--------------------0---------------|-------------0-------------------|


       A5            E5                B5      A5  E5
  Gtr I
|------------------------------------|---------------------------------|
|-12p0h10p0h9p0h10p0h9p0h7p0h9p0h5p0h|=7p0h4p0h5p0h4p0h5p0h4p0h5p0h4p0-|
|------------------------------------|---------------------------------|
|------------------------------------|---------------------------------|
|------------------------------------|---------------------------------|
|------------------------------------|---------------------------------|
|
| Gtr II
|------------------------------------|---------------------------------|
|------------------------------------|---------------------------------|
|------------------------------------|---------------------------------|
|-------2--------2-------------------|-4-------2-----------------------|
|-------0--------0---2---------------|-2-------0---2-------------------|
|--------------------0---------------|-------------0-------------------|


       A5            E5
  Gtr I
|------------------------------------|---------------------------------|
|-12p0h10p0h9p0h10p0h9p0h7p0h9p0h5p0h|=7p0h4p0h5p0h4p0h5p0h4p0h5p0h4p0-|
|------------------------------------|---------------------------------|
|------------------------------------|---------------------------------|
|------------------------------------|---------------------------------|
|------------------------------------|---------------------------------|
|
| Gtr II
|------------------------------------|---------------------------------|
|------------------------------------|---------------------------------|
|------------------------------------|---------------------------------|
|-------2--------2-------------------|---------------------------------|
|-------0--------0---2---------------|---------------------------------|
|--------------------0---------------|---------------------------------|


   2nd Verse
       B5/F#                             B5      B5/F# B5    B5IVB5/F#
    Gtr I
||-------------------------------------|---------------------------------|
||o-12p0h10p0h9p0h10p0h9p0h7p0h9p0h5p0h|=7p0h4p0h5p0h4p0h5p0h4p0h5p0h4p0-|
||-------------------------------------|---------------------------------|
||-------------------------------------|---------------------------------|
||o------------------------------------|---------------------------------|
||-------------------------------------|---------------------------------|
|
|   Gtr II
||-------------------------------------|---------------------------------|
||o------------------------------------|---------------------------------|
||-----4------4----------4-----4-------|-4-4-----4---------4-----4-------|
||-----4------4------4---4-----4-------|-4-4-----4-----4---4-4---4-------|
||o--2----2--------2-------2-------2---|-2---2-------2-2-------------2---|
||-------------------------------------|---------------------7-----------|


  B5        B5/F#                      B5      B5/F#
  Gtr I
                                                                        5x
|------------------------------------|----------------------------------||
|-12p0h10p0h9p0h10p0h9p0h7p0h9p0h5p0h|=7p0h4p0h5p0h4p0h5p0h4p0h5p0h4p0-o||
|------------------------------------|----------------------------------||
|------------------------------------|----------------------------------||
|------------------------------------|---------------------------------o||
|------------------------------------|----------------------------------||
|
| Gtr II
|                                                                       5x
|------------------------------------|----------------------------------||
|------------------------------------|---------------------------------o||
|----4------4------4---4-----4-------|---4-----4-----4---4-----4--------||
|--4--------4------4---4-----4-------|-4-------4-----4---4-----4--------||
|--2----2--------2-------2-------2---|-2---2-------2-------2-------2---o||
|------------------------------------|----------------------------------||


 Pre Chorus
  B5        A5       E5                                        A5
|------------------------------------|---------------------------------|
|-12p0h10p0h9p0h10p0h9p0h7p0h9p0h5p0h|=7p0h4p0h5p0h4p0h5p0h4p0h5p0h4p0-|
|------------------------------------|---------------------------------|
|------------------------------------|---------------------------------|
|------------------------------------|---------------------------------|
|------------------------------------|---------------------------------|
|
| Gtr II
|------------------------------------|---------------------------------|
|------------------------------------|---------------------------------|
|------------------------------------|---------------------------------|
|--4--------2------------------------|-------------------------2-------|
|--2--------0--------2---------------|-------------------------0-------|
|--------------------0---------------|---------------------------------|


  B5        A5       E5                                        A5
  Gtr I
|------------------------------------|---------------------------------|
|-12p0h10p0h9p0h10p0h9p0h7p0h9p0h5p0h|=7p0h4p0h5p0h4p0h5p0h4p0h5p0h4p0-|
|------------------------------------|---------------------------------|
|------------------------------------|---------------------------------|
|------------------------------------|---------------------------------|
|------------------------------------|---------------------------------|
|
| Gtr II
|------------------------------------|---------------------------------|
|------------------------------------|---------------------------------|
|------------------------------------|---------------------------------|
|--4--------2------------------------|-------------------------2-------|
|--2--------0--------2---------------|-------------------------0-------|
|--------------------0---------------|---------------------------------|


  B5        A5       E5                                        A5
  Gtr I
|------------------------------------|---------------------------------|
|-12p0h10p0h9p0h10p0h9p0h7p0h9p0h5p0h|=7p0h4p0h5p0h4p0h5p0h4p0h5p0h4p0-|
|------------------------------------|---------------------------------|
|------------------------------------|---------------------------------|
|------------------------------------|---------------------------------|
|------------------------------------|---------------------------------|
|
| Gtr II
|------------------------------------|---------------------------------|
|------------------------------------|---------------------------------|
|------------------------------------|---------------------------------|
|--4--------2------------------------|-------------------------2-------|
|--2--------0--------2---------------|-------------------------0-------|
|--------------------0---------------|---------------------------------|


  B5        A5       E5
  Gtr I
|------------------------------------|---------------------------------|
|-12p0h10p0h9p0h10p0h9p0h7p0h9p0h5p0h|=7p0h4p0h5p0h4p0h5p0h4p0h5p0h4p0-|
|------------------------------------|---------------------------------|
|------------------------------------|---------------------------------|
|------------------------------------|---------------------------------|
|------------------------------------|---------------------------------|
|
| Gtr II
|------------------------------------|---------------------------------|
|------------------------------------|---------------------------------|
|------------------------------------|---------------------------------|
|--4--------2------------------------|---------------------------------|
|--2--------0--------2---------------|---------------------------------|
|--------------------0---------------|---------------------------------|


   Chorus
    B5              A5                 E5
    Gtr I
||-----------------------------------------|
||o-12p0h10p0h=9p=0h10p0h9p0h=7p=0h9p0h5p0h|
||-----------------------------------------|
||-----------------------------------------|
||o----------------------------------------|
||-----------------------------------------|
|
|   Gtr II
||-----------------------------------------|
||o----------------------------------------|
||-----------------------------------------|
||---4--------(4)----2-------(2)---2-------|
||o--2--------(2)----0-------(0)---0---2---|
||-------------------------------------0---|


  E5            E5
                                       4x
|--------------------------------------||
|-7p0h4p0h=5p=0h4p0h5p0h=4p=0h5p0h4p0-o||
|--------------------------------------||
|--------------------------------------||
|-------------------------------------o||
|--------------------------------------||
|
|                                      4x
|--------------------------------------||
|-------------------------------------o||
|--------------------------------------||
|-2-------(2)--------------------------||
|-0-------(0)---2-------(2)-----------o||
|---------------0-------(0)------------||


    B5
    Gtr I
||-------------------------------------|------------------------------------||
||o-12p0h10p0h9p0h10p0h9p0h7p0h9p0h5p0h|==7p=0h4p0h5p0h4p0h5p0h4p0h5p0h4p0-o||
||-------------------------------------|------------------------------------||
||-------------------------------------|------------------------------------||
||o------------------------------------|-----------------------------------o||
||-------------------------------------|------------------------------------||
|
|   Gtr II
||-------------------------------------|------------------------------------||
||o------------------------------------|-----------------------------------o||
||-------------------------------------|------------------------------------||
||---4---------------------------------|-(4)--------------------------------||
||o--2---------------------------------|-(2)-------------------------------o||
||-------------------------------------|------------------------------------||


                  B5
  Gtr I
|----------------------------------------|---------------------------------|
|-12p0h10p0h9p=0h=10p0h9p0h=7p=0h9p0h5p0h|=7p0h4p0h5p0h4p0h5p0h4p0h5p0h4p0-|
|----------------------------------------|---------------------------------|
|----------------------------------------|---------------------------------|
|----------------------------------------|---------------------------------|
|----------------------------------------|---------------------------------|
|
| Gtr II
|----------------------------------------|---------------------------------|
|----------------------------------------|---------------------------------|
|----------------------------------------|---------------------------------|
|--4----2-----(2)--4-------(4)-----------|---------------------------------|
|------------------2-------(2)-----------|---------------------------------|
|----------------------------------------|---------------------------------|


                  B5
  Gtr I
|----------------------------------------|---------------------------------|
|-12p0h10p0h9p=0h=10p0h9p0h=7p=0h9p0h5p0h|=7p0h4p0h5p0h4p0h5p0h4p0h5p0h4p0-|
|----------------------------------------|---------------------------------|
|----------------------------------------|---------------------------------|
|----------------------------------------|---------------------------------|
|----------------------------------------|---------------------------------|
|
| Gtr II
|----------------------------------------|---------------------------------|
|----------------------------------------|---------------------------------|
|----------------------------------------|---------------------------------|
|--4----2-----(2)--4-------(4)-----------|---------------------------------|
|------------------2-------(2)-----------|---------------------------------|
|----------------------------------------|---------------------------------|


 Guitar Solo
  E5   B5              A5         E5
  Gtr III
  ~~~~       ~~~~~~        ~
|------------------------|------------------------------|
|-9-9--------------------|---------------------------7--|
|-9-9--7b7.5-------------|--------9-(9)--9b11==(9)r-----|
|------------9-(9)-----7-|-7------9-(9)-----------------|
|--------------------9---|------------------------------|
|------------------------|------------------------------|
|
| Gtr II
|------------------------|------------------------------|
|------------------------|------------------------------|
|------------------------|------------------------------|
|------4---------------2-|-2--(2)-----------------------|
|-2----2---------------0-|-0--(0)-2-----------------(2)-|
|-0----------------0h2---|--------0-----------------(0)-|


                 B5IV         A5           E5
                 ~~~~~~~                   ~~~~~~
|-7-----------------------------|-------------------------|
|---10-7---7--------------------|-------------------------|
|--------9---7b8----------------|-------------------9b11==|
|----------------9-(9)\-------7-|-7b9------9-(9)----------|
|-------------------------7s9---|-------------------------|
|-------------------------------|-------------------------|
|
|-------------------------------|-------------------------|
|-------------------------------|-------------------------|
|-------------------------------|-------------------------|
|----------------4------------2-|-2----(2)----------------|
|-2--------------2------------0-|-0----(0)-2-------(2)----|
|-0---------------------0h2-----|----------0-------(0)----|


  E5       B5                              A5             E5
  Gtr III
|----------------------------------------------|-------------------17b19==|
|----------------------------------------------|--------------------------|
|-9r---7-9-9b11-9p7-(7)-(7)-9b11-9p7---7-------|---9--7b8-----------------|
|----9-------------------------------9---9-4-9-|-9--------9-(9)-4---------|
|----------------------------------------------|--------------------------|
|----------------------------------------------|--------------------------|
|
|----------------------------------------------|--------------------------|
|----------------------------------------------|--------------------------|
|----------------------------------------------|--------------------------|
|----------4-------------------------------2---|-2---(2)------------------|
|-2--------2-------------------------------0---|-0---(0)--2--------(2)----|
|-0------------------------------0h====2-------|----------0--------(0)----|


  E5                 B5                             A5                                E5
                                                                                       ~~~~~~~~~~~~~~~~~~
|-17r-17-14--------------------17-17b19-17p14----14------------|----------------------------------------------|
|-----------17b19-17---15b15.5----------------17----17b19r(17)-|-15b15.5----17----17--15b17==(15)--(15)r--0---|
|--------------------------------------------------------------|---------16----16-----------------------------|
|--------------------------------------------------------------|----------------------------------------------|
|--------------------------------------------------------------|----------------------------------------------|
|--------------------------------------------------------------|----------------------------------------------|
|
|--------------------------------------------------------------|----------------------------------------------|
|--------------------------------------------------------------|----------------------------------------------|
|--------------------------------------------------------------|----------------------------------------------|
|--------------------4-------------------------------2---------|--2---------------(2)-------------------------|
|--2-----------------2-------------------------------0---------|--0---------------(0)--2-----------------(2)--|
|--0-------------------------------------0h====2---------------|-----------------------0-----------------(0)--|


    B5            A5
    Gtr I
                                                                          4x
||-------------------------------------|----------------------------------||
||o-12p0h10p0h9p0h10p0h9p0h7p0h9p0h5p0h|=7p0h4p0h5p0h4p0h5p0h4p0h5p0h4p0-o||
||-------------------------------------|----------------------------------||
||-------------------------------------|----------------------------------||
||o------------------------------------|---------------------------------o||
||-------------------------------------|----------------------------------||
|
|   Gtr II
|                                                                         4x
||-------------------------------------|----------------------------------||
||o------------------------------------|---------------------------------o||
||-------------------------------------|----------------------------------||
||---4-------------2-------------------|----------------------------------||
||o--2-------------0-------------------|---------------------------------o||
||-------------------------------------|----------------------------------||


  Gtr I
|------------------------------------|---------------------------------|
|-12p0h10p0h9p0h10p0h9p0h7p0h9p0h5p0h|=7p0h4p0h5p0h4p0h5p0h4p0h5p0h4p0-|
|------------------------------------|---------------------------------|
|------------------------------------|---------------------------------|
|------------------------------------|---------------------------------|
|------------------------------------|---------------------------------|


   Chorus
    B5              A5             A5  E5
    Gtr I
||-----------------------------------------|
||o-12p0h10p0h=9p=0h10p0h9p0h=7p=0h9p0h5p0h|
||-----------------------------------------|
||-----------------------------------------|
||o----------------------------------------|
||-----------------------------------------|
|
|   Gtr II
||-----------------------------------------|
||o----------------------------------------|
||-----------------------------------------|
||---4--------(4)----2-------(2)---2-------|
||o--2--------(2)----0-------(0)---0---2---|
||-------------------------------------0---|


  A5            E5
                                       4x
|--------------------------------------||
|-7p0h4p0h=5p=0h4p0h5p0h=4p=0h5p0h4p0-o||
|--------------------------------------||
|--------------------------------------||
|-------------------------------------o||
|--------------------------------------||
|
|                                      4x
|--------------------------------------||
|-------------------------------------o||
|--------------------------------------||
|-2-------(2)--------------------------||
|-0-------(0)---2-------(2)-----------o||
|---------------0-------(0)------------||


    B5                             A5
    Gtr I
                                                                            4x
||-------------------------------------|------------------------------------||
||o-12p0h10p0h9p0h10p0h9p0h7p0h9p0h5p0h|==7p=0h4p0h5p0h4p0h5p0h4p0h5p0h4p0-o||
||-------------------------------------|------------------------------------||
||-------------------------------------|------------------------------------||
||o------------------------------------|-----------------------------------o||
||-------------------------------------|------------------------------------||
|
|   Gtr II
|                                                                           4x
||-------------------------------------|------------------------------------||
||o------------------------------------|-----------------------------------o||
||-------------------------------------|------------------------------------||
||---4---------------------------------|------------------------------------||
||o--2-----------------------------2---|-(2)-------------------------------o||
||-------------------------4p==2---0---|-(0)--------------------------------||


 Out-Solo/Chorus
  B5         A5                E5  A5        E5
  Gtr III
                    ~~~~~~~~~~~~~~~~~~~~
|--------10h=12-10---------------|--------------------|
|-10b12------------12-----(12)---|-(12)---------------|
|--------------------------------|--------------------|
|--------------------------------|--------------------|
|--------------------------------|--------------------|
|--------------------------------|--------------------|
|
| Gtr II
|--------------------------------|--------------------|
|--------------------------------|--------------------|
|--------------------------------|--------------------|
|--4-----(4)--2-------(2)---2----|---2---(2)----------|
|--2-----(2)--0-------(0)---0--2-|---0---(0)-2--(2)---|
|------------------------------0-|-----------0--(0)---|


  B5              A5                E5   A5          E5
|-14-12-10-12b14====(12)r-10--------10-|-9----------------------------|
|-----------------------------10b12----|---10b12r10-----12------------|
|--------------------------------------|-------------11----11--(11)---|
|--------------------------------------|------------------------------|
|--------------------------------------|------------------------------|
|--------------------------------------|------------------------------|
|
|--------------------------------------|------------------------------|
|--------------------------------------|------------------------------|
|--------------------------------------|------------------------------|
|--4-------(4)----2-------(2)--2-------|-2-------(2)------------------|
|--2-------(2)----0-------(0)--0-----2-|-0-------(0)--2----(2)--------|
|------------------------------------0-|--------------0----(0)--------|


  B5               A5             E5      A5               E5
  Gtr III
|------14b16-(14)r---14b17-14--13-10b12-|-10-----8b10-8b10-8b10-8b10-8b10-10b10.5-----10-10b10.5----10b11-|
|---12----------------------------------|----12-----------------------------------12-------------12-------|
|---------------------------------------|-----------------------------------------------------------------|
|---------------------------------------|-----------------------------------------------------------------|
|---------------------------------------|-----------------------------------------------------------------|
|---------------------------------------|-----------------------------------------------------------------|
|
| Gtr II
|---------------------------------------|-----------------------------------------------------------------|
|---------------------------------------|-----------------------------------------------------------------|
|---------------------------------------|-----------------------------------------------------------------|
|-4-----------(4)--2-------(2)--2-------|--2----(2)-------------------------------------------------------|
|-2-----------(2)--0-------(0)--0--2----|--0----(0)--------2----------------------(2)---------------------|
|----------------------------------0----|------------------0----------------------(0)---------------------|


  B5        A5             E5       A5               E5
|-----12b14--------10b10.5-12b14==|=(12)r---------------------------------------------------|
|-12------------------------------|--------17--17b19---17b19r(17)-17b19-17b19-17b19-17b19---|
|---------------------------------|---------------------------------------------------------|
|---------------------------------|---------------------------------------------------------|
|---------------------------------|---------------------------------------------------------|
|---------------------------------|---------------------------------------------------------|
|
|---------------------------------|---------------------------------------------------------|
|---------------------------------|---------------------------------------------------------|
|---------------------------------|---------------------------------------------------------|
|--4--(4)---2--(2)--2-------------|---2----(2)----------------------------------------------|
|--2--(2)---0--(0)--0-------2-----|---0----(0)-------2------------(2)-----------------------|
|---------------------------0-----|------------------0------------(0)-----------------------|


  B5IV                    A5                            E5      A5               E5
  Gtr III
                                             ~~~~~~~~~~~                  ~~~~~~~~~~~~~~~~~~
|-------------------------------------------------------------|-14-12p10----------------------------12h14-|
|-17b19-17b19-17b19-17b19-17b19-17b19-17b19-17b19-17b19-17b19-|----------12-(12)---(12)-----12-(12)-------|
|-------------------------------------------------------------|-------------------------11----------------|
|-------------------------------------------------------------|-------------------------------------------|
|-------------------------------------------------------------|-------------------------------------------|
|-------------------------------------------------------------|-------------------------------------------|
|
| Gtr II
|-------------------------------------------------------------|-------------------------------------------|
|-------------------------------------------------------------|-------------------------------------------|
|-------------------------------------------------------------|-------------------------------------------|
|--4----------------(4)----2----------(2)----------2----------|--2-----------(2)--------------------------|
|--2----------------(2)----0----------(0)----------0-----2----|--0-----------(0)-2------(2)---------------|
|--------------------------------------------------------0----|------------------0------(0)---------------|


  B5              A5                A5       E5         A5                            E5
                      ~~~~~~~                                                               ~~~~~~~~~~~~~~~~~~~
|-12p11----12p=10h12p10-(10)--------------------------|----------------------------------------------------------|
|-------12-----------------------------------22-------|-----22---------------------------------------------------|
|--------------------------------19-21-21b23----21b23-|-21r----21b23==(21)r-----21b23---21-19--------------------|
|----------------------------21-----------------------|---------------------------------------21-(21)-----(21)---|
|-----------------------------------------------------|----------------------------------------------------------|
|-----------------------------------------------------|----------------------------------------------------------|
|
|-----------------------------------------------------|----------------------------------------------------------|
|-----------------------------------------------------|----------------------------------------------------------|
|-----------------------------------------------------|----------------------------------------------------------|
|--4-------(4)-----2---------(2)-----2----------------|--2------------------(2)----------------------------------|
|--2-------(2)-----0---------(0)-----0--------2-------|--0------------------(0)-------2---------------(2)--------|
|---------------------------------------------0-------|-------------------------------0---------------(0)--------|


  B5       A5                             E5      A5         E5
  Gtr III
                                                   ~~~~~
|----------------------19-----------------------|-------------------22b24--|
|----22b24-22-19-22b24----22--19-22-22b24-22p19-|-22b24--------------------|
|-----------------------------------------------|--------------------------|
|-----------------------------------------------|--------------------------|
|-----------------------------------------------|--------------------------|
|-----------------------------------------------|--------------------------|
|
| Gtr II
|-----------------------------------------------|--------------------------|
|-----------------------------------------------|--------------------------|
|-----------------------------------------------|--------------------------|
|-4--(4)----2-------------(2)-----2-------------|--2-----(2)---------------|
|-2--(2)----0-------------(0)-----0--------2----|--0-----(0)-2--(2)--------|
|------------------------------------------0----|------------0--(0)--------|


  B5                A5                             E5   A5           E5
                                                    ~~
|-22b25-22b23-19b20-----------------------------------|------------------------------------|
|-------------------22-19-----------------------------|----------22--22-----(22)------22---|
|-------------------------21b22-21--19b19.5==(19)r----|-19-21b23-----22b24==(22)r-----22---|
|--------------------------------------------------21-|------------------------------------|
|-----------------------------------------------------|------------------------------------|
|-----------------------------------------------------|------------------------------------|
|
|-----------------------------------------------------|------------------------------------|
|-----------------------------------------------------|------------------------------------|
|-----------------------------------------------------|------------------------------------|
|--4----------(4)----2----------(2)------------2------|--2-------(2)-----------------------|
|--2----------(2)----0----------(0)------------0----2-|--0-------(0)--2-----------(2)------|
|---------------------------------------------------0-|---------------0-----------(0)------|


  Notably Slower Q=90
  B5
  Gtr I
|------------------------------------|-----------------------------------|
|-12p0h10p0h9p0h10p0h9p0h7p0h9p0h5p0h|==7p=0h4p0h5p0h4p0h5p0h4p0h5p0h4p0-|
|------------------------------------|-----------------------------------|
|------------------------------------|-----------------------------------|
|------------------------------------|-----------------------------------|
|------------------------------------|-----------------------------------|
|
| Gtr II
|------------------------------------|-----------------------------------|
|------------------------------------|-----------------------------------|
|------------------------------------|-----------------------------------|
|--4---------------------------------|-(4)-------------------------------|
|--2---------------------------------|-(2)-------------------------------|
|------------------------------------|-----------------------------------|


  B5
  Gtr I
|------------------------------------|-----------------------------------*|
|-12p0h10p0h9p0h10p0h9p0h7p0h9p0h5p0h|==7p=0h4p0h5p0h4p0h5p0h4p0h5p0h4p0-*|
|------------------------------------|-----------------------------------*|
|------------------------------------|-----------------------------------*|
|------------------------------------|-----------------------------------*|
|------------------------------------|-----------------------------------*|
|
| Gtr II
|------------------------------------|-----------------------------------*|
|------------------------------------|-----------------------------------*|
|------------------------------------|-----------------------------------*|
|--4---------------------------------|-(4)---------------------------4---*|
|--2---------------------------------|-(2)---------------------------2---*|
|------------------------------------|-----------------------------------*|


Tablature Legend
----------------
 h   - hammer-on
 p   - pull-off
 b   - bend
 pb  - pre-bend
 r   - bend release (if no number after the r, then release immediately)
 /\  - slide into or out of (from/to "nowhere")
 s   - legato slide
 S   - shift slide
  - natural harmonic
[n]  - artificial harmonic
n(n) - tapped harmonic
 ~   - vibrato
 tr  - trill
 T   - tap
 TP  - trem. picking
 PM  - palm muting
\n/  - tremolo bar dip; n = amount to dip
 \n  - tremolo bar down
 n/  - tremolo bar up
/n\  - tremolo bar inverted dip
 =   - hold bend; also acts as connecting device for hammers/pulls
 <>  - volume swell (louder/softer)
 x   - on rhythm slash represents muted slash
 o   - on rhythm slash represents single note slash
comments
print report bad tab
4 comments total. Showing first comments.
0 reply
kornrules09 wrote on June 4 2005, 12:00 am

this tab rock, its the only one with the outro solo too.

0 reply
nOtAwaNnaB182 wrote on July 19 2005, 12:00 am

ok for everyone who thinks that the intro can only be played by picking
angus said that he plays it both picking and hammer ons and pull offs so it doesn't matter that much it's a personal preference thing

0 reply
Evil_Jester_666 wrote on February 27 2008, 06:12 pm

Nice job

I want to post or [tab]
guest
You may want to rate the tab now too:
select rating
Please do not post tabs as comments. Select "correction" instead!