Oops, an error
Loading. Please wait.

Tnt Tab

ver1
ver1

Album

Solo

More versions @911Tabs.com
141,459 views 45 this week
9 commentsread comments
1 2 3 4 5
worth learning
x 8
add to favorites launch autoscroll
font size
0
reset
Autoscroll
+/-
esc
set tempo
stop
Contributor
Difficulty
advanced
WARNING: You are trying to view
                                    content from Ultimate-Guitar.com
                                    in an unauthorized application,
                                    which is prohibited.

                                    Please use an official Ultimate
                                    Guitar Tabs application for iPhone,
                                    iPad or Android to access legitimate
                                    chords, guitar, bass, and drum tabs
                                    from Ultimate-Guitar.com database.

                                    Type "ultimate guitar tabs" in Apple
                                    App Store's or Android Market's
                                    search to find the application.
Album: T.N.T
Band: Ac/dc
tabbed by Austen L.

______________________________________________________________________________


Song: It's a Long Way To the Top


Intro: (Guitar 1)
+--------------------------------------------------------------------|
+--------------------------------------------------------------------|
+--------------------------------------------------------------------|
+---4..4----4-----4..4----4-----4..4----4-----4..4----4--------------|
+-0-2..2--X-2---0-2..2--X-2---0-2..2--X-2---0-2..2--X-2--------------|
+--------------------------------------------------------------------|

Fill (Guitar 2)
+--------------------|
+--------------------|
+----------------4---|......
+---4..4-------2-4---|......
+-0-2..2--X-2H4--2---|......
+--------------------|

After a while, Guitar 2 changes to this rhythm part:

+--------------|
+--------------|
+--------------|
+-4-4..4--2-4--|
+-0-2..2--2-2--|
+--------------|
  p


Fill:

+------7--X-7.. Guitar 1-|
+------7----7------------|.
+------------------------|
+-4-4..4--2-4-- Guitar 2-|
+-0-2..2--2-2------------|
+------------------------|


Chorus:

+-------------------  +-------------------------------------------------|
+-------------------  +-------------------------------------------------|
+-4......2...4..----OR+-----9-------------------------------------------|
+-4......2...2..----  +-9-7-9-------------------------------------------|
+-2......0...-------  +-9-7-7-------------------------------------------|
+-------------------  +-7-5(0)------------------------------------------|

Bridge:
+-----------------------------------------------------------------------|
+-----------------------------------------------------------------------|
+-------9-----------9---------------------------------------------------|
+-9-----9-------7---9---9-----------------------------------------------|
+-9-----7-------7---7---9-----------------------------------------------|
+-7-------------5-------7-----------------------------------------------|

Then comes the solo.  The bagpipe part goes:

+----7~~--|
+---------|
+-7H8-----|
+---------|
+---------|
+---------|


That's about it.  It's pretty easy.  The solo is in the 7th position.

The System:

 --2H4------------|         Hammer on
 --4P2------------|         Pull off
 --2S4------------|         Slide
 --2..--         Let Ring
 --2..2-         Let Ring, then hit again
 --2~~--         Vibrato

 --0-0--         Palm Mute
  p p


 --0-0--         Up & Down Picking
  U D

 --0-0-2-0-0-3-0-0-2-0-0-3-0-0-2H3--     Metallica
  p..........................
  D U D U D U D U D U D U D U D

The spacing of the notes kind of reflects the timing of the song, but not
very well.


---------------------------------------------------------------------------


Song: Rock'n'Roll Singer

  Intro:
E|-------------------|--------------------|----------------------|
B|-------------------|--------------------|----------------------|
G|----------------4--|--4--------------4--|---------4---------1--|
D|----------------4--|--4--------------4--|----2----4----2----2--|
A|----------------2--|--2--------------2--|----0----2----0----2--|
E|-------------------|--------------------|-------------------0--|

|-------------------|-------------------|--------------------|
|-------------------|-------------------|--------------------|
|--1----------------|----------------4--|--4--------------4--|
|--2----------------|----------------4--|--4--------------4--|
|--2----------------|----------------2--|--2--------------2--|
|--0----------------|-------------------|--------------------|

|----------------------|-------------------|-------------------|
|----------------------|-------------------|-------------------|
|---------4---------1--|--1----------------|----------------4--|
|----2----4----2----2--|--2----------------|----------------4--|
|----0----2----0----2--|--2----------------|----------------2--|
|-------------------0--|--0----------------|-------------------|

|-----------------------|-----------------------|-----------------------|
|-----------------------|-----------------------|-----------------------|
|-------4----4-------4--|-------4----4-------4--|-------4----4-------4--|
|----2--4----4-------4--|----2--4----4-------4--|----2--4----4-------4--|
|----0--2----2----x--2--|----0--2----2----x--2--|----0--2----2----x--2--|
|-----------------------|-----------------------|-----------------------|

                     verse pattern:
|-----------------------|-----------------------|-----------------------|
|-----------------------|-----------------------|--------------------3--|
|-------4----4-------4--|-------4----4-------4--|-------4----4-------2--|
|----2--4----4-------4--|----2--4----4-------4--|----2--4----4-------0--|
|----0--2----2----x--2--|----0--2----2----x--2--|----0--2----2----x--0--|
|-----------------------|-----------------------|-----------------------|

                                        end verse pattern:
--------------------|-----------------------|-----------------------|
--------------------|-----------------------|-----------------------|
--------1--------4--|-------4----4-------4--|-------4----4-------4--|
--------2--------4--|----2--4----4-------4--|----2--4----4-------4--|
--------2--------2--|----0--2----2----x--2--|----0--2----2----x--2--|
--------0-----------|-----------------------|-----------------------|


 to chorus:                                  doctor       lawyerman
|-----------------------|-----------------------|-------------------|
|-----------------------|-----------------------|-------------------|
|-------4----4-------4--|-------4----4-------1--|----------------4--|
|----2--4----4-------4--|----2--4----4----x--2--|----------------4--|
|----0--2----2----x--2--|----0--2----2----x--2--|----------------2--|
|-----------------------|--------------------0--|-------------------|

                     but I...                               gonna    be...
|------------------|-------------------|------------------|---------------------|
|------------------|-------------------|------------------|---------------------|
|------------------|--1----------------|------------------|--4--------2------1--|
|------------------|--2----------------|------------------|--4--------2------2--|
|------------------|--2----------------|------------------|--2--------0------2--|
|------------------|--0----------------|------------------|------------------0--|

                      gonna    be...
|-------------------|---------------------|-------------------|
|----------3--------|---------------------|----------3--------|
|----------2--------|--4--------2------1--|----------2--------|
|----------0--------|--4--------2------2--|----------0--------|
|----------0--------|--2--------0------2--|----------0--------|
|-------------------|------------------0--|-------------------|

  gonna     be...                           gonna    be...
|---------------------|-------------------|---------------------|
|---------------------|----------3--------|---------------------|
|--4--------2------1--|----------2--------|--4--------2------1--|
|--4--------2------2--|----------0--------|--4--------2------2--|
|--2--------0------2--|----------0--------|--2--------0------2--|
|------------------0--|-------------------|------------------0--|

                                           to verse:
|----------------------|-----------------------|-----------------------|
|----------------------|-----------------------|-----------------------|
|------1----1--1----1--|--1----1--1----1----4--|-------4----4-------4--|
|------2----2--2----2--|--2----2--2----2----4--|----2--4----4----x--4--|
|------2----2--2----2--|--2----2--2----2----2--|----0--2----2----x--2--|
|------0----0--0----0--|--0----0--0----0-------|-----------------------|


 after 2nd chorus:                      gonna    be...
|------------------|------------------|---------------------|
|------------------|------------------|---------------------|
|------------------|------------------|--4--------2------1--|
|------------------|------------------|--4--------2------2--|
|------------------|------------------|--2---------------2--|
|------------------|------------------|------------------0--|

|----------------------|-----------------------|------------------|
|----------------------|-----------------------|------------------|
|------1----1--1----1--|--1----1--1----1----4--|------------------|
|------2----2--2----2--|--2----2--2----2----4--|------------------|
|------2----2--2----2--|--2----2--2----2----2--|------------------|
|------0----0--0----0--|--0----0--0----0-------|------------------|

                                    to solo:
|----------------------|--------------------|------------------|
|----------------------|--------------------|------------------|
|--4---------4----2----|--1--1--------------|------------------|
|--4----2----4----2----|--2--2--------------|------------------|
|--2----0----2----0----|--2--2--------------|------------------|
|----------------------|--0--0--------------|------------------|


 end of solo:
|-------------------|-----------------------|-----------------------|
|-------------------|-----------------------|-----------------------|
|----------------4--|-------4----4-------4--|-------4----4-------4--|
|----------------4--|----2--4----4-------4--|----2--4----4-------4--|
|----------------2--|----0--2----2----x--2--|----0--2----2----x--2--|
|-------------------|-----------------------|-----------------------|

                                                 you can stick...
|-----------------------|-----------------------|------------------|
|-----------------------|-----------------------|------------------|
|-------4----4-------4--|-------4----4----------|------------------|
|----2--4----4-------4--|----2--4----4-------4--|------------------|
|----0--2----2----x--2--|----0--2----2----x--4--|------------------|
|-----------------------|-----------------0--2--|------------------|

------------------------------------------------------------------------------

Song:The Jack

Intro:
   B          A          B          A          B          A          E
e|----------|----------|----------|----------|----------|----------|----------|
b|----------|----------|----------|----------|----------|----------|----------|
g|----------|----------|----------|----------|----------|----------|----------|
D|-4-4-6-7--|-2-2-4-5--|-4-4-6-7--|-2-2-4-5--|-4-4-6-7--|-2-2-4-5--|----------|
A|-2-2-2-2--|-0-0-0-0--|-2-2-2-2--|-0-0-0-0--|-2-2-2-2--|-0-0-0-0--|-2-2-4-5--|
E|----------|----------|----------|----------|----------|----------|-0-0-0-0--|

e|----------|-----------------|
b|----------|-----------------|
g|----------|-----------------|
D|-2-3-4----|-4-4-4-4-4-4-4/--|
A|-0-1-2----|-2-2-2-2-2-2-2/--|
E|----------|-----------------|

Figures:
   E-Pattern       A-Pattern
e|-----------| e|-----------|
b|-----------| b|--------3--|     Verse: 4 x E-Pattern
g|-----------| g|--------4--|            4 x A-Pattern
D|-----------| D|--2-2-4-5--|            4 x E-Pattern
A|-2-2-4-5---| A|--0-0-0-0--|            4 x A-Pattern
E|-0-0-0-0---| E|-----------|

Chorus:
   E
e|-------------------------------|-------------------------------|
b|-------------------------------|-------------------------------|
g|-------------------------------|-------------------------------|
D|-------------------------------|-------------------------------|
A|-2---2---4---4---5---5---4---4-|-2---2---4---4---5---5---4---4-|
E|-0---0---0---0---0---0---0---0-|-0---0---0---0---0---0---0---0-|

   E
e|-------------------------------|-------------------------------|
b|-------------------------------|-------------------------------|
g|-------------------------------|-------------------------------|
D|-------------------------------|-------------------------------|
A|-2---2---4---4---5---5---4---4-|-2---2---4---4---5---5---4---4-|
E|-0---0---0---0---0---0---0---0-|-0---0---0---0---0---0---0---0-|

   A
e|-------------------------------|-------------------------------|
b|-------------------------------|-------------------------------|
g|-------------------------------|-------------------------------|
D|-2---2---4---4---2---2---4---4-|-2---2---4---4---2---2---4---4-|
A|-0---0---0---0---0---0---0---0-|-0---0---0---0---0---0---0---0-|
E|-------------------------------|-------------------------------|

   E
e|-------------------------------|-------------------------------|
b|-------------------------------|-------------------------------|
g|-------------------------------|-------------------------------|
D|-------------------------------|-------------------------------|
A|-2---2---4---4---5---5---4---4-|-2---2---4---4---5---5---4---4-|
E|-0---0---0---0---0---0---0---0-|-0---0---0---0---0---0---0---0-|

  B                                A             third time go to (*)
e|-------------------------------|-------------------------------|
b|-------------------------------|-------------------------------|
g|------4-4-4-4-4-4-4-4-4-4-4-4--|-2-2-2-2-2-2-2-2-2-2-2-2-------|
D|------4-4-4-4-4-4-4-4-4-4-4-4--|-2-2-2-2-2-2-2-2-2-2-2-2-------|
A|------2-2-2-2-2-2-2-2-2-2-2-2--|-0-0-0-0-0-0-0-0-0-0-0-0-------|
E|-------------------------------|-------------------------------|
   E                                                       B
e|-------------------------------|-------------------------------|
b|-------------------------------|-------------------------------|
g|-------------------------------|-------------------------------|
D|-------------------------------|-----------------2---3---4-----|
A|-2---2---4---4---5---5---4---4-|-2---2---2---2---0---1---2-----|
E|-0---0---0---0---0---0---0---0-|-0---0---0---0---0---0---0-----|

(*)       ritard  b            b r         play Chorus 3 x take (*) third time
                                               (F)  (E) (x)=Tremolo picking
e|-----------0---3-(4)-0-----------------------------0--------------------------|
b|------0--3---0---------3--0------------------------0----------------------9---|
g|----------------------------2-4-2-0-2-0-------2----1----------------------9---|
D|-----------------------------------------2----3----2----------------------9---|
A|----------------------------------------------3----2----------------------7---|
E|-0-----------------------------------------0--1----0----------------------0---|

Solo: played over verse...see patterns!
   E
               b                b  r   ~~~~           b       b   b
e|----------------------------------------------------------------------------|
b|----------------------------------------------------------------------12----|
g|--------9--11-(13)----------11-13-11-9---------9--11-13---11-12----13-------|
D|-9--11---------------9--11---------------9--11------------------------------|
A|----------------------------------------------------------------------------|
E|----------------------------------------------------------------------------|
                                           B
      r   b   r            b               bend           b
e|------------------------------------------------------------------------------|
b|-------------------------------12---15----------------------------------------|
g|-13--12--13--11-9-----14-16-----------14-16-14-12-14-14-16-14-12----14---12---|
D|------------------------------------------------------------------14----14----|
A|------------------------------------------------------------------------------|
E|------------------------------------------------------------------------------|
    b       b   b   b   b     b                    tr          b      ~~~~~~~
e|----------------------------------------------------------------------------|
b|-------------------------------3-0-------------------------10-12--8---------|
g|-2-4-----2-4-2-4-2-4-2-4---2-0-----2-0-----0------------------------9-------|
D|---------------------------------------2-0---0---2-----0--------------------|
A|----------------------------------------------------------------------------|
E|----------------------------------------------------------------------------|
                   b           r        b       r          b     b
e|-------12----------------------------------------------15-17-15-17-15-12-14-|
b|-12-15----12--15--17--17---17-15-12-14-15------14--12-----------------------|
g|----------------------------------------------------------------------------|
D|----------------------------------------------------------------------------|
A|----------------------------------------------------------------------------|
E|----------------------------------------------------------------------------|
                                        b~~~~                      b
e|15-17-15-14-12----12----------------------------------------------------12--|
b|---------------15----15-12----12----------12-------------------------12-----|
g|---------------------------14----14-14-16----15-12-14-12----12-14-16--------|
D|---------------------------------------------------------14-----------------|
A|----------------------------------------------------------------------------|
E|----------------------------------------------------------------------------|
                           ~~~~~~  ~~~~~   b     b
e|------------------------------------------------------|
b|15-12-------------------------------------15----15----|
g|------15-14-12----14----12------9----14-16-14-16------|
D|---------------14----14-------------------------------|
A|------------------------------------------------------|
E|------------------------------------------------------|


-----------------------------------------------------------------------------


Song: Live Wire

Intro:


E-----------|
B-----------|
G--2-----4--| Play this
D--2--2--4--| 4 times.
A--0--2--2--|
E-----0-----|

E--------|--------|
B--------|--------|
G-----4--|-----4--| Play this
D--2--4--|--2--4--| 2 times.
A--2--2--|--2--2--|
E--0-----|--0-----|

Verse:


E--------------|--------------|
B--------------|--------------|
G--2-----4--4--|--2-----4--4--| Play this
D--2--2--4--4--|--2--2--4--4--| 4 times.
A--0--2--2--2--|--0--2--2--2--|
E-----0--------|-----0--------|


Chorus:


E--3--|--3--3--|-----|--------|--3--|--3--3--|
B--3--|--3--3--|-----|--------|--3--|--3--3--|
G--0--|--0--0--|--4--|--4--4--|--0--|--0--0--|
D--0--|--0--0--|--4--|--4--4--|--0--|--0--0--|
A--2--|--2--2--|--2--|--2--2--|--2--|--2--2--|
E--3--|--3--3--|-----|--------|--3--|--3--3--|

E--------------------|--------------------|
B--------------------|--------------------|
G--------------------|--------------------|
D--4-4-4-4--4-4-4-4--|--4-4-4-4--4-4-4-4--|
A--4-4-4-4--4-4-4-4--|--4-4-4-4--4-4-4-4--|
E--2-2-2-2--2-2-2-2--|--2-2-2-2--2-2-2-2--|

Verse:


E-----|--------------|
B-----|--------------|
G--4--|--2-----4--4--|
D--4--|--2--2--4--4--|
A--2--|--0--2--2--2--|
E-----|-----0--------|

E--------------|--------------|
B--------------|--------------|
G--2-----4--4--|--2-----4--4--| Play this
D--2--2--4--4--|--2--2--4--4--| 3 times.
A--0--2--2--2--|--0--2--2--2--|
E-----0--------|-----0--------|

E--------------|--------|
B--------------|--------|
G--2-----4--4--|-----4--| Play this
D--2--2--4--4--|--2--4--| 4 times.
A--0--2--2--2--|--2--2--|
E-----0--------|--0-----|

E----------------------|
B----------------------|
G--4--4----4--4--4--4--|
D--4--4----4--4--4--4--|
A--2--2----2--2--2--2--|
E----------------------|

2nd Chorus:


E--3--|--3--3--|-----|--------|--3--|--3--3--|
B--3--|--3--3--|-----|--------|--3--|--3--3--|
G--0--|--0--0--|--4--|--4--4--|--0--|--0--0--|
D--0--|--0--0--|--4--|--4--4--|--0--|--0--0--|
A--2--|--2--2--|--2--|--2--2--|--2--|--2--2--|
E--3--|--3--3--|-----|--------|--3--|--3--3--|

E--------------------|--------------------|
B--------------------|--------------------|
G--------------------|--------------------|
D--4-4-4-4--4-4-4-4--|--4-4-4-4--4-4-4-4--|
A--4-4-4-4--4-4-4-4--|--4-4-4-4--4-4-4-4--|
E--2-2-2-2--2-2-2-2--|--2-2-2-2--2-2-2-2--|

Pre-Solo:


E--------------------|--------------------|
B--------------------|--------------------|
G-----------------7--|-----------------7--| Play this
D--9--7--9--7--9-----|--9--7--9--7--9-----| 4 times.
A--------------------|--------------------|
E--------------------|--------------------|

Solo:


Guitar 1


E--------------------|--------------------|
B--------------------|--------------------|
G-----------------7--|-----------------7--| Play this
D--9--7--9--7--9--7--|--9--7--9--7--9--7--| 3 times.
A--9--7--9--7--9--5--|--9--7--9--7--9--5--|
E--7--5--7--5--7-----|--7--5--7--5--7-----|

E--------------------|-----------------------|
B--------------------|-----------------------|
G-----------------7--|-----------------------|
D--9--7--9--7--9--7--|--9--7--9--7--9--7--9--|
A--9--7--9--7--9--5--|--9--7--9--7--9--7--9--|
E--7--5--7--5--7-----|--7--5--7--5--7--5--7--|

E--3--|--3--3--|-----|--------|--3--|--3--3--|
B--3--|--3--3--|-----|--------|--3--|--3--3--|
G--0--|--0--0--|--4--|--4--4--|--0--|--0--0--|
D--0--|--0--0--|--4--|--4--4--|--0--|--0--0--|
A--2--|--2--2--|--2--|--2--2--|--2--|--2--2--|
E--3--|--3--3--|-----|--------|--3--|--3--3--|

E--------------------|--------------------|
B--------------------|--------------------|
G--------------------|--------------------|
D--4-4-4-4--4-4-4-4--|--4-4-4-4--4-4-4-4--|
A--4-4-4-4--4-4-4-4--|--4-4-4-4--4-4-4-4--|
E--2-2-2-2--2-2-2-2--|--2-2-2-2--2-2-2-2--|

E--------------|--------------|
B--------------|--------------|
G--2-----4--4--|--2-----4--4--| Play this
D--2--2--4--4--|--2--2--4--4--| 2 times.
A--0--2--2--2--|--0--2--2--2--|
E-----0--------|-----0--------|


Guitar 2


E----7---7~-|-7-5------------------|-----------12~-|-12h14p12------|
B-7~---7----|-----7-5--------------|-7~-/10-12-----|---------15p12-|
G-----------|---------7-4---4-7-7~-|---------------|---------------|
D-----------|-------------7--------|---------------|---------------|
A-----------|----------------------|---------------|---------------|
E-----------|----------------------|---------------|---------------|

E----------------------|----------|----14-12h13h14~-|-14-13-12-14~-|
B----12-15~--12-14-15~-|----15-12-|-15--------------|--------------|
G-14-------------------|-14-------|-----------------|--------------|
D----------------------|----------|-----------------|--------------|
A----------------------|----------|-----------------|--------------|
E----------------------|----------|-----------------|--------------|

E----------19-|-19p17---------------------|-22b-22b-20-22b-20------|
B-19-18-17----|-------19p17---------------|------------------22-19-|
G-------------|-------------19-16-19-19~\-|------------------------|
D-------------|---------------------------|------------------------|
A-------------|---------------------------|------------------------|
E-------------|---------------------------|------------------------|

E-------------------|-------------|
B-22-19-22-19-17-19-|-19-17----19-|
G-------------------|-------19----|
D-------------------|-------------|
A-------------------|-------------|
E-------------------|-------------|

E--------------------|--------------------|
B--------------------|--------------------|
G-----------------7--|-----------------7--| Play this
D--9--7--9--7--9-----|--9--7--9--7--9-----| 5 times.
A--------------------|--------------------|
E--------------------|--------------------|

E--------------|------      ---|
B--------------|-12- Let Ring -|
G--------------|----  Through -|
D-9- Let Ring -|---- The Next -|
A--------------|----   Verse  -|
E--------------|------      ---|

Verse:


E--------------|--------------|
B--------------|--------------|
G--2-----4--4--|--2-----4--4--| Play this
D--2--2--4--4--|--2--2--4--4--| 2 times.
A--0--2--2--2--|--0--2--2--2--|
E-----0--------|-----0--------|

E--------------|--------|
B--------------|--------|
G--2-----4--4--|-----4--| Play this
D--2--2--4--4--|--2--4--| 4 times.
A--0--2--2--2--|--2--2--|
E-----0--------|--0-----|

E----------------------|
B----------------------|
G--4--4----4--4--4--4--|
D--4--4----4--4--4--4--|
A--2--2----2--2--2--2--|
E----------------------|

Chorus & Outro:


Guitar 1


E--3--|--3--3--|-----|--------|--3--|--3--3--|
B--3--|--3--3--|-----|--------|--3--|--3--3--|
G--0--|--0--0--|--4--|--4--4--|--0--|--0--0--|
D--0--|--0--0--|--4--|--4--4--|--0--|--0--0--|
A--2--|--2--2--|--2--|--2--2--|--2--|--2--2--|
E--3--|--3--3--|-----|--------|--3--|--3--3--|

E--------------------|--------------------|
B--------------------|--------------------|
G--------------------|--------------------|
D--4-4-4-4--4-4-4-4--|--4-4-4-4--4-4-4-4--|
A--4-4-4-4--4-4-4-4--|--4-4-4-4--4-4-4-4--|
E--2-2-2-2--2-2-2-2--|--2-2-2-2--2-2-2-2--|

E--3--|--3--3--|-----|--------|
B--3--|--3--3--|-----|--------|
G--0--|--0--0--|--4--|--4--4--| Play this
D--0--|--0--0--|--4--|--4--4--| 6 times.
A--2--|--2--2--|--2--|--2--2--|
E--3--|--3--3--|-----|--------|

E--------------------|--------------------|
B--------------------|--------------------|
G--------------------|--4-4-4-4--4-4-4-4--| Play this
D--5-5-5-5--5-5-5-5--|--4-4-4-4--4-4-4-4--| 4 times.
A--5-5-5-5--5-5-5-5--|--2-2-2-2--2-2-2-2--|
E--3-5-3-3--3-3-3-3--|--------------------|


Guitar 2


E-------------|------------|------------|
B-12-12~-12\0-|-12-12~-12\-|-12-12~-12\-|
G-------------|------------|------------|
D-------------|------------|------------|
A-------------|------------|------------|
E-------------|------------|------------|

E-----------------|---------------------|
B-12-10-----------|-12-14-15~-15\14\12~-|
G-------11-9------|---------------------|
D------------12~\-|---------------------|
A-----------------|---------------------|
E-----------------|---------------------|

E----------------------|-19----17-19-19-|
B-15h17-19--19-19--19~-|----19----------|
G----------------------|----------------|
D----------------------|----------------|
A----------------------|----------------|
E----------------------|----------------|

E-19-19~-19----19~-|-19----19~-19-17--------17--------|
B-----------19-----|----19-----------19-19~----19-19~-|
G------------------|----------------------------------|
D------------------|----------------------------------|
A------------------|----------------------------------|
E------------------|----------------------------------|

E-19h22p19--------------------------------------------|
B----------22-19-19~-19-17-17~--------------17-19-----|
G------------------------------19-16--16-19-------19~-|
D-----------------------------------------------------|
A-----------------------------------------------------|
E-----------------------------------------------------|

E----19-------19-|-19-------22-19-|-22-17-19-22-17-19-|
B-19----19-22----|----19-22-------|-------------------|
G----------------|----------------|-------------------|
D----------------|----------------|-------------------|
A----------------|----------------|-------------------|
E----------------|----------------|-------------------|

E-22-17-19-22-17-19--22-17-19-22-17-19--22-17-19--|
B-------------------------------------------------|
G-------------------------------------------------|
D-------------------------------------------------|
A-------------------------------------------------|
E-------------------------------------------------|

E-22-17-19--22-17-19-22-17-19--22-19-17----|----22b-22b-|
B---------------------------------------19-|-19---------|
G------------------------------------------|------------|
D------------------------------------------|------------|
A------------------------------------------|------------|
E------------------------------------------|------------|

E-22p21h22-17p15-------------------------|------------|
B----------------17p15-------------------|------------|
G----------------------17p16p14-17--14~--|-17-17~-14~-|
D----------------------------------------|------------|
A----------------------------------------|------------|
E----------------------------------------|------------|

E----------------------|
B----------------------|
G-17-17-14~--17-17-14~-| Play this
D----------------------| 8 times.
A----------------------|
E----------------------|

E----------------------------------|
B----17-15-----17-15-----17-15-----|
G-16-------16~-------16~-------16~-|
D----------------------------------|
A- Play This While The Song Fades -|
E--------------- Out --------------|


----------------------------------------------------------------------------

Song:T.N.T

   		    INTRO
E-|---|----|-----------------------|-----------------|
B-|---|----|-----------------------|-----------------|
G-|---|----|----------2------2-----|-----------------|
D-|-2-|----|-2-----0--2---0--2--0--|-----------------|
A-|-2-|----|-2-----0--0---0--0--0--|-----------------|
E-|-0-|----|-0-----3------3(b)--3--|-----------------|
   L.R.			               P.M.

	VERSE (SAME AS INTRO)


		    PLAY THIS PART AFTER CHORUS
    CHORUS	    IS PLAYED FOR THE LAST TIME
E--|----------|--------------------------------------|
B--|----------|--------------------------------------|
G--|--2-------|------2-------------------------------|
D--|--2--0--2-|--0---2-------------------------------|
A--|--0--0--2-|--0---0-------------------------------|
E--|-----3--O-|--3-----------------------------------|
			  L.R.

THE SOLO AT THE END OF THE SONG IS PLAYED IN E MINOR
PENTATONIC.

----------------------------------------------------------------------------


Song:Rocker

Intro
E||-----------|------------------------|------------------------|
B||-----------|------------------------|------------------------|
G||-----------|-----2------------------|-----2------------------|
D||--------0h-|--2--2--4----2----4--0h-|--2--2--4----2----4--0h-|
A||--------0--|-----0--0----0----0--0--|-----0--0----0----0--0--|
E||-----------|------------------------|------------------------|

------------------------|------------------------|------------------------|
------------------------|------------------------|------------------------|
-----2------------------|-----2---------------0h-|--2--2--4----2----4--0h-|
--2--2--4----2----4--0h-|--2--2--4----2----4--0--|-----0--0----0----0--0--|
-----0--0----0----0--0--|-----0--0----0----0-----|------------------------|
------------------------|------------------------|------------------------|

------------------------|------------------------|------------------------|
------------------------|------------------------|------------------------|
--2--2--4----2----4-----|-----2------------------|-----2------------------|
-----0--0----0----0--0h-|--2--2--4----2----4--0h-|--2--2--4----2----4-----|
---------------------0--|-----0--0----0----0--0--|-----0--0----0----0--0h-|
------------------------|------------------------|---------------------0--|

------------------------|------------------------|------------------------|
------------------------|------------------------|------------------------|
------------------------|------------------------|-----2------------------|
------------------------|---------------------0h-|--2--2--4----2----4--0h-|
--2--2--4----2----4--0h-|--2--2--4----2----4--0--|-----0--0----0----0--0--|
-----0--0----0----0--0--|-----0--0----0----0-----|------------------------|

------------------------|------------------------|------------------------|
------------------------|------------------------|------------------------|
-----2------------------|-----2------------------|-----2------------------|
--2--2--4----2----4--0h-|--2--2--4----2----4--0h-|--2--2--4----2----4--0h-|
-----0--0----0----0--0--|-----0--0----0----0--0--|-----0--0----0----0--0--|
------------------------|------------------------|------------------------|

------------------------|------------------------|------------------------|
------------------------|------------------------|------------------------|
-----2------------------|-----2---------------0h-|--2--2--4----2----4--0h-|
--2--2--4----2----4--0h-|--2--2--4----2----4--0--|-----0--0----0----0--0--|
-----0--0----0----0--0--|-----0--0----0----0-----|------------------------|
------------------------|------------------------|------------------------|

------------------------|------------------------|------------------------|
------------------------|------------------------|------------------------|
--2--2--4----2----4-----|-----2------------------|-----2------------------|
-----0--0----0----0--0h-|--2--2--4----2----4--0h-|--2--2--4----2----4-----|
---------------------0--|-----0--0----0----0--0--|-----0--0----0----0--0h-|
------------------------|------------------------|---------------------0--|

------------------------|------------------------|------------------------|
------------------------|------------------------|------------------------|
------------------------|------------------------|-----2------------------|
------------------------|---------------------0h-|--2--2--4----2----4--0h-|
--2--2--4----2----4--0h-|--2--2--4----2----4--0--|-----0--0----0----0--0--|
-----0--0----0----0--0--|-----0--0----0----0-----|------------------------|

------------------------|-------------------|-------------------|
------------------------|-------------------|-------------------|
-----2------------------|--2----------------|--2----------------|
--2--2--4----2----4--0h-|--2----------------|--2----------------|
-----0--0----0----0--0--|--0----------------|--0----------------|
------------------------|-------------------|-------------------|

-------------------|-------------------|------------------------|
-------------------|-------------------|------------------------|
--2----------------|--2----------------|--2--2--4----2----4--0h-|
--2----------------|--2----------------|-----0--0----0----0--0--|
--0----------------|--0----------------|------------------------|
-------------------|-------------------|------------------------|

------------------------|------------------------|------------------------|
------------------------|------------------------|------------------------|
--2--2--4----2----4-----|-----2------------------|-----2------------------|
-----0--0----0----0--0h-|--2--2--4----2----4--0h-|--2--2--4----2----4-----|
---------------------0--|-----0--0----0----0--0--|-----0--0----0----0--0h-|
------------------------|------------------------|---------------------0--|

------------------------|------------------------|------------------------|
------------------------|------------------------|------------------------|
------------------------|------------------------|-----2------------------|
------------------------|---------------------0h-|--2--2--4----2----4--0h-|
--2--2--4----2----4--0h-|--2--2--4----2----4--0--|-----0--0----0----0--0--|
-----0--0----0----0--0--|-----0--0----0----0-----|------------------------|

------------------------|------------------------|------------------------|
------------------------|------------------------|------------------------|
-----2------------------|-----2------------------|-----2------------------|
--2--2--4----2----4--0h-|--2--2--4----2----4--0h-|--2--2--4----2----4--0h-|
-----0--0----0----0--0--|-----0--0----0----0--0--|-----0--0----0----0--0--|
------------------------|------------------------|------------------------|

------------------------|------------------------|------------------------|
------------------------|------------------------|------------------------|
-----2------------------|-----2---------------0h-|--2--2--4----2----4--0h-|
--2--2--4----2----4--0h-|--2--2--4----2----4--0--|-----0--0----0----0--0--|
-----0--0----0----0--0--|-----0--0----0----0-----|------------------------|
------------------------|------------------------|------------------------|

------------------------|------------------------|------------------------|
------------------------|------------------------|------------------------|
--2--2--4----2----4-----|-----2------------------|-----2------------------|
-----0--0----0----0--0h-|--2--2--4----2----4--0h-|--2--2--4----2----4-----|
---------------------0--|-----0--0----0----0--0--|-----0--0----0----0--0h-|
------------------------|------------------------|---------------------0--|

------------------------|------------------------|------------------------|
------------------------|------------------------|------------------------|
------------------------|------------------------|-----2------------------|
------------------------|---------------------0h-|--2--2--4----2----4--0h-|
--2--2--4----2----4--0h-|--2--2--4----2----4--0--|-----0--0----0----0--0--|
-----0--0----0----0--0--|-----0--0----0----0-----|------------------------|

------------------------|------------------------|------------------------|
------------------------|------------------------|------------------------|
-----2------------------|-----2------------------|-----2------------------|
--2--2--4----2----4--0h-|--2--2--4----2----4--0h-|--2--2--4----2----4--0h-|
-----0--0----0----0--0--|-----0--0----0----0--0--|-----0--0----0----0--0--|
------------------------|------------------------|------------------------|

------------------------|------------------------|------------------------|
------------------------|------------------------|------------------------|
-----2------------------|-----2---------------0h-|--2--2--4----2----4--0h-|
--2--2--4----2----4--0h-|--2--2--4----2----4--0--|-----0--0----0----0--0--|
-----0--0----0----0--0--|-----0--0----0----0-----|------------------------|
------------------------|------------------------|------------------------|

solo
------------------------|------------------------|------------------------|
------------------------|------------------------|------------------------|
--2--2--4----2----4-----|-----2------------------|-----2------------------|
-----0--0----0----0--0h-|--2--2--4----2----4--0h-|--2--2--4----2----4-----|
---------------------0--|-----0--0----0----0--0--|-----0--0----0----0--0h-|
------------------------|------------------------|---------------------0--|

------------------------|------------------------|------------------------|
------------------------|------------------------|------------------------|
------------------------|------------------------|-----2------------------|
------------------------|---------------------0h-|--2--2--4----2----4--0h-|
--2--2--4----2----4--0h-|--2--2--4----2----4--0--|-----0--0----0----0--0--|
-----0--0----0----0--0--|-----0--0----0----0-----|------------------------|

------------------------|-------------------|-------------------|
------------------------|-------------------|-------------------|
-----2------------------|--2----------------|--2----------------|
--2--2--4----2----4--0h-|--2----------------|--2----------------|
-----0--0----0----0--0--|--0----------------|--0----------------|
------------------------|-------------------|-------------------|

-------------------|-------------------|------------------------|
-------------------|-------------------|------------------------|
--2----------------|--2----------------|--2--2--4----2----4--0h-|
--2----------------|--2----------------|-----0--0----0----0--0--|
--0----------------|--0----------------|------------------------|
-------------------|-------------------|------------------------|

------------------------|------------------------|------------------------|
------------------------|------------------------|------------------------|
--2--2--4----2----4-----|-----2------------------|-----2------------------|
-----0--0----0----0--0h-|--2--2--4----2----4--0h-|--2--2--4----2----4-----|
---------------------0--|-----0--0----0----0--0--|-----0--0----0----0--0h-|
------------------------|------------------------|---------------------0--|

------------------------|------------------------|------------------------|
------------------------|------------------------|------------------------|
------------------------|------------------------|-----2------------------|
------------------------|---------------------0h-|--2--2--4----2----4--0h-|
--2--2--4----2----4--0h-|--2--2--4----2----4--0--|-----0--0----0----0--0--|
-----0--0----0----0--0--|-----0--0----0----0-----|------------------------|

------------------------|------------------------|------------------------|
------------------------|------------------------|------------------------|
-----2------------------|-----2------------------|-----2------------------|
--2--2--4----2----4--0h-|--2--2--4----2----4--0h-|--2--2--4----2----4--0h-|
-----0--0----0----0--0--|-----0--0----0----0--0--|-----0--0----0----0--0--|
------------------------|------------------------|------------------------|

------------------------|------------------------|------------------------|
------------------------|------------------------|------------------------|
-----2------------------|-----2---------------0h-|--2--2--4----2----4--0h-|
--2--2--4----2----4--0h-|--2--2--4----2----4--0--|-----0--0----0----0--0--|
-----0--0----0----0--0--|-----0--0----0----0-----|------------------------|
------------------------|------------------------|------------------------|

------------------------|------------------------|------------------------|
------------------------|------------------------|------------------------|
--2--2--4----2----4-----|-----2------------------|-----2------------------|
-----0--0----0----0--0h-|--2--2--4----2----4--0h-|--2--2--4----2----4-----|
---------------------0--|-----0--0----0----0--0--|-----0--0----0----0--0h-|
------------------------|------------------------|---------------------0--|

------------------------|------------------------|------------------------|
------------------------|------------------------|------------------------|
------------------------|------------------------|-----2------------------|
------------------------|---------------------0h-|--2--2--4----2----4--0h-|
--2--2--4----2----4--0h-|--2--2--4----2----4--0--|-----0--0----0----0--0--|
-----0--0----0----0--0--|-----0--0----0----0-----|------------------------|

------------------------|------------------------|------------------------|
------------------------|------------------------|------------------------|
-----2------------------|-----2------------------|-----2------------------|
--2--2--4----2----4--0h-|--2--2--4----2----4--0h-|--2--2--4----2----4--0h-|
-----0--0----0----0--0--|-----0--0----0----0--0--|-----0--0----0----0--0--|
------------------------|------------------------|------------------------|

------------------------|------------------------|------------------------|
------------------------|------------------------|------------------------|
-----2------------------|-----2---------------0h-|--2--2--4----2----4--0h-|
--2--2--4----2----4--0h-|--2--2--4----2----4--0--|-----0--0----0----0--0--|
-----0--0----0----0--0--|-----0--0----0----0-----|------------------------|
------------------------|------------------------|------------------------|

------------------------|------------------------|------------------------|
------------------------|------------------------|------------------------|
--2--2--4----2----4-----|-----2------------------|-----2------------------|
-----0--0----0----0--0h-|--2--2--4----2----4--0h-|--2--2--4----2----4-----|
---------------------0--|-----0--0----0----0--0--|-----0--0----0----0--0h-|
------------------------|------------------------|---------------------0--|

------------------------|------------------------|------------------------|
------------------------|------------------------|------------------------|
------------------------|------------------------|-----2------------------|
------------------------|---------------------0h-|--2--2--4----2----4--0h-|
--2--2--4----2----4--0h-|--2--2--4----2----4--0--|-----0--0----0----0--0--|
-----0--0----0----0--0--|-----0--0----0----0-----|------------------------|

------------------------|------------------------|------------------------|
------------------------|------------------------|------------------------|
-----2------------------|-----2------------------|-----2------------------|
--2--2--4----2----4--0h-|--2--2--4----2----4--0h-|--2--2--4----2----4--0h-|
-----0--0----0----0--0--|-----0--0----0----0--0--|-----0--0----0----0--0--|
------------------------|------------------------|------------------------|

------------------------|------------------------|------------------------|
------------------------|------------------------|------------------------|
-----2------------------|-----2---------------0h-|--2--2--4----2----4--0h-|
--2--2--4----2----4--0h-|--2--2--4----2----4--0--|-----0--0----0----0--0--|
-----0--0----0----0--0--|-----0--0----0----0-----|------------------------|
------------------------|------------------------|------------------------|

------------------------|------------------------|------------------------|
------------------------|------------------------|------------------------|
--2--2--4----2----4-----|-----2------------------|-----2------------------|
-----0--0----0----0--0h-|--2--2--4----2----4--0h-|--2--2--4----2----4-----|
---------------------0--|-----0--0----0----0--0--|-----0--0----0----0--0h-|
------------------------|------------------------|---------------------0--|

------------------------|------------------------|-------------------|
------------------------|------------------------|-------------------|
------------------------|------------------------|--2----------------|
------------------------|---------------------0h-|--2----------------|
--2--2--4----2----4--0h-|--2--2--4----2----4--0--|--0----------------|
-----0--0----0----0--0--|-----0--0----0----0-----|-------------------|


------------------|------------------|------------------|-------------------|
------------------|------------------|------------------|-------------------|
------------------|------------------|------------------|--2----------------|
------------------|------------------|------------------|--2----------------|
------------------|------------------|------------------|--0----------------|
------------------|------------------|------------------|-------------------|

-------------------|--------------------|----------------------|
-------------------|--------------------|----------------------|
--2----------------|--2--------2--------|--2----2----2----2----|
--2----------------|--2--------2--------|--2----2----2----2----|
--0----------------|--0--------0--------|--0----0----0----0----|
-------------------|--------------------|----------------------|

                          14x
|--------------------------||------------------------|------------------------|
|--------------------------||------------------------|------------------------|
|*------------------------*||------------------------|------------------------|
|*--2--2--4----2----4--0h-*||--2--2--4----2----4--0h-|--2--2--4----2----4--0h-|
|------0--0----0----0--0---||-----0--0----0----0--0--|-----0--0----0----0--0--|
|--------------------------||------------------------|------------------------|

------------------------|------------------------|------------------------|
------------------------|------------------------|------------------------|
------------------------|------------------------|------------------------|
--2--2--4----2----4--0h-|--2--2--4----2----4--0h-|--2--2--4----2----4--0h-|
-----0--0----0----0--0--|-----0--0----0----0--0--|-----0--0----0----0--0--|
------------------------|------------------------|------------------------|

------------------------|------------------------|------------------------|
------------------------|------------------------|------------------------|
------------------------|------------------------|------------------------|
--2--2--4----2----4--0h-|--2--2--4----2----4--0h-|--2--2--4----2----4--0h-|
-----0--0----0----0--0--|-----0--0----0----0--0--|-----0--0----0----0--0--|
------------------------|------------------------|------------------------|

------------------------|------------------------|------------------------|
------------------------|------------------------|------------------------|
------------------------|------------------------|------------------------|
--2--2--4----2----4--0h-|--2--2--4----2----4--0h-|--2--2--4----2----4--0h-|
-----0--0----0----0--0--|-----0--0----0----0--0--|-----0--0----0----0--0--|
------------------------|------------------------|------------------------|

------------------------|------------------------|------------------------|
------------------------|------------------------|------------------------|
------------------------|------------------------|------------------------|
--2--2--4----2----4--0h-|--2--2--4----2----4--0h-|--2--2--4----2----4--0h-|
-----0--0----0----0--0--|-----0--0----0----0--0--|-----0--0----0----0--0--|
------------------------|------------------------|------------------------|

------------------------|------------------------|------------------------|
------------------------|------------------------|------------------------|
------------------------|------------------------|------------------------|
--2--2--4----2----4--0h-|--2--2--4----2----4--0h-|--2--2--4----2----4--0h-|
-----0--0----0----0--0--|-----0--0----0----0--0--|-----0--0----0----0--0--|
------------------------|------------------------|------------------------|

------------------------|------------------------|------------------------|
------------------------|------------------------|------------------------|
------------------------|------------------------|------------------------|
--2--2--4----2----4--0h-|--2--2--4----2----4--0h-|--2--2--4----2----4--0h-|
-----0--0----0----0--0--|-----0--0----0----0--0--|-----0--0----0----0--0--|
------------------------|------------------------|------------------------|

------------------------|------------------------|------------------------|
------------------------|------------------------|------------------------|
------------------------|------------------------|------------------------|
--2--2--4----2----4--0h-|--2--2--4----2----4--0h-|--2--2--4----2----4--0h-|
-----0--0----0----0--0--|-----0--0----0----0--0--|-----0--0----0----0--0--|
------------------------|------------------------|------------------------|

------------------------|------------------------|------------------------|
------------------------|------------------------|------------------------|
------------------------|------------------------|------------------------|
--2--2--4----2----4--0h-|--2--2--4----2----4--0h-|--2--2--4----2----4--0h-|
-----0--0----0----0--0--|-----0--0----0----0--0--|-----0--0----0----0--0--|
------------------------|------------------------|------------------------|

------------------------|------------------------|------------------------|
------------------------|------------------------|------------------------|
------------------------|------------------------|------------------------|
--2--2--4----2----4--0h-|--2--2--4----2----4--0h-|--2--2--4----2----4--0h-|
-----0--0----0----0--0--|-----0--0----0----0--0--|-----0--0----0----0--0--|
------------------------|------------------------|------------------------|

------------------------||
------------------------||
------------------------||
--2--2--4----2----4--0h-||
-----0--0----0----0--0--||
------------------------||
___________________

2nd solo

-------------------|------------------|-------------------|
-------------------|------------------|----------------0--|
-------------------|------------------|-------------------|
--7----------------|------------------|-------------------|
-------------------|------------------|-------------------|
-------------------|------------------|-------------------|

---------------------------|--------------------|
--10p-0--8p-0--7p-0--6p-0--|--13b---------------|
---------------------------|--------------------|
---------------------------|--------------------|
---------------------------|--------------------|
---------------------------|--------------------|

---------------------------------|------------------12--|
--12r--10--12------10--------10--|------------12b-------|
---------------11--------11------|----------------------|
---------------------------------|----------------------|
---------------------------------|----------------------|
---------------------------------|----------------------|

------------------------|--------------------------------|
--12b---------12r---10--|--13p-12p-10--12----10------12b-|
------------------------|--------------------------------|
------------------------|--------------------------------|
------------------------|--------------------------------|
------------------------|--------------------------------|

------------------------------|
----12p-10--12----12b-----12--|
------------------------------|
------------------------------|
------------------------------|
------------------------------|

------12------12------12------12------12------12--|
--12b-----14------14------14------14------14------|
--------------------------------------------------|
--------------------------------------------------|
--------------------------------------------------|
--------------------------------------------------|

------12------12------12------12------12------12--|
--14------14------14------14------14------14------|
--------------------------------------------------|
--------------------------------------------------|
--------------------------------------------------|
--------------------------------------------------|

------12------12------12------12------12------12--|
--14------14------14------14------14------14------|
--------------------------------------------------|
--------------------------------------------------|
--------------------------------------------------|
--------------------------------------------------|

------12------12------12------12------12------12--|
--14------14------14------14------14------14------|
--------------------------------------------------|
--------------------------------------------------|
--------------------------------------------------|
--------------------------------------------------|

------12------12------12------12------12--------|
--14------14------14------14------14--------12--|
------------------------------------------------|
------------------------------------------------|
------------------------------------------------|
------------------------------------------------|

--------------------------------|-------5-------------5--------|
--12r---10--12------10----------|--8b------8p-5--8b------8p-5--|
----------------11------11------|------------------------------|
--------------------------------|------------------------------|
--------------------------------|------------------------------|
--------------------------------|------------------------------|

-------5-------------5--------|-------5-------------5--------|
--8b------8p-5--8b------8p-5--|--8b------8p-5--8b------8p-5--|
------------------------------|------------------------------|
------------------------------|------------------------------|
------------------------------|------------------------------|
------------------------------|------------------------------|

-------5-------------5--------|-------5-------------5--------|
--8b------8p-5--8b------8p-5--|--8b------8p-5--8b------8p-5--|
------------------------------|------------------------------|
------------------------------|------------------------------|
------------------------------|------------------------------|
------------------------------|------------------------------|

-------5-------------5--------|-------5------------------|-------------------|
--8b------8p-5--8b------8p-5--|--8b------8p-5------------|-------------------|
------------------------------|------------------7r---5--|-------------------|
------------------------------|--------------------------|--7----------------|
------------------------------|--------------------------|-------------------|
------------------------------|--------------------------|-------------------|

-----5------5------5------5--|------5----------------|
--8b----10-----10-----10-----|--10-----10~-----------|
-----------------------------|-----------------------|
-----------------------------|-----------------------|
-----------------------------|-----------------------|
-----------------------------|-----------------------|

-----5------5------5------5--|------5----------------|
--8b----10-----10-----10-----|--10-----10~-----------|
-----------------------------|-----------------------|
-----------------------------|-----------------------|
-----------------------------|-----------------------|
-----------------------------|-----------------------|

-----5------5------5------5--|------5------------------|-----------------------|
--8b----10-----10-----10-----|--10-----10~---------10--|--8p-5--8b---------10--|
-----------------------------|-------------------------|-----------------------|
-----------------------------|-------------------------|-----------------------|
-----------------------------|-------------------------|-----------------------|
-----------------------------|-------------------------|-----------------------|

-------------------5--|--8p-5-----5-------------------------|
--8p-5--8b------------|--------5-----8p-5-----5-------------|
----------------------|--------------------7-------7p-5-----|
----------------------|----------------------------------7--|
----------------------|-------------------------------------|
----------------------|-------------------------------------|

-----------------------|-------------5-----------|------------------|
-----------------------|----------------5--8--8b-|------------------|
--7-----5b-------------|-------5h-6--------------|------------------|
-----7-----------7--5--|--7----------------------|------------------|
-----------------------|-------------------------|------------------|
-----------------------|-------------------------|------------------|

--------------------|------------------|--------------------|------------------|
--12b---------------|------------------|--12b---------------|------------------|
--------------------|------------------|--------------------|------------------|
--------------------|------------------|--------------------|------------------|
--------------------|------------------|--------------------|------------------|
--------------------|------------------|--------------------|------------------|

--------------------|------------------|--------------------|------------------|
--13b---------------|------------------|--12b---------------|------------------|
--------------------|------------------|--------------------|------------------|
--------------------|------------------|--------------------|------------------|
--------------------|------------------|--------------------|------------------|
--------------------|------------------|--------------------|------------------|

----------------------|------------------|------------------------|
--15b-------------15b-|------------------|--13b-----------12b-10--|
----------------------|------------------|------------------------|
----------------------|------------------|------------------------|
----------------------|------------------|------------------------|
----------------------|------------------|------------------------|

--------------8--7p-5-----|--5----7p-5-----5----8p-7p-5-----|
-----------------------5--|-------------5----------------5--|
--------------------------|---------------------------------|
--------------------------|---------------------------------|
--------------------------|---------------------------------|
--------------------------|---------------------------------|

--5----7p-5-----5----8p-7p-5-----|--5----7p-5-----5----8p-7p-5-----|
-------------5----------------5--|-------------5----------------5--|
---------------------------------|---------------------------------|
---------------------------------|---------------------------------|
---------------------------------|---------------------------------|
---------------------------------|---------------------------------|

--5----7p-5-----5----8p-7p-5-----|--5----7p-5-----5----8p-7p-5-----|
-------------5----------------5--|-------------5----------------5--|
---------------------------------|---------------------------------|
---------------------------------|---------------------------------|
---------------------------------|---------------------------------|
---------------------------------|---------------------------------|

--5----7p-5-----5----8p-7p-5-----|--5----7p-5-----5----8p-7p-5-----|
-------------5----------------5--|-------------5----------------5--|
---------------------------------|---------------------------------|
---------------------------------|---------------------------------|
---------------------------------|---------------------------------|
---------------------------------|---------------------------------|

--5----7p-5-----5----8p-7p-5-----|--5----7p-5-----5----8p-7p-5-----|
-------------5----------------5--|-------------5----------------5--|
---------------------------------|---------------------------------|
---------------------------------|---------------------------------|
---------------------------------|---------------------------------|
---------------------------------|---------------------------------|

--5----7p-5-----5----8p-7p-5-----|--5----------------|-----------------------|
-------------5----------------5--|-------------------|-----------------------|
---------------------------------|-------------------|-----------2------2----|
---------------------------------|-------------------|--------2---------2----|
---------------------------------|-------------------|--0--4------------0----|
---------------------------------|-------------------|-----------------------|

------------------|-------------------|------------------------|
------------------|-------------------|------------------------|
------------------|-------------------|------------------------|
------------------|----------------0h-|--2--2--4----2----4--0h-|
------------------|----------------0--|-----0--0----0----0--0--|
------------------|-------------------|------------------------|

------------------------|------------------------|------------------------|
------------------------|------------------------|------------------------|
------------------------|------------------------|------------------------|
--2--2--4----2----4--0h-|--2--2--4----2----4--0h-|--2--2--4----2----4--0h-|
-----0--0----0----0--0--|-----0--0----0----0--0--|-----0--0----0----0--0--|
------------------------|------------------------|------------------------|

------------------------|------------------------|------------------------|
------------------------|------------------------|------------------------|
------------------------|------------------------|------------------------|
--2--2--4----2----4--0h-|--2--2--4----2----4--0h-|--2--2--4----2----4--0h-|
-----0--0----0----0--0--|-----0--0----0----0--0--|-----0--0----0----0--0--|
------------------------|------------------------|------------------------|

                                                   14x
------------------------||--------------------------||------------------5--|
------------------------||--------------------------||---------------------|
------------------------||*------------------------*||------------5h-6-----|
--2--2--4----2----4--0h-||*--2--2--4----2----4--0h-*||---------------------|
-----0--0----0----0--0--||------0--0----0----0--0---||---------------------|
------------------------||--------------------------||---------------------|

------------------|------------------5--|------------------|
------------------|---------------------|------------------|
------------------|------------5h-6-----|------------------|
------------------|---------------------|------------------|
------------------|---------------------|------------------|
------------------|---------------------|------------------|

------------------5--|------------------5--|------------------5--|

-----------------------------------------------------------------------------


Song: Can You I Sit Next To You Girl


AC/DC never really bothered to tune up before recording an album, so you may
have to tune down a quarter step or so to get to the right place.


Intro Chords:
+-----------------------------------------------------------------------|
+-----------------------------------------------------------------------|
+-------6-8-------------------------------------------------------------|
+-6-8-9-6-8-------------------------------------------------------------|
+-6-8-9-4-6-------------------------------------------------------------|
+-4-6-7-----------------------------------------------------------------|

Verse:
+-----------------------------------------------------------------------|
+-----------------------------------------------------------------------|
+-----------------------------------------------------------------------|
+-4H6-8-6-8-4H6-8-6-8---------------------------------------------------|
+-4..-4-4-4-4..-4-4-4------------1-2-2-2-2-1-------------1-2-2-2-2-1----|
+----------------------2-2-2-2-4-------------4-2-2-2-2-4-------------4--|

+-----------------------------------------------------------------------|
+-----------------------------------------------------------------------|
+-----------------------------------------------------------------------|
+-----------------------------------------------------------------------|
+-4H6-8-6-8-4H6-8-6-8------------------------1-2-2-2-2------------------|
+-4..-4-4-4-4..-4-4-4------------1-2-2-2-2-4-----------2-1-0-0-0-0-2-4--|
+----------------------2-2-2-2-4----------------------------------------|

+-----------------------------------------------------------------------|
+-----------------------------------------------------------------------|
+-----------------------------------------------------------------------|
+-7-7-9-7-7-7-9-7-7-7-9-7-7..8..9-9-11-9-9-9-11-9-9-9-11-9-9..8..7------|
+-5-5-5-5-5-5-5-5-5-5-5-5-5..6..7-7-7--7-7-7-7--7-7-7-7--7-7..6..5------|
+-----------------------------------------------------------------------|

Repeat the 7-7-9-7---| part a few more times, then:
+--------------------|
+--------------------|
+--------------------|
+-4-2-------------6--|
+-----4-2-0-------6--|
+-----------2-0-2-4--|

And you're back where you started.

Near the end it does this for a while:
+-------------------------------------------------------------|
+-------------------------------------------------------------|
+-8-------6--5------------------------------------------------|
+-8-------6--5------------------------------------------------|
+-6-------4--3------------------------------------------------|
+-------------------------------------------------------------|


That's about it.  It takes a while to get the picking and fingering right
in the walking part.  I keep my middle finger on the 2nd fret & pick
alternately down & up.The System:

 --2H4------------|         Hammer on
 --4P2------------|         Pull off
 --2S4------------|         Slide
 --2..--         Let Ring
 --2..2-         Let Ring, then hit again
 --2~~--         Vibrato

 --0-0--         Palm Mute
  p p


 --0-0--         Up & Down Picking
  U D

 --0-0-2-0-0-3-0-0-2-0-0-3-0-0-2H3--     Metallica
  p..........................
  D U D U D U D U D U D U D U D

The spacing of the notes kind of reflects the timing of the song, but not
very well.


----------------------------------------------------------------------------


Song: High Voltage


Pattern 1
  E         D5      A5      E         D5      A5      E         D5      A
e|-----|-------|-----------------|-------|-----------------|-------|-----------|
b|-9-9-|9------|-------------9-9-|9------|-------------9-9-|9------|-----------|
g|-9-9-|9----7-|-----2---2---9-9-|9----7-|-----2---2---9-9-|9----7-|-----2---2-|
D|-9-9-|9----7-|-----2---2---9-9-|9----7-|-----2---2---9-9-|9----7-|-----2---2-|
A|-7-7-|7----5-|--4--0---0---7-7-|7----5-|--4--0---0---7-7-|7----5-|--4--0---0-|
E|-0-0-|0------|-------------0-0-|0------|-------------0-0-|0------|-----------|
   E         D5      A5       end
e|-----|-------|-----------------|
b|-9-9-|9------|-----------------|
g|-9-9-|9----7-|-----2---2---2-2-|
D|-9-9-|9----7-|-----2---2---2-2-|
A|-7-7-|7----5-|--4--0---0---0-0-|
E|-0-0-|0------|-----------------|

Pattern 2a  Gtr. 2                                         2b Gtr. 1
  A                                                            A
e|-------------------------------------------------------| e|-------5----5-|
b|----------------------------------------------------9--| b|--------------|
g|2---2--2--2-2--2-2---2---2-2-----2----2-2-----2-----9--| g|--5--6--------|4x
D|2---4--2--2-2--2-2---2---4-2-----2----2-2-----2-----9--| D|--------------|
A|0-0-0--0--0-0--0-0-x-0-x-0-0-0-0-0--0-0-0-0-0-0-0-0-7--| A|--------------|
E|----------------------------------------------------0--| E|--------------|
Pattern 3 Verse
   E                             D5                         E
e|------------------------------------------------------------------|
b|-9------9-----9---9-----9-----------------------------------------|
g|-9------9-----9---9-----9------7---7-------------7-------7--------|
D|-9------9-----9---9-----9------7---7-------------7-------7--------|
A|-7------7-----7---7-----7------5---5-5-5-5-5-5-5-5-5-5-5-5-4------|
E|-0-0-0--0-0-0-0---0-0-0-0-0-0--------------------------------5-0--|
Chorus
   A5  C5  D5  A5
e|----------------------------------------|
b|----------------------------------------|
g|-2---5---7---2----2-2-2-2-2-2---2---2-2-|
D|-2---5---7---2----2-2-2-2-2-2---2---2-2-|
A|-0---3---5---0--0-0-0-0-0-0-0-x-0-x-0-0-|
E|----------------------------------------|

       C5  D5  A5                       C5       D5          C5        D5
e|----------------------------------------------------------------------------|
b|----------------------------------------------------------------------------|
g|-----5---7---2----2-2-2-2-2-2---2---2-5--5-5-5-7---7-7-7-7-5---5-5-5-7---7-7|
D|-----5---7---2----2-2-2-2-2-2---2---2-5--5-5-5-7---7-7-7-7-5---5-5-5-7---7-7|
A|-----3---5---0--0-0-0-0-0-0-0-x-0-x-0-3--3-3-3-5---5-5-5-5-3---3-3-3-5---5-5|
E|----------------------------------------------------------------------------|
       C5            G   D   A5
e|-------------------3---2-----|
b|-------------------3---3-----|
g|-------------------0---2---2-|
D|-7-7-5---5--5-5-5--0---0---2-|
A|-5-5-3---3--3-3-3----------0-|
E|-------------------3---------|
Solo:
   E               D5            A          E                       E
    b~~~~~         b   r             ~~      b ~~~~~        b ~~~   b ~~~~~~
e|--------------------------------------------------12------------------------|
b|---------12--------------12--------------------------12-15-17---15-17-------|
g|14-16-------12-14-16--14----12--------12-14-16------------------------------|
D|-------------------------------14-14----------------------------------------|
A|----------------------------------------------------------------------------|
E|----------------------------------------------------------------------------|
               A           E                        D5
            b ~~~~                          b ~~~~~
e|------------------12-15--12----12-15--------------12-15--12----12-----------|
b|-15--12---------------------15-------15-15-17---------------12----15-12-----|
g|--------14-16-----------------------------------------------------------14--|
D|----------------------------------------------------------------------------|
A|----------------------------------------------------------------------------|
E|----------------------------------------------------------------------------|
          A                 E                     D5                   E
          b ~~~   b         r                                           ~~~
e|---------------------------------------------12-----------------------------|
b|12----------------------------------------------15-------------------------9|
g|---14-14-16---14-16--14-16-14-12----12-14-16-------14-16-14-12-14-16-12----9|
D|---------------------------------14----------------------------------------9|
A|---------------------------------------------------------------------------7|
E|----------------------------------------------------------------------------|


------------------------------------------------------------------------------


Song: School Days


    Intro
E---||--------5--5---||---------------------------||--------------------|
B---||--------5--5---||---------------------------||--------------------|
G---||*--5/6--------*||--4^--4--4--4--4--4--4--4--||--------------------|
D---||*-------------*||---------------------------||--------------------|
A---||---------------||---------------------------||--------------------|
E---||---------------||---------------------------||--------------------|
                            Hold Bend


E---||------------------------------------------------------------------|
B---||------------------------------------------------------------------|
G---||*------------------------------------0h2--2--4--5--4--0h2--2------|
D---||*--0h2--2--4--5--4--0h2--2--4--5--4--0-0--0--0--0--0--0-0--0------|
A---||---0-0--0--0--0--0--0-0--0--0--0--0-------------------------------|
E---||------------------------------------------------------------------|

E-----------------------------------------------------------------------|
B-----------------------------------------------------------------------|
G---4--5--4-------------------------------------------------------------|
D---0--0--0--0h2--2--4--5--4--0h2--2--4--5--4---------------------------|
A------------0-0--0--0--0--0--0-0--0--0--0--0--0h2--2--4--5--4--0h2-----|
E----------------------------------------------0-0--0--0--0--0--0-0-----|


                        Beginning of solo
E----------------||-----||---5--5--5-----5----------5---||--------------|
B----------------||-----||---5--5--5--------7-----------||--------------|
G---------------*||-----||*--------------------5/6-----*||--------------|
D---------------*||-----||*----------------------------*||--------------|
A---2--4--5--4---||-----||------------------------------||--------------|
E---0--0--0--0---||-----||------------------------------||--------------|

E---||--------5---||----------------------------------------------------|
B---||--------5---||----------------------------------------------------|
G---||*--6/7-----*||----------------------------------------------------|
D---||*----------*||----------------------------------------------------|
A---||------------||----------------------------------------------------|
E---||------------||----------------------------------------------------|


_____________________________________________________________________________

Done! There is the Album T.N.T. by Ac/DC!
comments
print report bad tab
9 comments total. Showing first comments.
0 reply
sg-knight wrote on September 30 2006, 03:02 pm

nice effort, but the intro on T.N.T. is way off. look at tnt ver 5. typo maybe?, coz 5 on A and 7 on E makes no sense at all. 5 efforts for effort tho

0 reply
clonewars200 wrote on October 1 2006, 04:33 pm

ok. i changed it a little bit. this sounds better. ok?

0 reply
guitarman547 wrote on November 19 2006, 07:17 pm

THE TAB 4 TNT IS RIGHT NOW

I want to post or [tab]
guest
You may want to rate the tab now too:
select rating
Please do not post tabs as comments. Select "correction" instead!