Oops, an error
Loading. Please wait.

Who Made Who Tab

ver1
ver1

Album

Whole song

Interactive

More versions @911Tabs.com
51,902 views 126 this week
8 commentsread comments
1 2 3 4 5
worth learning
x 5
Autoscroll
+/-
esc
set tempo
stop
Contributor
Hey! There's an official Ultimate Guitar app which is ideal
for learning songs when you're away from computer. Get the app
WARNING: You are trying to view
                                    content from Ultimate-Guitar.com
                                    in an unauthorized application,
                                    which is prohibited.

                                    Please use an official Ultimate
                                    Guitar Tabs application for iPhone,
                                    iPad or Android to access legitimate
                                    chords, guitar, bass, and drum tabs
                                    from Ultimate-Guitar.com database.

                                    Type "ultimate guitar tabs" in Apple
                                    App Store's or Android Market's
                                    search to find the application.
Who Made Who Album

                                                        Who Made Who

 Riff A(Malcolm)
 |--------  --------  --------  |
 |--------  --------  --------  |
 |--5-5---  --2-2---  --------  |
 |--5-5---x8--2-2---x2--5-5---x4|
 |--3-3---  --0-0---  --5-5---  |
 |--------  --------  --3-3---  |

 Riff B(Angus) Play This until "Last Year"....
 --10-------| -------------------|
 --10-------| -------------------|
 --12-14\---| -------------------|
 -----------| -0h4p0h5p0h7p0h5---|
 -----------| -------------------|
 -----------| -------------------|

 Riff C
 Play Until "Feel it"....
 ------------------|
 ------------------|
 ------------------|
 ------------------|
 --6p0h7p0h9p0h7---|
 ------------------|

 Riff D Play Until "It can't do"....
 ------------------|
 ------------------|
 ------------------|
 ------------------|
 --4p0h5p0h7p0h5---|
 ------------------|

 Play Riff B until Chorus

 ------------------------|
 ------3----------3------|
 ----2----2-----2---2----|
 --4--------4-5----------|
 ------------------------|
 ------------------------|

 --------------------------------|
 --2--3---3--2---3-3---2---2-2---|
 --2--2---2--2---2-2---2---2-2---|
 --2--5---4--2---5-4---2---2-2---|
 --0--0---0--0---0-0---0---0-0---|
 --------------------------------|

 Guitar Solo
 Solo:
--t14p7h10--t14p7h10----------t14p7h10----------t14p7h10---------t14p7h10-|
---------------------t12p10p7----------t12p10p7----------t12p10p7---------|
--------------------------------------------------------------------------|
--------------------------------------------------------------------------|
--------------------------------------------------------------------------|
--------------------------------------------------------------------------|

---------t14p7h10-----------t14p7h10----------t14p7h10----------t14p7h10-|
t12p10p7----------t12p10p7-----------t12p10p7----------t12p10p7----------|
-------------------------------------------------------------------------|
-------------------------------------------------------------------------|
-------------------------------------------------------------------------|
-------------------------------------------------------------------------|

-----------------------------------------------------------------------------|
t12p10p7---------------8h5---8h5---8h5---8h5---------------------------------|
-------------------6-------6-----6-----6-----6h7vvvvvvvv-7--7--7h6--7--7-----|ls9v
-----------------------------------------------------------------------------|
-----------------------------------------------------------------------------|
-----------------------------------------------------------------------------|

-------------------------t10p6p3-t10p6p3-t10p6p3-t10p6p3-t12p6p3-t12p6p3-|
-------------------------------------------------------------------------|
vvvvvvvv-----\\\---------------------------------------------------------|
-------------------------------------------------------------------------|
------------------(10)\\-------------------------------------------------|
-------------------------------------------------------------------------|

t12p6p3-t13p6p3-t13p6p3-t13p6p3-t13p6p3-t13p6p3-t13p6p3-t13p6p3-t13p6p3-|
------------------------------------------------------------------------|
------------------------------------------------------------------------|
------------------------------------------------------------------------|
------------------------------------------------------------------------|
------------------------------------------------------------------------|

t13p6p3-t13p6p3---|
------------------|
------------------|
------------------|
------------------|
------------------|


                                  You Shook Me All Night Long

 e-----------------------------------------------------------------2------|
b-8----10--8--8----8-7-----3----------------8---10-8-8---8-7------3-------|
g-7----7---7--7--7-----7-0-2---2-2-----2-2--7---7--7-7-7-----7-0--2-------|
d------------------------------3-0-3h4-3-0------------------------0-------|
a-------------------------------------------------------------------------|
e-------------------------------------------------------------------------|

                        VERSE              Ds=D suspended
Very rythmic riff,get good timing.   Fill between Verse and chorus.
e---------------2-2--------2---2-|  |-2--2--2-2-2-3--2--3--2-|
b-3---3-3-3-3-3-3-3----3-3-3-3-3-|  |-3--3--3-3-3-3--3--3--3-|
g-0---0-0-0-0-0-2-2----0-0-2-0-2-|  |-2--2--2-2-2-2--2--2--2-|
d-0-------0---0-0-0----0-0-0-0-0-|  |-0--0--0-0-0-0--0--0--0-|
a-----3-3---3--------------------|  |------------------------|
e-3-------3---3--------3-3---3---|  |------------------------|
  G   C C G C G D D    G G D G D      D  D  D D D Ds D  Ds D

                        CHORUS
e-------------------------2----------------------|
b---3---------3-----3-----3----------3-------3---|
g---0-------0-----0---0---2--------0---0---0---0-|
d---0-------------------0-0----------------------|
a-----0-2-3-----2------------0-2-3-------2-------|
e-3-3--------------------------------------------|
    G                     D

              SOLO
e-----3----------------------------------------------------------------|
b-------3-6-----------------------------3-------------6-6-----8-8---8--|
g-5b7-------5b6r5-3---------------------3-------3---7-----7/9-----9----|
d-------------------5---5---5-3-----------5---5------------------------|
a---------------------5---------5-3---------5--------------------------|
e-----------------------------------6-3--------------------------------|

-------10-------------------------------------------15----------------|
-10b12----(12)r10-8--11b13-10b12-8---8-----19b20-------15-18----------|
-----------------------------------9----9--------------------(19)r17--|
----------------------------------------------------------------------|
----------------------------------------------------------------------|
----------------------------------------------------------------------|

--------------------------------------------------------------18b20---|
-------17-15--------18-------18---------------17-15-17-15--15---------|
-15----17-15--17b19----17b19----(19)r17-15----17-15-17-15-------------|
----17-------------------------------------17-------------------------|
----------------------------------------------------------------------|
----------------------------------------------------------------------|

-17b19--(19)r17-15-17----15-------15------------------------15----15--|
----------------------17----18b20----18------------------17----17-----|
----------------------------------------(19)r17-15-17b19--------------|
----------------------------------------------------------------------|
----------------------------------------------------------------------|
----------------------------------------------------------------------|

-15-(19)r17-15-|
---------------|
---------------|
---------------|
---------------|
---------------|


                                                          D.T.

 Main Riff
 ------------------------------------|
 ----------------4---3---------------|
 --5-5-3-5\----3-3---3----5-2--------|
 --5-5-3-5\--5----------------3------|
 --3-3-3-3\--------------------------|
 ------------------------------------|

 Riff B
 -------------|
 -------------|
 --5-5-3-5----|
 --5-5-3-5\---|x4
 --3-3-3-3\---|
 -------------|

 Riff C
 ------------------------------------|
 ------------------------------------|
 ------------------------------------|
 ------------------------------------|
 ----1-3---1-----------1-------------|
 --3---------3-1---1-3-----1-3-1-----|

 Riff B x2

 Guitar solo
 -------------------------------------13(15)-11------------|
 -11(13)-11(13)-11(13)-11----------------------13-18(20)---|
 ------------------------10(12)-10(12)---------------------|
 ----------------------------------------------------------|
 ----------------------------------------------------------|
 ----------------------------------------------------------|

 ---------------------------------------------15(18)-15-13-|
 --18(20)-18(20)-13-15(16)-13-13-13------13-13-------------|
 ----------------------------------15(17)------------------|
 ----------------------------------------------------------|
 ----------------------------------------------------------|
 ----------------------------------------------------------|

 -----------15--15--15--15--15-18-15------------------------|
 --16-18(20)--18--18--18--18--------16p13---------------4-3-|
 -------------------------------------------5-5-3-5-----3-3-|
 -------------------------------------------5-5-3-5-3-3-5-3-|
 -----------------------------------------------------------|
 -----------------------------------------------------------|

 ------------|
 ------------|
 --5-2-------|
 ------3-----|
 ------------|
 ------------|

 -----------|
 --11(13)---|
 -----------|
 -----------|Repeat and fade
 -----------|
 -----------|


 Sink the pink


    riff A
 ------------------------3------------|
 ------------------------3------------|
 ---3--------------------0------------|
 ---3------3--3----------0------------|
 ---1--/5-----3------3----------------|
 -------------1--/5------3------------|


 angus riff            G chord by malcom here|
 -7-8-10-10-8-7--------------------------------------------------------------|
 ----------------10-10-8-10-6-6-6-6-6-6-8-10-8-8-8-8-8-8-8-8-8-8-8-8-8-8-----|
 ----------------------------------------------------------------------------|
 ----------------------------------------------------------------------------| x2
 ----------------------------------------------------------------------------|
 ----------------------------------------------------------------------------|

 verse riff B
 -----------------------------------------|
 --1-1-----------1-1-1--------------------|
 --0-0-0-0-0-0-0-0-0-0--------------------|
 -----------------------------------------| x8
 --3-3-2-2-3-3-2-3-3-3--------------------|
 -----------------------------------------|


 then play this
 -------------------|
 --1-1-1------------|
 --0-0-0------------|
 -------------------| x6
 --3-3-2------------|
 -------------------|


 then this
 ---------------------------------|
 ---------------------------------|
 --7-7\5--5/7--7\3----------------|
 --7-7\5--5/7--7\3----------------|
 --5-5\3--3/5--5\1----------------|
 ---------------------------------|

 chorus

 Play riff A

 play riff b x4


 now this
  riff C
 -------------------|
 --1-1--1-1---------|
 --0-0--0-0---------|
 -------------------| x4
 --3-3--2-2---------|
 -------------------|

 play riff B

 play riff c

 now this
 ---6-3----------------------------|
 -------3-6-5-3--------------------|
 -----------5-3--------------------|
 ---------------5------------------|
 ----------------------------------|
 ----------------------------------|


 repeat verse and chorus

 for solo play angus riff x2

 then this
 --------------------------------------------------------------------------------|
 -5-3(4)-5-3(4)-8(10)-5-3(4)-5-3(4)------5-3(4)-5-3(4)-8(10)-5-3(4)-5-3(4)-8(10--|
 -5-3(4)-5-3(4)-------5-3(4)-5-3(4)-5(7)-5-3(4)-5-3(4)-------5-3(4)-5-3(4)-------|
 --------------------------------------------------------------------------------|
 --------------------------------------------------------------------------------|
 --------------------------------------------------------------------------------|


 8(10)-8---11(13)-13p11----------10---------------------------------------------|
 -------11--------------11-13(15)---15r13-11---11(13)---11-10-9-13-11-13(15)----|
 --------------------------------------------12-------12------------------------|
 -------------------------------------------------------------------------------|
 -------------------------------------------------------------------------------|
 -------------------------------------------------------------------------------|

                                            Ride On

 E--0--1--|--0--1--|--0--1--|--0--1----|
B--1--1--|--1--1--|--1--1--|--1--1-----|
G--0--2--|--0--2--|--0--2--|--0--2-----|
D--2--3--|--2--3--|--2--3--|--2--3-----|
A--3--3--|--3--3--|--3--3--|--3--3-----|
E--------|--------|--------|-----------|

Verse: Play this pattern 2 times.

E--0--1--|--0--1--|--1-----|--1-----|
B--1--1--|--1--1--|--1--3--|--1--3--|
G--0--2--|--0--2--|--2--3--|--2--3--|
D--2--3--|--2--3--|--3--3--|--3--3--|
A--3--3--|--3--3--|--3--1--|--3--1--|
E--------|--------|--------|--------|

E--------|-----1--|--0--1--|--0--1--|
B-----5--|--3--1--|--1--1--|--1--1--|
G--4--5--|--3--2--|--0--2--|--0--2--|
D--5--5--|--3--3--|--2--3--|--2--3--|
A--5--3--|--1--3--|--3--3--|--3--3--|
E--3-----|--------|--------|--------|

Pre-Chorus:

E----------|----------|----------|----------|
B----------|----------|----------|----------|
G----------|----------|----------|----------|
D-------3~-|-------3~-|-------4~-|-------4~-|
A----------|----------|----------|----------|
E-1-1-1----|-1-1-1----|-2-2-2----|-2-2-2----|

E---------------------------------|
B---------------------------------|
G---------------------------------|
D--5-5-5--5-5-5--5-5-5--5-5-5--5--|
A--5-5-5--5-5-5--5-5-5--5-5-5--5--|
E--3-3-3--3-3-3--3-3-3--3-3-3--3--|

Chorus:

E--1--0--|--0--3--|--1--0--|-----1--|
B--1--1--|--1--3--|--1--1--|--3--1--|
G--2--0--|--0--0--|--2--0--|--3--2--|
D--3--2--|--2--0--|--3--2--|--3--3--|
A--3--3--|--3--2--|--3--3--|--1--3--|
E--1-----|-----3--|--1-----|-----1--|

E--1--0--|--0--3--|--------------------------|
B--1--1--|--1--3--|--------------------------|
G--2--0--|--0--0--|--------------------------|
D--3--2--|--2--0--|--5--3-3-3--3-3-3--3-3-3--|
A--3--3--|--3--2--|--5--3-3-3--3-3-3--3-3-3--|
E--1-----|-----3--|--3--1-1-1--1-1-1--1-1-1--|

E-------------------------------------|
B-------------------------------------|
G-------------------------------------|
D--3-3-3--3-3-3--3-3-3--3-3-3--3-3-3--|
A--3-3-3--3-3-3--3-3-3--3-3-3--3-3-3--|
E--1-1-1--1-1-1--1-1-1--1-1-1--1-1-1--|

Small Solo:

Guitar 1

E--0--1--|--0--1--|--0--1--|--0--1--|
B--1--1--|--1--1--|--1--1--|--1--1--|
G--0--2--|--0--2--|--0--2--|--0--2--|
D--2--3--|--2--3--|--2--3--|--2--3--|
A--3--3--|--3--3--|--3--3--|--3--3--|
E--------|--------|--------|--------|

Guitar 2

E-13b-------|------------15-|----------------|
B-----16-13-|-16b-16-16b----|-16-------------|
G-----------|---------------|----15-17-15-17-|
D-----------|---------------|----------------|
A-----------|---------------|----------------|
E-----------|---------------|----------------|

E-------|----|
B-------|----|
G-------|----|
D-17\13-|-10-|
A-------|----|
E-------|----|


Now repeat the verse, pre-chorus & chorus,
before the Main Solo begins.


Main solo:

Guitar 1

E--0--1--|--0--1--|--0--1--|--0--1--|
B--1--1--|--1--1--|--1--1--|--1--1--|
G--0--2--|--0--2--|--0--2--|--0--2--|
D--2--3--|--2--3--|--2--3--|--2--3--|
A--3--3--|--3--3--|--3--3--|--3--3--|
E--------|--------|--------|--------|

E--1-----|--1-----|--0--1--|--0--1--|
B--1--3--|--1--3--|--1--1--|--1--1--|
G--2--3--|--2--3--|--0--2--|--0--2--|
D--3--3--|--3--3--|--2--3--|--2--3--|
A--3--1--|--3--1--|--3--3--|--3--3--|
E--------|--------|--------|--------|

E--0--1--|--0--1--|--0--1--|--0--1--|
B--1--1--|--1--1--|--1--1--|--1--1--|
G--0--2--|--0--2--|--0--2--|--0--2--|
D--2--3--|--2--3--|--2--3--|--2--3--|
A--3--3--|--3--3--|--3--3--|--3--3--|
E--------|--------|--------|--------|

E--1-----|--1-----|--0--1--|--0--1--|
B--1--3--|--1--3--|--1--1--|--1--1--|
G--2--3--|--2--3--|--0--2--|--0--2--|
D--3--3--|--3--3--|--2--3--|--2--3--|
A--3--1--|--3--1--|--3--3--|--3--3--|
E--------|--------|--------|--------|

E----------|----------|----------|----------|
B----------|----------|----------|----------|
G----------|----------|----------|----------|
D-------3~-|-------3~-|-------4~-|-------4~-|
A----------|----------|----------|----------|
E-1-1-1----|-1-1-1----|-2-2-2----|-2-2-2----|

E---------------------------------|
B---------------------------------|
G---------------------------------|
D--5-5-5--5-5-5--5-5-5--5-5-5--5--|
A--5-5-5--5-5-5--5-5-5--5-5-5--5--|
E--3-3-3--3-3-3--3-3-3--3-3-3--3--|

Guitar 2

E-13-----------|-----------|-8---------|----------|----------|
B----16-13-13~-|----13-16\-|---11-8-11-|----------|----------|
G--------------|-14--------|-----------|-10-8-----|-12-10-8~-|
D--------------|-----------|-----------|------10~-|----------|
A--------------|-----------|-----------|----------|----------|
E--------------|-----------|-----------|----------|----------|

E---------------------------|---------------------|-------------8-10-11~-|
B------13--11-13--11-13--11-|-13b-11p8------------|---------8-11---------|
G-10-12--12-----12-----12---|---------11p10p8--8~-|-----8-10-------------|
D---------------------------|----------------10---|-8-10-----------------|
A---------------------------|---------------------|----------------------|
E---------------------------|---------------------|----------------------|

E-11-10-11-8~-|---8-8-8~-|-18-15-13-11--11-----|-11-11-11-11-11-11-------|
B-------------|-10-------|------------13--13~\-|------------------13-13~-|
G-------------|----------|---------------------|-------------------------|
D-------------|----------|---------------------|-------------------------|
A-------------|----------|---------------------|-------------------------|
E-------------|----------|---------------------|-------------------------|

E-11--11-13-14-15-15-18-15~-|-17-18-15-18p17p15--------------------------|
B---13----------------------|------------------18p15---------------------|
G---------------------------|-----------------------17p15-15-17-15~-17~\-|
D---------------------------|--------------------------------------------|
A---------------------------|--------------------------------------------|
E---------------------------|--------------------------------------------|

E---------------------|----------------|---8-----------------------------|
B---------------------|-8h11p8---------|-8--11p8-------------------------|
G-8-----8----8h10-----|-------10p8h10~-|--------10p8-8h10p8----8---------|
D--8-10--8h10----8h10-|----------------|--------------------10---10-10~\-|
A---------------------|----------------|---------------------------------|
E---------------------|----------------|---------------------------------|

E-----------8-10-11p10p8~-|----13-13~--------------------|--------|
B-------8-11--------------|----------13h16p13------------|-----18-|
G---8-10------------------|-/14--------------16p15p13----|---17---|
D-10----------------------|--------------------------15~-|-15-----|
A-------------------------|------------------------------|--------|
E-------------------------|------------------------------|--------|

E---------------------|-15-15-15~-|-15-------------------------------|
B-19-17-17-19-19-19~\-|-----------|---18p15--------18p17p15-18p17p15-|
G---------------------|-----------|--------18p17p15------------------|
D---------------------|-----------|----------------------------------|
A---------------------|-----------|----------------------------------|
E---------------------|-----------|----------------------------------|

E----------|--15-15~--|
B-18p17p15-|----------|
G----------|----------|
D----------|----------|
A----------|----------|
E----------|----------|

Chorus:

Guitar 1

E--1--0--|--0--3--|--1--0--|-----1--|
B--1--1--|--1--3--|--1--1--|--3--1--|
G--2--0--|--0--0--|--2--0--|--3--2--|
D--3--2--|--2--0--|--3--2--|--3--3--|
A--3--3--|--3--2--|--3--3--|--1--3--|
E--1-----|-----3--|--1-----|-----1--|

E--1--0--|--0--3--|--------------------------|
B--1--1--|--1--3--|--------------------------|
G--2--0--|--0--0--|--------------------------|
D--3--2--|--2--0--|--5--3-3-3--3-3-3--3-3-3--|
A--3--3--|--3--2--|--5--3-3-3--3-3-3--3-3-3--|
E--1-----|-----3--|--3--1-1-1--1-1-1--1-1-1--|

E------------------------------|
B------------------------------|
G------------------------------|
D--3-3-3--3-3-3--3-3-3--3-3-3--|
A--3-3-3--3-3-3--3-3-3--3-3-3--|
E--1-1-1--1-1-1--1-1-1--1-1-1--|


E--1--0--|--0--3--|--1--0--|-----1--|
B--1--1--|--1--3--|--1--1--|--3--1--|
G--2--0--|--0--0--|--2--0--|--3--2--|
D--3--2--|--2--0--|--3--2--|--3--3--|
A--3--3--|--3--2--|--3--3--|--1--3--|
E--1-----|-----3--|--1-----|-----1--|

E--1--0--|--0--3--|------------------------------|-----|
B--1--1--|--1--3--|------------------------------|--1--|
G--2--0--|--0--0--|------------------------------|--0--|
D--3--2--|--2--0--|--3-3-3--3-3-3--3-3-3--3-3-3--|--2--|
A--3--3--|--3--2--|--3-3-3--3-3-3--3-3-3--3-3-3--|--3--|
E--1-----|-----3--|--1-1-1--1-1-1--1-1-1--1-1-1--|-----|

Guitar 2


E-----|-----------------|---13~-----|-15~-13-15-15-15~-|
B-13~-|-13~-11----------|-13---13~\-|------------------|
G-----|--------12-10-8~-|-----------|------------------|
D-----|-----------------|-----------|------------------|
A-----|-----------------|-----------|------------------|
E-----|-----------------|-----------|------------------|

E-13~---------------------13----------15~\-|
B----16-13-16----16-13-16----16-13-16------|
G-------------14---------------------------|
D------------------------------------------|
A------------------------------------------|
E------------------------------------------|

E--8-----6/8-----6----------------------------|
B-----8-------8-----8--6----------------------|
G-------------------------8--5--3--0----------|
D-------------------------------------3\1-----|
A------------------------------------------3--|
E---------------------------------------------|

                       Hells Bells

 e|--0--------------|-----------------|--0--------------|------------------------|
b|-------3-------1-|------3----------|-------3-------1-|------3------------------|
g|----------2------|--0-------2------|-----------2-----|--0----------------------|
D|-----------------|-----------------|-----------------|---------5---5-----------|
A|0---0--------0---|----0--------0-0-|-----0-------0---|----0----3---2---0-------|
E|-----------------|-----------------|-----------------|-------------------------|

Pattern 2
       Asus4   Am7        Asus4     Am       Asus4     G     D   C5  G/B Am
e|0----------------|-------------------|-0-------------3-|-3--2---------------|
b|-----3-------1---|-------3-----------|-----3---------3-|-3--3---------------|
g|--------2--------|--0--------2-------|---2-----2-----0-|-0--2---------------|
D|-----------------|-------------------|---------------0-|-0--0---5---5-------|
A|--0--------0-----|----0---------0--0-|------------0--2-|-2--0---3---2---0---|
E|-----------------|-------------------|---------------3-|-3------------------|

                   D5/A~~~~~  Cadd9 G/B   A5                 D5/A   Cadd9 G/B
e|-------------------|-----------------|-----------------------|--------------|
b|-------------------|---------3----3--|-----------------------|-----3---3----|
g|-9--7--9---7--5--7-|---------0----0--|-----9--7--9---7--5--7-|-----0---0----|
D|-7--7--7---5--5--7-|-----------------|-----7--7--7---5--5--7-|--------------|
A|-----------------0-|------0--3----2--|--0--------------------|--0--3---2----|
E|-------------------|-----------------|-----------------------|--------------|

At this Point the Verse is mostly A5 D5/A Cadd9 G/B A5 D5/A Cadd9 G/B - Stuff!

  I won`t take no Prisoners... (Pattern 3)
    D5                            C5  G5   D5                          C5 G
e|------------------------------------3-----------------------------------3---|
b|---3--3--3---3--3--3---3--3--3------3------3--3--3---3--3--3-3-3-3-3----3---|
g|---2--0--2---2--0--2---2--2--2--5---0------2--0--2---2--0--2-2-2-2-2-5--0---|
D|-0------------------------------5---0---0----------------------------5--0---|
A|--------------------------------3------------------------------------3------|
E|------------------------------------3-----------------------------------3---|

 PreChorus: E5 D5/A A E5 G5 & Chorus Patt.1!

Pre-Solo                                     b    slowb
e|----------------------------------------5-----------------------------------|
b|--8--7--8--7---7--5---------------------5-7-8--7-----8----------------------|
g|--7--7-------9-7--5-----------------------7-8--7-----8----------------------|
D|---------------------7--5--7------------------------------------------------|
A|---------------------------------------------------------12-----------------|
E|------------------------------------------------------------x---------------|
                                                               x
                                                                x
Solo 1
         ~~~~~      ~~~~~                     b          b    |---HB------------|
e|------------------------------------------------------------------------------|
b|--------------------------------------------------8---------8-8-8-8-8-8--8-8--|
g|-------------------------------------------7-9-------7--9---9-9-9-9-9-9--9-9--|
D|--5-7-7-----4-5-5------0--4-5-7-7--5-7----------------------------------------|
A|------------------------------------------------------------------------------|
E|------------------------------------------------------------------------------|
   r                  ~~~~~~~     ~~~~~~~   ~~~~~~~     ~~~~~
e|---------------------------------------------------------------------------|
b|------------5-------8------7---7-------8--8------10--10-----13-13-12-13-13-|
g|--7--5------5----9--9------7---7-------9--9------11--11-----14-14-13-14-14-|
D|-------7-7------/----------------------------------------------------------|
A|---------------------------------------------------------------------------|
E|---------------------------------------------------------------------------|
                                                     ub    ub
e|----------------------------------------12---12-----10-----10---------------|
b|12-13-13-12-13-12-13-13-13-13-13-13-13--13---13--13-15--13-15---------------|
g|13-14-14-13-14-13-14-14-14-14-14-14-14--------------------------------------|
D|----------------------------------------------------------------------------|
A|----------------------------------------------------------------------------|
E|----------------------------------------------------------------------------|
    ub          r                                                       b
e|---10----------------------10---10---------10----10-------------------------|
b|13-15---12-13---12---10--/-10---10---13-10----10-------13--------15-17-19---|
g|-----------------------\-/-----------------------------14----\14------------|
D|-------------------------------------------------------------\--------------|
A|----------------------------------------------------------------------------|
E|----------------------------------------------------------------------------|
       b         b      b      b    r                         b      b
e|17--------17-----------17-----17----------------------------------------|
b|---17-19-----17-19--17-19--17-19---17---15--17--15----15------------20--|
g|---------------------------------------------------16-----19-21--19-21--|
D|------------------------------------------------------------------------|
A|------------------------------------------------------------------------|
E|------------------------------------------------------------------------|
    b     b                                      b     b                 b
e|--------------17------------------------------------------17--20--17--------|
b|-----------------20-17-----------------------20-22-20-22-------------20-22--|
g|19-21-19-21------------20-19-17----19-17------------------------------------|
D|--------------------------------19-------19---------------------------------|
A|----------------------------------------------------------------------------|
E|----------------------------------------------------------------------------|
                 b      b                                 ~~~~~~~~
e|-17-17-------20-22--20-21-----17--------------------------------------------|
b|-------20-17---------------------20-17--------------------------------------|
g|---------------------------------------19-21-19-17-----17-------------------|
D|---------------------------------------------------19------------19---------|
A|-------------------------------------------------------------------\--------|
E|--------------------------------------------------------------------\-------|

Solo 2
     b                                    b                                   b
e|---------15----------------------------------15-----------------------------|
b|-15-17------17--15----13------15-----15--17------17--15------13-----15----15|
g|----------------------------------------------------------------------------|
D|----------------------------------------------------------------------------|
A|----------------------------------------------------------------------------|
E|----------------------------------------------------------------------------|
                                  b
e|---15--------------------------------15-------------------------------------|
b|17----17-15---13-------15-----15-17-----17-15------13-----------------------|
g|----------------------------------------------------------------------------|
D|----------------------------------------------------------------------------|
A|----------------------------------------------------------------------------|
E|-------------------------------------------------------17-----17-----17-----|
                                                           \      \      \
           ~~~~~~  ~~~~~~~~   ~~~~~~~         ub      ub
e|----------------------------------------------5-------5---\----8---------8--|
b|-------------------------------------------8-10---8--10---\\-----10-8-10--10|
g|--2--0--2------2---------5-7---------5---------------------\----------------|
D|--2-----------------------------------\-------------------------------------|
A|--0-------------------------------------------------------------------------|
E|----------------------------------------------------------------------------|
         ub   ub            b               b            b ~~~~~   b       b
e|--------5------5---------------17-------------17----------------------------|
b|\----8-10--8--10---\----20-22-----20-17-20-22----17--20-22-----20-22---20-22|
g|-\--------------------------------------------------------------------------|
D|----------------------------------------------------------------------------|
A|----------------------------------------------------------------------------|
E|----------------------------------------------------------------------------|
     b                b           b        b       b       b       b       b  r
e|----------17----------------------------------------------------------------|
b|-20-22------20-17-------------------20----20------20------20------20------20|
g|------------------19-21-19-17-19-21----19-21---19-21---19-21---19-21---19-21|
D|----------------------------------------------------------------------------|
A|----------------------------------------------------------------------------|
E|----------------------------------------------------------------------------|

e|----------------------------------------------|
b|20-----------19--17---------------------------|
g|19-----17----19--17----------------2-------2--|
D|----------19--------------x--------2-------2--|
A|---------------------------\-------0-------0--|
E|----------------------------\----------3------|


                     Shake Your Foundations


 Riff A
 Malcolm play through intro and verse
 -----------------------------------------------3-----------------|
 --8---8---10-----10----8---10-----10---6---5---0---6---5---8-8---|
 --7---7---7------7-----7---7------7----7---5---0---7---5---7-7---|
 ----0---0----0-0----0-0--0----0-0----0---0---0---0---0---0-----0-|
 -----------------------------------------------------------------|
 -----------------------------------------------------------------|


 Riff B
 Angus
  U.B. U.B.  U.B.  U.B.
 -------------------------------------------------|
 --13---13\---13---13\--0-1-0-3-0--0-1-0-3-0------|
 --14---14\---14---14\--0-0-0-0-0--0-0-0-0-0------|
 -----------------------0-2-0-0-0--0-2-0-0-0------| x2
 -------------------------------------------------|
 -------------------------------------------------|

 Angus joins in on Riff A for verse

 "all right.....all right"
 -------3-------------3-----------|
 -------3-------------3-----------|
 -------0-------------0-----------|
 -------0-------------0-----------|
 ---------------------------------|
 -------3-------------3-----------|
 Chorus
 Riff C
 "i-e-i-e-o  shake your foundations"
 -2-------3----2----------3--2--3----------------------|
 -3-------3----3----------3--3--3----------------------|
 -2-------0----2----------0--2--0----------------------|
 -0-------0----0----------0--0--0----------------------|
 ------------------------------------------------------|
 ---------3---------------3-----3----------------------|

 "i-e-i-e-o shake it to the floor"
  Riff C

 "i-e-i-e-o shake your foundations"
  Riff C

 "i-e-i-e-o shake it"
 -2-------3-------------3--------------------|
 -3-------3---6----5----3--------------------|
 -2-------0---7----5----0--------------------|
 -0-------0------0---0--0--------------------|
 --------------------------------------------|
 ---------3-------------3--------------------|

 Riff B x2

 Play verse

 Play chorus

 Solo
   U.B........................
 -------------------------------|
 ---10----8---7---10----8---7---|
 ---12---10---9---12---10---9---|
 -------------------------------|
 -------------------------------|
 -------------------------------|

 --------------------------------------------------------------|
 --------------------------------------------------------------|
 -5p0-5p0-5p0-5p0-7p0-7p0-7p0-7p0-5p0-5p0-5p0-5p0-7p0-7p0-7p0--|
 --------------------------------------------------------------|
 --------------------------------------------------------------|
 --------------------------------------------------------------|
  U.B...................
 -----------17--15---14-------15----------15---------------------15(17)----|
 --10--8-7--20--18---17----15(17)--13~-15(17)--13--15~--p13----------------|
 --12-10-9---------------------------------------------------14------------|
 --------------------------------------------------------------------------|
 --------------------------------------------------------------------------|
 --------------------------------------------------------------------------|

 Play chorus

 Outro solo
 -----------------------13------------------------------|
 --13(14)-13(14)-13(15)----13(15)~----------------------|
 -------------------------------------------------------|
 -------------------------------------------------------|
 -------------------------------------------------------|
 -------------------------------------------------------|

 --13(15)-13(15)-13(15)-17(19)-------------------------|
 ------------------------------------------------------|
 ------------------------------------------------------|
 ------------------------------------------------------|
 ------------------------------------------------------|
 ------------------------------------------------------|

 --10--13p10-13p10-13\---------------|
 ------------------------------------|
 ------------------------------------|
 ------------------------------------|
 ------------------------------------|
 ------------------------------------|

 --15(17)-13----13 15-15-13-15--13(15)-15-13(15)--18(20-|
 ------------15-----------------------------------------|
 -------------------------------------------------------|
 -------------------------------------------------------|
 -------------------------------------------------------|
 -------------------------------------------------------|

 -------------------13--------13-----------------------------|
 --15-15(17)-13(15)----13(15)----13(15)-13(15)-13(15)-13(15)-|
 ------------------------------------------------------------|
 ------------------------------------------------------------|
 ------------------------------------------------------------|
 ------------------------------------------------------------|

 --20(22)----------------------|
 ---------18(20)~~~~-----------|
 ------------------------------|
 ------------------------------|
 ------------------------------|
 ------------------------------|

                                                   Chase The Ace

 Main Riff
 ---------------------------------|
 ------3--------------------------|
 ----5-2-2------------------------|
 ----5-0-2--2-2-2-2-2-2-2-2-2-2---|
 ----3---0--0-0-0-0-0-0-0-0-0-0---|
 --0------------------------------|

 --------3--------3-------|
 ----3---3-3------3-------|
 --5-2-2-0-2--5---0---2---|
 --5-0-2-0-0--5---0---2---|
 --3---0------3-------0---|
 --------3--------3-------|

 Guitar Solo
                           N.H....
 -------------------------------------------------------------|
 -------------------------------------------------------------|
 -5-5--5-5--5-5-5-5---------------------5p0-5p0-5p0-5p0-7-7-7-|
 --------------------------5-5-5-5-5h7------------------7-----|
 ------------------5-5--5-5-----------------------------------|
 -------------------------------------------------------------|
                                                   P.H.
 -----------------------------------5------------------15(17--|
 ------------------------------8(10)-8-5----------------------|
 --7(8)------5-5--5\--7(8)--\-----------7-7(8)--7-5-----------|
 ------7--------------------------------------7-7---<7>-------|
 ---------0-0-------------------------------------------------|
 -------------------------------------------------------------|

 -12-15(17)-15(17)-15(17)\-------15-----15-----15--15--15--15-|
 --------------------------/15/17--15/17--15/17--17--17--17---|
 -------------------------------------------------------------|
 -------------------------------------------------------------|
 -------------------------------------------------------------|
 -------------------------------------------------------------|

 ---15-15\------------------12---12--12---12-----------------|
 -17---17\-/15(17)----------------------------13p10----------|
 ------------------12-\--12(14)--12----12(14)----------------|
 ------------------12-\--------------------------------------|
 ----------------------------------------------------0-0-0-0-|
 ------------------------------------------------------------|

 -------------------------------------------------------5------|
 --------------------------------------------------------5-8p5-|
 ----2----2-5/-2-2-2-2-0-0-0-2-2-2-2-5-2-7-7(9)-7-5-7(9)-------|
 ----2-----------------------------------7---------------------|
 -0-0--0-0-----------------------------------------------------|
 --------------------------------------------------------------|
               W.B.
 ------------------------------ |-------|   ----------15(17)--|
 ---5-------------------------- |-------|   ------------------|
 --7-7(8)-5-----0\--5(7)-5-2-0- |-5p2p0-|   ------------------|
 --------7---5-2--------------- |-------|x24--------5\--------|
 ------------------------------ |-------|   -3-4-5-7----------|
 ------------------------------ |-------|   ------------------|
                                            P.H.  P.H.
 --12-15(17)\-------------------------------------------------|
 -------------15(17)\--13(15)-13-10---------------------------|
 ----------------------------------12(14)---<2>---<2>--5-5(7)-|
 -------------------------------------------------------------|
 ----------------------------------------0-0---0-0------------|
 -------------------------------------------------------------|
     P.H......               T.M............
 ----------------------------15---------\-15-\---15(17)-15(17--|
 --------------------15(17)\-17---------\-17-\-13--------------|
 -----------------/14--------//-----------//-------------------|
 --7-<7-7-7-7>\--------------//-----------//-------------------|
 ----------------------------//-----------//-------------------|
 ----------------------------//-----------//-------------------|

 -15(17)-15(17)-15(17)---22(24)--22-17-20(22)-20(22)-20-20(22--|
 --------------------------------------------------------------|
 --------------------------------------------------------------|
 --------------------------------------------------------------|
 --------------------------------------------------------------|
 --------------------------------------------------------------|
                                                 P.H.
 -20-20(22)-20(22)-22(24)--20---------------------------------|
 ----------------------------22\------------------------------|
 ----------------------------------14---14-----<14>\-14-14-14-|
 -------------------------------------------------------------|
 -------------------------------0-0--0-0--0-0-0---------------|
 -------------------------------------------------------------|
                                      Pick Slide
 --15(17)-15(17)-15(17)-15(17)-15(17)-------------------------|
 -------------------------------------------------------------|
 -----------------------------------------------------2-------|
 -----------------------------------------------------2-------|
 -----------------------------------------------------0-------|
 ---------------------------------------xxxxxxx---------------|

 e||--11-11-11-11-11-11-11-11-|11-11-11-11-11-11-11-11-|10-10-10-10-10-10-14-14---|
b||--12-12-12-12-12-12-12-12-|12-12-12-12-12-12-12-12-|12-12-12-12-12-12-12-12----|
g||*-11-11-11-11-11-11-11-11-|11-11-11-11-11-11-11-11-|11-11-11-11-11-11-11-11----|
D||*-------------------------|------------------------|---------------------------|
A||--------------------------|------------------------|---------------------------|
E||--------------------------|------------------------|---------------------------|
     Bsus4                  endpatt.
e|14-12-12-12-12-12-12-12--||
b|12-12-12-12-12-12-12-12--||
g|11-11-11-11-11-11-11-11-*||
D|------------------------*||
A|-------------------------||
E|-------------------------||

  (Angus) with Patt.1
   B5                        G5          D/F#
e|------------------|------------------|------------------|------------------|
b|------------------|------------------|------------------|------------------|
g|-4----------------|--------------0---|-2--------1-------|------------------|
D|-4----------------|-----------0------|-0--------2-------|------------------|
A|-2----------------|------------------|----------2-------|------------------|
E|------------------|--------3---------|-2-----x--0-------|------------------|

   B5                                    G5    D/F#   E
e|------------------|------------------|-3----------------|------------------|
b|------------------|------------------|-3-----3----------|------------------|
g|-4----------------|------------------|-0-----2------1---|------------------|
D|-4----------------|------------------|-0-----0------2---|------------------|
A|-2----------------|------------------|--------------2---|------------------|
E|------------------|------------------|-3-----2------0---|------------------|
   B5    B5/A                G5          D/F#     E5
e|------------------|------------------|------------------|------------------|
b|------------------|------------------|------------------|------------------|
g|-4-----4----------|--------------0---|------------------|------------------|
D|-4-----4----------|-----------0------|-------0--2-------|------------------|
A|-2-----0----------|------------------|----0-----2-------|------------------|
E|------------------|--------3---------|-2--------0-------|------------------|

e|------------------|------------------|-3----------------|------------------|
b|------------------|------------------|-3-----3----------|------------------|
g|-4-----4----------|------------------|-0-----2-------1--|------------------|
D|-4-----4----------|------------------|-0-----0-------2--|------------------|
A|-2-----0----------|------------------|---------------2--|------------------|
E|------------------|------------------|-3-----2----------|------------------|


                         For Those About To Rock............


 Bsus4 (Malcolm)
                              Oh!
e|--12-12-12-12-12-12-12-12-|--12-12-12-12-12-12-12-12-|
b|--12-12-12-12-12-12-12-12-|--12-12-12-12-12-12-12-12-|
g|--11-11-11-11-11-11-11-11-|--11-11-11-11-11-11-11-11-|
D|--------------------------|--------------------------|
A|--------------------------|--------------------------|
E|--------------------------|--------------------------|
Pattern 2
Yeah,Yeah,                     E
   B5   B5/A        G5     D/F#
e|-------------|----3----|---------|--------0----------|
b|-------------|----3----|--3------|--------0--0-------|
g|-4----4------|----0----|--2--1---|--0-0-0-0----------|
D|-4----4------|----0----|--0--2---|--2-0-2----2-------|
A|-2----0------|---------|-----2---|-------------------|
E|-------------|----3----|--2--0---|-------------------|
Pattern 3
Yeah, oh.                      E
   B5   B5/A        G5     D/F#                         end it w/pattern 2 (2x)
e|-------------|----3----|---------|--------7-7-7------|
b|-------------|----3----|--3------|--------7-7-7------|
g|-4----4------|----0----|--2--1---|--------------0----|
D|-4----4------|----0----|--0--2---|--2/-9-------------|
A|-2----0------|---------|-----2---|-----------------0-|
E|-------------|----3----|--2--0---|-------------------|
Pattern 4
Stand up...
  B       D/A         A        E             G5    E
e|-----------|-------------------|--------|--3---------|
b|4/------3-3|3-3-----2-----2----|--------|--3---------|
g|4/------2-2|2-2-----2-----2--1-|--------|--0-----1---|
D|4/------4-4|4-4-----2-----2--2-|--------|--0-----2---|  3 x
A|2/------0-0|0-0-----0-----0--2-|--------|--------2---|
E|-----------|-----------------0-|--------|--3-----0---|

Chorus w/patt. 3

     b   hold bend.....
e|--------------------------------------------------------|--------------------|
b|-10-(12)-------------(12)--(12)--(12)--(12)--(12)--(12)-|(12)-(12)-(12)-(12)-|
g|--------------------------------------------------------|--------------------|
D|--------------------------------------------------------|--------------------|
A|--------------------------------------------------------|--------------------|
E|--------------------------------------------------------|--------------------|
                                      A     D/A           G                D
                                      b     b  ~~~~~~~
e|----------------------------------|------------------5----------------------|
b|(12)-(12)-(12)-(12)-(12)-(12)-\---|8-10--8-10----------8--5---5-------------|
g|-------------------------------\--|-------------------------8---8--7--5-----|
D|----------------------------------|-------------------------------------7-\-|
A|----------------------------------|----------------------------------------\|
E|----------------------------------|-----------------------------------------|
  A   D/A    A          G        D          A       D/A      A              G
             ~~~~~~~~~ b  r      ~~~~~~~~~ b           b
e|----------------------------------------------5-----------5------------5----|
b|--------------------------------------------5---8-5-----5---8--5-----5---8-5|
g|--------------------7-9--7--5--7--------7-9---------7-9----------7-9--------|
D|5----x----7\----------------------------------------------------------------|
A|----------------------------------------------------------------------------|
E|----------------------------------------------------------------------------|
                              D           A      D/A       A            G
   b           b               b  r ~~~~~~        b r    ~~~~~~  b  r
e|------5-----------5-------5-------------10----8--9--8-----------------------|
b|----5---8-5-----5---8-5-----7-8---7-------------------10-----12-13-12-10--12|
g|7-9---------7-9---------7---7-8---7-----------------------------------------|
D|----------------------------------------------------------------------------|
A|----------------------------------------------------------------------------|
E|----------------------------------------------------------------------------|
             D           A        D/A      A                G               D
  b     b             b                             b  b         b  r
e|---------------------------12---12---12----\--------------------------------|
b|-13-12-13------12-12-14---------12---14----\---/13-15-17--13-13-15-13-10--13|
g|----------------------------------------------------------------------------|
D|----------------------------------------------------------------------------|
A|----------------------------------------------------------------------------|
E|----------------------------------------------------------------------------|
               A       D/A         A               G           D           A
  b      b      b      b      b         ~~~~~~~~~~~        r     ~~~~
e|----------------------------------------------------------------------------|
b|-15--13-15--13-15--13-15--13-15--13-15-----------10-12-13-12-10--------10---|
g|-------------------------------------------------------------------/11------|
D|----------------------------------------------------------------------------|
A|----------------------------------------------------------------------------|
E|----------------------------------------------------------------------------|
       D/A     A        G        D            A   D/A    A     G     D
       b            b       ~~~~~       ~~~~                   b     b     b
e|-------------------12-------------------------------------------------------|
b|10-------10--\--12-13-8--8---------------------------------20-22-20-22-20-22|
g|---12-14-----------------------9-7-5-7------5-------------------------------|
D|----------------------------------------------7--7--7--\--------------------|
A|----------------------------------------------------------------------------|
E|----------------------------------------------------------------------------|
         G             D     A        B5
Fire!    We    sa     lute   you
          ub     ub     ub    ub
e|---------------------------------------|
b|---------8------8------8-----5---------|
g|------10-12--10-12--10-12--7-9------4--|
D|------------------------------------4--|
A|------------------------------------2--|
E|---------------------------------------|

         G              D      A      B5
         We ...
          ub      ub     ub     ub
e|---------------------------------------|
b|---------8-------8------7------5-------|
g|------10-12---10-12---9-11---7-9----4--|
D|------------------------------------4--|
A|------------------------------------2--|
E|---------------------------------------|
         G              D      A      B5             G5
         We....                       Ow!  Fire!  We
          ub       ub     ub     ub                 ub     ub     ub     ub
e|---------10-------10-----14-----12-----------------10-----10-----10-----10--|
b|------13-15----13-15--17-19--15-17--------------13-15--13-15--13-15--13-15--|
g|------------------------------------4---------------------------------------|
D|------------------------------------4---------------------------------------|
A|------------------------------------2---------------------------------------|
E|----------------------------------------------------------------------------|
          D      A                           B5
    ub     ub     ub     ub     ub    ub  hb   ub                 ub
e|---10-----9------9------9------9------9-\-----7----7---7---7------7--7--7-|
b|13-15--12-14--12-14--12-14--12-14--12-14\--10-12--12--12--12--10-12-12-12-|
g|--------------------------------------------------------------------------|
D|--------------------------------------------------------------------------|
A|--------------------------------------------------------------------------|
E|--------------------------------------------------------------------------|
           G5            D     A           B5                     G5
    ub       ub     ub    ub    ub   ub    ~~~~~~~  ~~~~~~ ~~~~~~   ub     ub
e|----7---------------------------------------------------------------7------7|
b|10-12-\------8------8-----7----5----5\--------------------------10-12--10-12|
g|---------10-12--10-12--9-11--7-9--7-9\---4------\-4-----4---4---------------|
D|----------------------------------------------------------------------------|
A|----------------------------------------------------------------------------|
E|----------------------------------------------------------------------------|
  D       A   (OH!) F.. t... a...  t. r....
    ub     ub
e|---10-----12-\-|       B5
b|13-15--15-17-\-|
g|---------------|
D|---------------|
A|---------------|
E|---------------|
                    G5 D   A                 B5                          G5
    b        b ~~~~~~   b          b              b  hb       b  ~~~~~~
e||-----------------|--|------------------|------|---------------------|--------|
b||-----------------|--|10-12---12-10-12\-|------|---------------------|--------|
g||*-9-11--11-9-11--|--|------------------|------|-9-11---11--9--11 ---|--------|
D||*----------------|--|------------------|------|---------------------|--------|
A||-----------------|--|------------------|------|---------------------|--------|
E||-----------------|--|------------------|------|---------------------|--------|
  D   1.-A
     b   b            b ~~~~~~~
e|----|------------------------||
b|-10-|-10-12-12-12-10-12\-----||
g|----|-----------------------*||
D|----|-----------------------*||
A|----|------------------------||
E|----|------------------------||
2.-   A                               B5
 b     b      b     b     b     b     b
e|-----------------------------------------------7----------------------------|
b|12-10-12--10-12-10-12-10-12-10-12-10-12----------10-7---7-------------------|
g|------------------------------------------------------9---9--7--------------|
D|---------------------------------------------------------------9-----\------|
A|----------------------------------------------------------------------------|
E|----------------------------------------------------------------------------|
   G5               D                 A

e|----------7-----------------------------------------------------------------|
b|------------10-7-10-7-6-7-6-------------------------------------------------|
g|9-11------------------------9-7-7-------------------------------------------|
D|----------------------------------9-----9---7\------------------------------|
A|------------------------------------7-9---9---\-----------------------------|
E|----------------------------------------------------------------------------|
B5                                                            G5
               ~~~~~~              ~~~~~~~                    b     b
e|----------------------------------------------------------------------------|
b|--10-12-12-12------10-12-12-12-12-------10-12-12-10-12----15-17-15-17-------|
g|----------------------------------------------------------------------------|
D|----------------------------------------------------------------------------|
A|----------------------------------------------------------------------------|
E|----------------------------------------------------------------------------|
  D          A                         B5
              b     b       r          b        b        b        b        b
e|12---------------------------------------17-------17-------17-------17------|
b|---12-15--17-19-17-19--19----17-15-17-19----17-19----17-19----17-19----17-19|
g|----------------------------------------------------------------------------|
D|----------------------------------------------------------------------------|
A|----------------------------------------------------------------------------|
E|----------------------------------------------------------------------------|
                                                    G5                D
       b          b        b          r                               b
e|17---------17-------17--------------------------------------------15-17-----|
b|---17-19------17-19----17-19-17-19----19-17-15----17-15--------12-----------|
g|-----------------------------------------------16-------16---14-------------|
D|----------------------------------------------------------------------------|
A|----------------------------------------------------------------------------|
E|----------------------------------------------------------------------------|
    A                        B5
                             b    hb                         r
e|-14-12-------12-14-12------------17-----------------------------------------|
b|-------15-15----------15-17-19-------19--19--19-19-19-19-19-17-17-15--------|
g|----------------------------------------------------------------------------|
D|----------------------------------------------------------------------------|
A|----------------------------------------------------------------------------|
E|----------------------------------------------------------------------------|
   G5             D       A                 G5            D      A
    b       b                   b            b       b      b           b
e|17-19---17-19---------------17-19--17-14-17-19---17-19--------------22-24---|
b|----------------17-19---17------------------------------17-19--17-----------|
g|----------------------------------------------------------------------------|
D|----------------------------------------------------------------------------|
A|----------------------------------------------------------------------------|
E|----------------------------------------------------------------------------|
           G5             D     A
           b      b       ub     ub     ub
e|22--19--------------------------------------|
b|-------22-24--22-24------15-----14-----10---|
g|----------------------17-19--16-18--12-14---|
D|--------------------------------------------|
A|--------------------------------------------|
E|--------------------------------------------|
   B5  A5  G5 D/F# E       Fire!    B5
e|--------------------------------------------|
b|---------3---3------------------------------|
g|-4---2---0---2---1----------------4/--------|
D|-4---2---0---0---2----------------4/--------|
A|-2---0-----------2----------------2/--------|
E|---------3---2---0--------------------------|
comments
print report bad tab
8 comments total. Showing first comments.
0 reply
karateguy29 wrote on July 25 2005, 12:00 am

hells bells is tabbed wrong dude

0 reply
Rockn_Clay wrote on July 25 2005, 12:00 am

who made who isn't that good... the 2nd riff angus does is tapping

0 reply
Voytazz wrote on August 24 2005, 12:00 am

hells bells wrong

I want to post or [tab]
guest
You may want to rate the tab now too:
select rating
Please do not post tabs as comments. Select "correction" instead!