Oops, an error
Loading. Please wait.

Who Made Who Tab

ver2
ver2

Album

Whole song

More versions @911Tabs.com
16,984 views 27 this week
9 commentsread comments
1 2 3 4 5
accurate
x 9
add to favorites launch autoscroll
font size
0
reset
Autoscroll
+/-
esc
set tempo
stop
Contributor
WARNING: You are trying to view
                                    content from Ultimate-Guitar.com
                                    in an unauthorized application,
                                    which is prohibited.

                                    Please use an official Ultimate
                                    Guitar Tabs application for iPhone,
                                    iPad or Android to access legitimate
                                    chords, guitar, bass, and drum tabs
                                    from Ultimate-Guitar.com database.

                                    Type "ultimate guitar tabs" in Apple
                                    App Store's or Android Market's
                                    search to find the application.

Who Made Who Album by AC/DC
tabbed by Voytazz



Intro
E|--------|           |--------|          |-----------| 
B|--------|           |--------|          |-----------|
G|--------|x8         |---2-2--|x2        |-----------|x4 
D|---5-5--|           |---2-2--|          |----5-5----|
A|---3-3--|           |---0-0--|          |----5-5----|
E|--------|           |--------|          |----3-3----|


E|--------|           
B|--------|       Malcolm Parts    
G|--------|x4        
D|---5-5--|          
A|---3-3--|          
E|--------|          

Angus Riffs:
--10----------                   -------------------------------------------
--10----------                   -------------------------------------------
--12----14\\--  (x1)             -------------------------------------------
--------------      this first-> 0h4p0h5p0h7p0h5(x8)------------------------
--------------            then-> t6p2-t7p2-t9p2-t7p2(x4)-0h4p0h5p0h7p0h5(x8)
--------------                   -------------------------------------------


-------------------|
-------------------|
-------------------|
0h4p0h5p0h7p0(x8)--|
-------------------|
-------------------|

Chorus1
e----------------------|
b-------1---------1----|
G-----0---0-----0---0--| x4
D---2-------2-3--------|
A----------------------|
E----------------------|

Chorus2:
----------------------------------------------|
---2----3----3---2-------3---3-----2-----2--2-|
---2----2----2---2-------2---2-----2-----2--2-|
---2----5----4---2-------5---4-----2-----2--2-|
---0----0----0---0-------0---0-----0-----0--0-|
----------------------------------------------|

Chorus1
e----------------------|
b-------1---------1----|
G-----0---0-----0---0--| x2 (second time stop at last 1-note)
D---2-------2-3--------|
A----------------------|
E----------------------|

Angus' Solo

E----8p5h7p5h8p5h7p5h8p5h7p5h8p5h7p5-
B------------------------------------  One hand
G------------------------------------
D------------------------------------
A------------------------------------
E------------------------------------

E-------------
B-------------
G-------------
D--2-2--2---2-
A--0-0--0---0-
E---------3---


E----8p5h7p5h8p5h7p5h8p5h7p5h8p5h7p5-
B------------------------------------  One hand
G------------------------------------
D------------------------------------
A------------------------------------
E------------------------------------

E-------------
B-------------
G-------------
D--2-2--2---2-
A--0-0--0---0-
E---------3---

--------------------------------------------------------------------|
--------------8h5---8h5---8h5---8h5---------------------------------|
----------6-------6-----6-----6-----6h7vvvvvvvv-7--7--7h6--7--7-----|
--------------------------------------------------------------------|
--------------------------------------------------------------------|
--------------------------------------------------------------------|

                       Tapping
----------------------t10p6p3-t10p6p3-t10p6p3-t10p6p3-t12p6p3-t12p6p3-|
----------------------------------------------------------------------|
ls9vvvvvvvv--\\\------------------------------------------------------|
----------------------------------------------------------------------|
---------------(10)\\-------------------------------------------------|
----------------------------------------------------------------------|

t12p6p3-t13p6p3-t13p6p3-t13p6p3-t13p6p3-t13p6p3-t13p6p3-t13p6p3-t13p6p3-|
------------------------------------------------------------------------|
------------------------------------------------------------------------|
------------------------------------------------------------------------|
------------------------------------------------------------------------|
------------------------------------------------------------------------|

t13p6p3-t13p6p3---|
------------------|
------------------|
-----END SOLO-----|
------------------|
------------------|

:::::::::::::::::::::::::::::::::::::::::::::::::::::::::::::::::::::::::
The solo tapping you can play other way:
------------------------------------------------------------------------|
--t15p11p8--x4----t17p11p8--x3-----t18p11p8-----------------------------|
------------------------------------------------------------------------|
------------------------------------------------------------------------|
------------------------------------------------------------------------|
------------------------------------------------------------------------|
::::::::::::::::::::::::::::::::::::::::::::::::::::::::::::::::::::::::::

Chorus1
e----------------------|
b-------1---------1----|
G-----0---0-----0---0--| 
D---2-------2-3--------|
A----------------------|
E----------------------|

Chorus2:
----------------------------------------------|
---2----3----3---2-------3---3-----2-----2--2-|
---2----2----2---2-------2---2-----2-----2--2-|
---2----5----4---2-------5---4-----2-----2--2-|  x2
---0----0----0---0-------0---0-----0-----0--0-|
----------------------------------------------|

e----------------------|
b-------1---------1----|
G-----0---0-----0---0--| 
D---2-------2-3--------|
A----------------------|
E----------------------|


Angus Outro:
-----------------------|
-----------------------|
-----------------------|
-----------------------|
0h4p0h5p0h7p0h5p0(x16)-|
-----------------------|
:::::::::::::::::::::::::::::::::::::::::::::::::::::::::

You Shook Me All Night Long
                                  
You shook me all night long by AC/DC
Listen to the song to get a rhythm
Intro
|------------------------------------------------------------------2~-|
|-8~--10--8-8---8-7-----7-----7-----7--------8~--10--8-8---8-7-----3~-|
|-7~---7--7---7-----7---7-----7-----7--------7~---7--7---7-----7---2~-|
|---------------------0-0-----0---------0------------------------0-0~-|
|-------------------------8/9---8/9---8-------------------------------|
|---------------------------------------------------------------------|
     
Verse (Repeat)
 
|-3--3--3--3--3--3--2----3--3--2--3--2|3----3--3--3--3--3--2-|3--3--2--3--2-
|-3--3--3--3--3--3--3----3--3--3--3--3|3----3--3--3--3--3--3-|3--3--3--3--3-
|-0--0--0--0--0--0--2----0--0--2--0--2|0----0--0--0--0--0--2-|0--0--2--0--2-
|-0-(2)(2)-0-(2)-0--0----0--0--0--0--0|0---(2)(2)-0-(2)-0--0-|0--0--0--0--0-
|(2)-3--3-(2)-3-(2)-----(2)(2)---(2)--|2)---3--3-(2)-3-(2)---|-------------
|-3--------3-----3-------3--3-----3---|3----------3-----3----|--------------


Chorus (Repeat)

|----3------------------------2----------------------|
|----3----------3------3------3----------3-------3---|
|----0--------0------0---0----2--------0---0---0---0-|
|----0---------------------0--0----------------------|
|---(2)-0-2-3------2-------------0-2-3-------2-------|
|-3--3-----------------------------------------------|

Played before the solo and at the end

|----3------------------------2-2-2-2-2-3-3-3-3-3-2-2-2-2-2-2-2-2-2-|
|----3----------3------3------3-3-3-3-3-3-3-3-3-3-3-3-3-3-3-3-3-3-3-|
|----0--------0------0---0----2-2-2-2-2-0-0-0-0-0-2-2-2-2-2-2-2-2-2-|
|----0---------------------0--0-0-0-0-0-0-0-0-0-0-0-0-0-0-0-0-0-0-0-|
|---(2)-0-2-3---------------------------x-x-x-x-x-------------------|
|-3--3----------------------------------3-3-3-3-3-------------------


Solo
e:---------3------------------------------------:
b:------------3---6-----------------------------:
g:--5b----------------5br--3--------------------:
d:----------------------------5----3------------:
a:-------------------------------------5---3---1:
e:----------------------------------------------:

e:----------------------------------------------:
b:------3b---3--------3--5--------3--6------6--8:
g:---------------5-----------3h5--------5h7-----:
d:-1h3------------------------------------------:
a:----------------------------------------------:
e:----------------------------------------------:

e:-----------10-------------------------------15:
b:------10b-----10br--8---12b--12b-12brp10------:
g:--7--9-----------------------------------11---:
d:----------------------------------------------:
a:----------------------------------------------:
e:----------------------------------------------:

e:---15---------------------------------13----13:
b:-------18--15---13br-----15--13--14b-----14b--:
g:----------------------14----------------------:
d:----------------------------------------------:
a:----------------------------------------------:
e:----------------------------------------------:

e:----------------------------------------:
b:----14br---11-----14br---11-------------:
g:--------------12-------------/12--12----:
d:----------------------------------------:
a:----------------------------------------:
e:----------------------------------------:

e:-19b--19b--18--15--------15-------15----:
b:--------------------18b------18b--------:
g:----------------------------------------:
d:----------------------------------------:
a:----------------------------------------:
e:----------------------------------------:

e:-------------------------15----15---17br-15---:
b:-18brp15-------------/17----17----17----------:
g:---------17--15--17---------------------------:
d:----------------------------------------------:
a:----------------------------------------------:
e:----------------------------------------------:

:::::::::::::::::::::::::::::::::::::::::::::::::::::::::::

D.T

e---------------------------------------|
b-----------------------4---3-----------|
g-5---5--3---5\------3--3---3----5-2----|
d-5---5--3---5\---5------------------3--|
a-3---3--3---3\-------------------------|
e---------------------------------------|

        Second riff 00:28-00:43
e-----------------------------------------------------|
b-----------------------------------------------------|
g-5---3--5\-----5---3--5\-----5---3--5\-----5---3--5\-|
d-5---3--5\-----5---3--5\-----5---3--5\-----5---3--5\-|
a-3---3--3\-----3---3--3\-----3---3--3\-----3---3--3\-|
e-----------------------------------------------------|

        Small Drum Fill 00:44-00:45  

        Third Riff 00:46-01:05   
e----------------------------------------------------------------------|
b----------------------------------------------------------------------|
g----------------------------------------------------------------------|
d----------------------------------------------------------------------|
a---1-3----1------------1---------------1-3----1------------1----------|
e-3----------3-1----1-3------1-3-1----3----------3-1----1-3------1-3-1-|

         Fourth Riff 01:06-01:12 
e---------------------------------------|
b---------------------------------------|
g-5---3--5\-----5---3--5\-----5---3--5\-|
d-5---3--5\-----5---3--5\-----5---3--5\-|
a-3---3--3\-----3---3--3\-----3---3--3\-|
e---------------------------------------|


         Fifth Riff 01:14-01:33
e------------------------------------------------------------------------|
b------------------------------------------------------------------------|
g------------------------------------------------------------------------|
d------------------------------------------------------------------------|
a---1-3----1------------1---------------1-3----1------------1------------|
e-3----------3-1----1-3------1-3-1----3----------3-1----1-3------1-3-1---|


         SOLO 01:34-01:52(The intro is played under the solo by Malcolm)
e-----------------------------------------13b15--11---------------hb--------
b-11b13--11b13----11b13----11-------------------------13---18b20-(20)-18b20-
g-----------------------------10b12-10b12-----------------------------------
d---------------------------------------------------------------------------
a---------------------------------------------------------------------------
e---------------------------------------------------------------------------


--hb---------hb----------------------------------------------------15b18--
-(20)-18b20-(20)-18b20\--13-15b16---13----13------13-------13--13---------
-----------------------------------------------------15b17----------------
--------------------------------------------------------------------------
--------------------------------------------------------------------------
--------------------------------------------------------------------------


---15--13----------15-------15-------15-------15-------15--18-----15--------
----------16-18b20----18b20----18b20----18b20----18b20----------------16p13-
----------------------------------------------------------------------------
----------------------------------------------------------------------------
----------------------------------------------------------------------------
----------------------------------------------------------------------------

           
 Song blasts out with what appears to be the end. 01:53-01:54
e-----------
b-----------
g-5---3--5\-
d-5---3--5\-
a-3---3--3\-
e-----------

                Short Pause 01:55-01:57

Then continues with sixth riff(Play until the fade out at the end)softly
01:58-end   
e---------------------------------------|
b---------------------------------------|
g-----------------------4---3-----5-2---|
d-5---5--3---5----------3---3---------3-|
a-5---5--3---5---3---3--5---3-----------|
e---------------------------------------|
Listen to "Who Made Who album."


++++++++++++++++++++++++++++++++++++++++++++++++++++++++++++++++++++



AC/DC - SINK THE PINK




Tuning (low to high): EADGBE

Chords used:

C5       x355xx
C        x3201x
Csus4    x3301x
G5       3x0033
G/B      x200xx

Intro:

Guitar I (Angus)

                       G5*

E|---------------------3---|
B|---------------------3---|
G|---------------------0---| *guitars I and II
D|---3----3------------0---|  hit the G5
A|---1-/5-----3----3---x---|
E|------------1-/5-----3---|

Guitar I

E|-7-8-10-10-8-7---------------------------------------------------------|
B|---------------10-10-8-10-6-6-6-6-6-6-8-10-8-8-8-8-8-8-8-8-8-8-8-8-8-8-|
G|-0-0--0--0-0-0--0--0-0--0-0-0-0-0-0-0-0--0-0-0-0-0-0-0-0-0-0-0-0-0-0-0-|
D|-----------------------------------------------------------------------|
A|-----------------------------------------------------------------------|
E|-----------------------------------------------------------------------|

Guitar II

E|-------------------------------------------3---------------------------|
B|-------------------------------------------3---------------------------|
G|-------------------------------------------0---------------------------|
D|-------------------------------------------0---------------------------|
A|-------------------------------------------x---------------------------|
E|-------------------------------------------3---------------------------|

Guitar I

E|-7-8-10-10-8-7-----------------------------|
B|---------------10-10-8-10-6-6-6-6-6-6-8-10-|
G|-0-0--0--0-0-0--0--0-0--0-0-0-0-0-0-0-0--0-|
D|-------------------------------------------|
A|-------------------------------------------|
E|-------------------------------------------|

Guitar II

E|------3------------------------------------|
B|------3------------------------------------|
G|------0------------------------------------|
D|------0------------------------------------|
A|------x------------------------------------|
E|------3------------------------------------|


Guitar I

E|---------------------------------|
B|-8-8-8-8-8-8-8-8-8-8-8-8-8-8-8-8-|
G|-0-0-0-0-0-0-0-0-0-0-0-0-0-0-0-0-|
D|---------------------------------|
A|---------------------------------|
E|---------------------------------|

Guitar II

E|-3-------------------------------|
B|-3-------------------------------|
G|-0-------------------------------|
D|-0-------------------------------|
A|-x-------------------------------|
E|-3-------------------------------|

Rhythm:

E|---3-3-----------------3-3---|
B|---3-3---1-1---1-1-1---3-3---|
G|---0-0---0-0---0-0-0---0-0---| play 4 times
D|---0-0---3-2---2-3-2---0-0---|
A|---x-x---3-3---3-3-3---x-x---|
E|---3-3-----------------3-3---|

Verse:

         G5   Csus4 C    C Csus4 C Csus4

Put your gear into  fire

         G5      Csus4  C       C Csus4 C Csus4

Lay your bullets on the ground

          G5   Csus4 C       C Csus4 C Csus4

Turn your head to    desire

          G5    Csus4 C     C Csus4 C Csus4

There's a woman goin' down

         C5     C5        G/B C5  C5  G/B    

She says she'll rough you up, all the way

C5   C5  G/B   C5   C5  G/B  C5    C5   G/B   C5

Then she gonna spit you out, count your days

Pre-chorus:

E|---------------------------------------------|
B|------------3--------------------------------|
G|---5--------2---------------------5----------|
D|---5--------0---------------------5----------|
A|---3--------------------------3-2-3----------|
E|---------------------------------------------|

     She said, "Choice is yours,"     casually

E|-------------------------------------------|
B|-----3-------------------------------------|
G|-----2------------------------------3------|
D|-----0------------------------------3-x8---|
A|-3-2---------------------3----2-----1------|
E|-------------------------------------------|

      "So why don't you do what comes naturally?"

Chorus:

E|---------------------3-3-----------------3-3---|
B|---------------------3-3---1-1---1-1-1---3-3---|
G|---------------------0-0---0-0---0-0-0---0-0---|
D|---3----3------------0-0---3-2---2-3-2---0-0---|
A|---1-/5---3----3-----x-x---3-3---3-3-3---x-x---|
E|----------1-/5-------3-3-----------------3-3---|

              Sink the pink                It's all the

E|---3-3-----------------|
B|---3-3---1-1---1-1-1---|
D|---0-0---0-0---0-0-0---|
G|---0-0---3-2---2-3-2---|
A|---x-x---3-3---3-3-3---|
E|---3-3-----------------|

     Fashion

Chorus (continued):

G5                      Csus4 C   C Csus4 C G5

  Drink  the   drink               

G5                      Csus4 C   C Csus4 C G5

  It's old fashioned

  G5          Csus4 C  G5    Csus4 C

  Gimme water          gimme wine

        G5   Csus4 C         G5 Csus4 C

  Gonna show you      a good time

           G5 Csus4 C   C Csus4 C G5         G5 Csus4 C

  Sink the pink                     sink the pink

Guitar I

E|---6-3-------------|
B|-------3-6-5-3-----|
G|-----------5-3-----|
D|---------------5---|
A|-------------------|
E|-------------------|

Guitar II

E|---6-3-------------|
B|---6-3-3-6-5-3-----|
G|-------3-7-5-3-----|
D|---------------5---|
A|-------------------|
E|-------------------|

---

*******************************************************************
 



 RIDE ON  (AC/DC)
================

Chords:
C       X32010
_C      X3555X
F       X33210
_F      133211
Bb      X1333X
G       3X0033
_G      355433
(E)     0XXXXX

Intro: C F (4 times)

C                   F           C        F
It's another lonely evening
_F                  Bb          _F       Bb
In another lonely town
_G                     _C 
But I aint to young to worry
Bb                   _F
And I aint to old to cry
C                    F          C        F
When a woman gets me down

Im lonely...
|---------------------------------------------------------------------------
|---------------------------------------------------------------------------
|---------------------------------------------------------------------------
|--------------------------------5------------------------------------------
|--------3~~--%---------4~~--%---5------------------------------------------
|--1-1-1----------2-2-2----------3-%-%-%-%-%-%-%-%-%-%-%-%------------------
                                                         .

F    C     F    G    F    C    Bb   _F
Ride on    Ride on   Ride on   Ride on

F    C     C    G      (E)  _F 
Ride on    Ride on    
                                                           

Little solo
|----------------------15---------------------------------------------------
|-16b18-r16-13---16r15b17---15b17-13-15p13-13-------------------------------
|-----------------------------------------------12r10--8~~~~~---------------
|---------------------------------------------------------------------------
|---------------------------------------------------------------------------
|---------------------------------------------------------------------------
          .  ~                 .         .  ~ 

Main solo

|----------------------------------|
|-16b18-r16-13-13~\------13-13b17--|
|---------------------/14----------|
|----------------------------------|
|----------------------------------|
|----------------------------------|
          .               .

|-------8--------------------------------------------------|
|---------11p8----8----------------------------------------|
|-10b12--------10---10b12r10p8---------10b12r10-8~~~~------|
|------------------------------10--------------------------|
|----------------------------------------------------------|
|----------------------------------------------------------|
                  .             ~               
          ????????????????????

|---------------------------------------------------------------------------
|------8----------8-11p8-------8-11p8------8-11b13--------------------------
|--10b12-----10b12-------10b12--------10b12---------------------------------
|---------------------------------------------------------------------------
|---------------------------------------------------------------------------
|---------------------------------------------------------------------------

|--8-----------------------------------------8-10-11~~~~--------------------
|----11p8----------------------------8-10-11--------------------------------
|--------11p10p8----8~~~~-------8-10----------------------------------------
|----------------10--------8/10---------------------------------------------
|---------------------------------------------------------------------------
|---------------------------------------------------------------------------
                  .                             .
             

|--10b12r10-8-h11p8-----8--8-8---15r17--17r15--13-12----12------------------
|-------------------/10------------------------------13---13~~~~\-----------
|---------------------------------------------------------------------------
|---------------------------------------------------------------------------
|---------------------------------------------------------------------------
|---------------------------------------------------------------------------
                        .  .  
                                        ????????????????????

|-------------------------------------------------15-------------18-18===---
|-15b17--15b17-%-%-%-%--17r15-13-13---15-13-15/17----17----18b20----18b20---
|---------------------------------------------------------------------------
|---------------------------------------------------------------------------
|---------------------------------------------------------------------------
|---------------------------------------------------------------------------
            .                  .  ~                  
                                      ?????????????????

|--17-18-15---18p17p15------------------------------------------------------
|----------------------18p17p15-18p17p15------------------------------------
|-----------------------------------------17p15-15-17-15-17~~~~~\-----------
|---------------------------------------------------------------------------
|---------------------------------------------------------------------------
|---------------------------------------------------------------------------
   .   .  .
              ????????????????????????????????????????????

|----------------------------------------------------------------|
|----------------------------8-11p8------------------------------|
|--8-------8-------8-?--------------10p8-10~~~~------------------|
|----10-10-----8h10 ---%-%---------------------------------------|
|----------------------------------------------------------------|
|----------------------------------------------------------------|
   ^       @   \--------/
                try fast stuff 
                with ? = 8 or 10
               ????????????????????????

|------8------------------------------------------------------------|
|-----8--11p8-------------------------------------------------------|
|---10--------10p8-8-10p8----8--------------------------------------|
|-------------------------10---10-10~~~~----------------------------|
|-------------------------------------------------------------------|
|-------------------------------------------------------------------|
                           . ^  .

|-------------------8-10-11r10-8~~~-|
|-----------8-10-11-----------------|
|------8-10-------------------------|
|--/10------------------------------|
|-----------------------------------|
|-----------------------------------|
                       .

|------13-----------13-----------------------------|
|---------16b18~~~-----16p13-----------------------|
|--/14-----------------------16p15p13--------------|
|-------------------------------------15~~~\-------|
|--------------------------------------------------|
|--------------------------------------------------|

|------------------------------------------------------------|
|-----15-17b19---17-15-17b19-17b19--17b19-17b19~~~\----------|
|--17--------------------------------------------------------|
|------------------------------------------------------------|
|------------------------------------------------------------|
|------------------------------------------------------------|
                                 .      .  
                 ?????????????????

|---------------------------------------------------------------------------
|--18b20--18b20-18b20--18p17p15-%%%%--18b20~~~~~~~~\------------------------
|--------------------------------------------------------------------------
|---------------------------------------------------------------------------
|---------------------------------------------------------------------------
|--------------------------------------------------------------------------
              .

Ending lick - well some of it
|--8-------------8----------------------------------------------------------
|----8--11b13------11p8-----------------------------------------------------
|------------------------(insert lots---------------------------------------
|-------------------------------------of -----------------------------------
|----------------------------------------notes here)------------------------
|-------------------------------------------------------11--8~~~~~~\--------
                                                        ^

b       bend
r       release
h       hammer-on
p       pull-off
^       slight-bend
~       vibrato
/\       slides
.       staccato
%       repeat last lick 
=       hold note
@       semi-harmonic
                        

+++++++++++++++++++++++++++++++++++++++++

Hells Bells
LEGEND:
hb=half bend
fb=full bend
r=release bend
~~=vibrato
^=harmonic
()=Acciaccatura
[]=tied note
:::::=hold bend over notes, then release
:
/=legato slide
\=shift slide
XXX=pickscrape




Riff 1                                           End Riff 1
e|---------------------------------------------------------|
B|---------------------------------------------------------|
G|---9---7------5-----7-------9---7------5-------7---------|
D|-----7----7-----5-----7-------7----7------5--------5-5---|
A|-0----------0-----0-----0-0----------0------0------3-2-0-|
E|---------------------------------------------------------|

Rhy. Fig. 1                      End Rhy. Fig. 1
e|-----------------------------------------------|
B|-----------------------------------------------|
G|-----------------------------------------------|
D|-7-9-7---5-7-5-----5-5---7-9-7---5-7-5-----5-5-|
A|-7-7-7---5-5-5---0-3-2---7-7-7---5-5-5---0-3-2-|
E|-----------------------------------------------|

Rhy. Fig. 2        End Rhy. Fig. 2
e|-------------------------------|
B|-------------------------------|
G|-----------2-0-2---------------|
D|-0-2-0-2---0-0-0--0-0-0----5-5-|
A|-0-0-0-0-----------------0-3-2-|
E|-------------------------------|
                    PM---|

Rhy. Fig. 3 (1)                Rhy. Fig. 3 (2)                   End Rhy. Fig. 3
e|---2---2---2---2-2-2------3-|---------------------2---------------------3-
B|---3-3-3---3-3-3-3-3----5-3-|---------------------3-2-------------------3-
G|---2-0-2---2-0-2-2-2-0--5-0-|-------------------0-2-2-----------------0-0-
D|-0-0-0-0---0-0-0-0-0-0--5-0-|---9-7-9-----9-7-9-0-0-2---9-7-9---9-7-9-0-0-
A|------------------------3-x-|---7-5-5-----7-5-7-----0---7-5-7---7-5-7---x-
E|--------------------------3-|-0-----------------------0-----------------3-

Rhy. Fig. 4                      End Rhy. Fig. 4
e|-----------------------------------------------|
B|-----------------------------------------------|
G|-----------------------------------------------|
D|-7-9-7---5-7-5-----5-5---7-9-7---5-7-5-----5-5-|
A|-7-7-7---5-5-5---0-3-2---7-7-7---5-5-5---0-3-2-|
E|-----------------------------------------------|
~~~~~~~~~~~~~~~~           ~~~~~~~~~~~~~~


Riff 2                   End Riff 2
e|-------------------------5-------|
B|-8-7hb-5^----------------5-7hb-7-|
G|-7-7------7-5hb------------7---7-|
D|----------------(5)h7~~~---------|
A|---------------------------------|
E|---------------------------------|

Rhy. Fig. 6         End Rhy. Fig. 6
e|---------------------------------|
B|--------------------2----[2]-----|
G|--------------------2----[2]-----|
D|--------------------2----[2]-----|
A|--------------------0----[0]-----|
E|-0----[0]------------------------|

Guitar Solo 
e|--------------------------------------------------|
B|--------------------------------------------------|
G|------------------------------2---------------7fb-|
D|-5h7~~~~--4h5-5~~~~---2h4--------(4)h7--[7]-------|
A|---------------------------0----------------------|
E|--------------------------------------------------|

e|------::::::::::::::::::::::::::---------------|
B|-8----:-8-8---8-8---8-8--8-8---:---------7---5-|
G|---7fb:-7-7---7-7---7-7--7-7---:7-5p0----7---5-|
D|--------------------------------------7----7---|
A|-----------------------------------------------|
E|-----------------------------------------------|

e|------------------------------------------------------------|
B|-------8~~~~~------7-7~~~~-----------8~~~~--------10--------|
G|-(7)/9-9~~~~~---0--7-7~~~~--5--(7)/9-9~~~~-(9)/11-11-11~~-9-|
D|------------------------------------------------------------|
A|------------------------------------------------------------|
E|------------------------------------------------------------|

e|--------------------------------------------------------------|
B|----13---------13-13---------13-13----------13----13----13----|
G|-14-14-(12)/14-14-14-(13)/14-14-14-13-13-14-14-14-14-14-14-14-|
D|--------------------------------------------------------------|
A|--------------------------------------------------------------|
E|--------------------------------------------------------------|

e|-10fb~~~-----:::::::---------------------------------------|
B|-13------12fb:-[12]:--10\15--15--13----15----15~~~~-15\----|
G|-------------------------14--14-----14----14--------14\----|
D|--------------------------------------------------------16-|
A|-----------------------------------------------------------|
E|-----------------------------------------------------------|

e|---------17-------17------17fb-17fb::::-------------------------|
B|-15-17fb----17fb-----17fb-17---17--17-:17--15h18p15----15/12/15-|
G|----------------------------------------------------16----------|
D|----------------------------------------------------------------|
A|----------------------------------------------------------------|
E|----------------------------------------------------------------|

e|------------------------17---------------------------------------------17-
B|------20fb------20---------20--17----------------------------20fb-20fb~~--
G|-19fb-19---19fb----19fb-----------19fbr19p17----19-19hb-------------------
D|---------------------------------------------19---------19p17-------------
A|--------------------------------------------------------------------------
E|--------------------------------------------------------------------------
                                                                  End Guitar Solo 
e|-17-20p17------17------------20fb--20hb--17-------------------------------
B|----------20fb----20fb-20p17----------------20p17-19fb-19---------17~~---
G|----------------------------------------------------------19-16-19---19-19
D|--------------------------------------------------------------------------
A|--------------------------------------------------------------------------
E|--------------------------------------------------------------------------

Rhy. Fig 7         End Rhy. Fig. 7
e|------------------------------2-|
B|---------------------5--------3-|
G|-2------2------------5--------2-|
D|-2------2------------5--------0-|
A|-0------0------------3-----0----|
E|---3hb-------------3------------|

Outro Guitar Solo
e|------::::::17::::::---------------------------:::17::::------------------
B|------:--------19--:---------------------------:-----19:------------------
G|-19fb:-------------:19~~~~~-17~~~-19~~~-19-19fb:-------:19~-17~-19~-19fb-|
D|--------------------------------------------------------------------------
A|--------------------------------------------------------------------------
E|--------------------------------------------------------------------------

e|------------------------------------------------------|
B|-20\--------------------------------------------------|
G|------------------------------------------------------|
D|----------------------------------------(10)h12~~~-10-|
A|----------------12-10-12~~~~---12~~-12\---------------|
E|------17-17\15\---------------------------------------|

e|---------------------------------------------------------------------|
B|-10fbr---10fb-10\-----------------------------10fbr---10fb-10\--20fb-|
G|-12---12-12---12\-17hb-----------17-----------12---12-12---12\-------|
D|-----------------------19-17h19-----19-19-19\------------------------|
A|---------------------------------------------------------------------|
E|---------------------------------------------------------------------|

e|----17---------17------::::::::-------------------------17---------------------------|
B|-20----17-20fb----17-20:--20--:20\--20fb-20fb-20fb-20fb----20-17------------------20-|
G|-----------------------------------------------------------------19fbr19p17-19fb-----|
D|-------------------------------------------------------------------------------------|
A|-------------------------------------------------------------------------------------|
E|-------------------------------------------------------------------------------------|

e|-------::::------------------------------------------------------------|
B|-------:--:20-20fb-20fb-20------------------19-17--XXXXXXXXX----2----2-|
G|-19fb~~:19:---19---19---19fbr19-19~~~-17----19-17--XXXXXXXXX7p5-2----2-|
D|-----------------------------------------19---------------------2----2-|
A|----------------------------------------------------------------0----0-|
E|------------------------------------------------------------------3hb--|

Order of "Hell's Bells"
Riff 1 (x6)
Rhy. Fig. 1 (x1)
Rhy. Fig. 2 w/Verse (x4)
Rhy. Fig. 3 (1) w/Pre Chorus (x2)
Rhy. Fig. 3 (2) w/Pre Chorus (x1)
Riff 1 w/Chorus (x2)
Rhy. Fig. 4 (x1)
Rhy. Fig. 2 w/Verse (x4)
Rhy. Fig. 3 (1) w/Pre Chorus (x2)
Rhy. Fig. 3 (2) w/Pre Chorus (x1)
Riff 1 w/Chorus (x2)
Riff 1 w/ Rhy. Fig. 6 (x1)
Guitar Solo (x1) w/Rhy. Fig. 7 (x5), and Rhy. Fig. 3 (1) (x2), and Rhy. Fig 3 (2) (x2)
Riff 1 w/Chorus (x2)
Outro Guitar Solo (x1) w/Riff 1 (x3), and Rhy. Fig. 7 (x3)


''''''''''''''''''''''''''''''''''''''''''''''''''''


Shake Your Foundations


 Riff A
 Malcolm play through intro and verse
 -----------------------------------------------3-----------------|
 --8---8---10-----10----8---10-----10---6---5---0---6---5---8-8---|
 --7---7---7------7-----7---7------7----7---5---0---7---5---7-7---|
 ----0---0----0-0----0-0--0----0-0----0---0---0---0---0---0-----0-|
 -----------------------------------------------------------------|
 -----------------------------------------------------------------|


 Riff B
 Angus
  U.B. U.B.  U.B.  U.B.
 -------------------------------------------------|
 --13---13\---13---13\--0-1-0-3-0--0-1-0-3-0------|
 --14---14\---14---14\--0-0-0-0-0--0-0-0-0-0------|
 -----------------------0-2-0-0-0--0-2-0-0-0------| x2
 -------------------------------------------------|
 -------------------------------------------------|

 Angus joins in on Riff A for verse

 "all right.....all right"
 -------3-------------3-----------|
 -------3-------------3-----------|
 -------0-------------0-----------|
 -------0-------------0-----------|
 ---------------------------------|
 -------3-------------3-----------|
 Chorus
 Riff C
 "i-e-i-e-o  shake your foundations"
 -2-------3----2----------3--2--3----------------------|
 -3-------3----3----------3--3--3----------------------|
 -2-------0----2----------0--2--0----------------------|
 -0-------0----0----------0--0--0----------------------|
 ------------------------------------------------------|
 ---------3---------------3-----3----------------------|

 "i-e-i-e-o shake it to the floor"
  Riff C

 "i-e-i-e-o shake your foundations"
  Riff C

 "i-e-i-e-o shake it"
 -2-------3-------------3--------------------|
 -3-------3---6----5----3--------------------|
 -2-------0---7----5----0--------------------|
 -0-------0------0---0--0--------------------|
 --------------------------------------------|
 ---------3-------------3--------------------|

 Riff B x2

 Play verse

 Play chorus

 Solo
   U.B........................
 -------------------------------|
 ---10----8---7---10----8---7---|
 ---12---10---9---12---10---9---|
 -------------------------------|
 -------------------------------|
 -------------------------------|

 --------------------------------------------------------------|
 --------------------------------------------------------------|
 -5p0-5p0-5p0-5p0-7p0-7p0-7p0-7p0-5p0-5p0-5p0-5p0-7p0-7p0-7p0--|
 --------------------------------------------------------------|
 --------------------------------------------------------------|
 --------------------------------------------------------------|
  U.B...................
 -----------17--15---14-------15----------15---------------------15(17)----|
 --10--8-7--20--18---17----15(17)--13~-15(17)--13--15~--p13----------------|
 --12-10-9---------------------------------------------------14------------|
 --------------------------------------------------------------------------|
 --------------------------------------------------------------------------|
 --------------------------------------------------------------------------|

 Play chorus

 Outro solo
 -----------------------13------------------------------|
 --13(14)-13(14)-13(15)----13(15)~----------------------|
 -------------------------------------------------------|
 -------------------------------------------------------|
 -------------------------------------------------------|
 -------------------------------------------------------|

 --13(15)-13(15)-13(15)-17(19)-------------------------|
 ------------------------------------------------------|
 ------------------------------------------------------|
 ------------------------------------------------------|
 ------------------------------------------------------|
 ------------------------------------------------------|

 --10--13p10-13p10-13\---------------|
 ------------------------------------|
 ------------------------------------|
 ------------------------------------|
 ------------------------------------|
 ------------------------------------|

 --15(17)-13----13 15-15-13-15--13(15)-15-13(15)--18(20-|
 ------------15-----------------------------------------|
 -------------------------------------------------------|
 -------------------------------------------------------|
 -------------------------------------------------------|
 -------------------------------------------------------|

 -------------------13--------13-----------------------------|
 --15-15(17)-13(15)----13(15)----13(15)-13(15)-13(15)-13(15)-|
 ------------------------------------------------------------|
 ------------------------------------------------------------|
 ------------------------------------------------------------|
 ------------------------------------------------------------|

 --20(22)----------------------|
 ---------18(20)~~~~-----------|
 ------------------------------|
 ------------------------------|
 ------------------------------|
 ------------------------------|

+++++++++++++++++++++++++++++++++++++++++++

Chase The Ace
Tuning (low to high): EADGBE

Intro:

Guitar I (Angus)

     C5 D5 A5                      C5 D5 A5

E|----------------------------------------------------------------|
B|------3-----------------------------3---------------------------|
G|---5--2--2-----------------------5--2--2------------------------|
D|---5--0--2--2-2-2-2-2-2-2-2-2-2--5--0--2--2-2-2-2-2-2-2-2-2-2---|
A|---3-----0--0-0-0-0-0-0-0-0-0-0--3-----0--0-0-0-0-0-0-0-0-0-0---|
E|----------------------------------------------------------------|

              ^ slight palm mute            ^ slight palm mute

Guitar II (Malcolm)

     C5 D5 A5                      C5 D5 A5

E|----------------------------------------------------------------|
B|------3-----------------------------3---------------------------|
G|---5--2--2-----------------------5--2--2----------2-----2-------|
D|---5--0--2-----------------------5--0--2----------2-----2-------|
A|---3-----0-----------------------3-----0----------0-----0-------|
E|----------------------------------------------------------------|

Guitars I and II

     C5 D5 A5 G5 D     C     G5    A     C5 D5 A5

E|------------3--2-----------3---------------------|
B|------3-----3--3-----5-----3-----2--------3------|
G|---5--2--2--0--2-----5-----0-----2-----5--2--2---|
D|---5--0--2--0--0-----5-----0-----2-----5--0--2---|
A|---3-----0--x--------3-----x-----0-----3-----0---|
E|------------3--------------3---------------------|

Rhythm:

Guitar I

     A5                   C5 D5 A5

E|----------------------------------|
B|---------------------------3------|
G|------------------------5--2--2--o| play twice
D|---2-2-2-2-2-2-2-2-2-2--5--0--2--o|
A|---0-0-0-0-0-0-0-0-0-0--3-----0---|
E|----------------------------------|

     ^ slight palm mute

Guitar II

       A5                 C5 D5 A5

E|----------------------------------|
B|---------------------------3------|
G|-----2-----2-----2------5--2--2--o| play twice
D|-----2-----2-----2------5--0--2--o|
A|-----0-----0-----0------3-----0---|
E|----------------------------------|

Guitars I and II

     G5 D     C     G5    A     C5 D5

E|---3--2-----------3------------------|
B|---3--3-----5-----3-----2--------3---|
G|---0--2-----5-----0-----2-----5--2---|
D|---0--0-----5-----0-----2-----5--0---|
A|---x--------3-----x-----0-----3------|
E|---3--------------3------------------|

---

That's the rhythm part of the song.  The song is instrumental, meaning there are no lyrics.
+++++++++++++++++++++++++++++++++++++++++++++++++++


FOR THOSE ABOUT TO ROCK (WE SALUTE YOU)

For Those About To Rock by AC/DC (Young/Young/Johnson)
-----------------------

b=bend r=release hb=hold bend ~=Hand Vibrato

  Patt.1  (Angus)  6 Times
     B (D major shape)                                 Bm (Dm shape)     B5
     >        >        >         >        >     >
e-11-11-11-11-11-11-11-11-|11-11-11-11-11-11-11-11-|10-10-10-10-10-10-14-14-
b-12-12-12-12-12-12-12-12-|12-12-12-12-12-12-12-12-|12-12-12-12-12-12-12-12-
g-11-11-11-11-11-11-11-11-|11-11-11-11-11-11-11-11-|11-11-11-11-11-11-11-11-
D|+-------------------------|----------------------|------------------------
A|--------------------------|----------------------|------------------------
E|--------------------------|----------------------|------------------------
     Bsus4                  endpatt.
e|14-12-12-12-12-12-12-12--||
b|12-12-12-12-12-12-12-12--||
g|11-11-11-11-11-11-11-11-*||
D|------------------------*||
A|-------------------------||
E|-------------------------||

  (Malcolm) with Patt.1
   B5                        G5          D/F#
e|------------------|------------------|------------------|-----------------
b|------------------|------------------|------------------|-----------------
g--4----------------|--------------0---|-2--------1-------|-----------------
D|-4----------------|-----------0------|-0--------2-------|-----------------
A|-2----------------|------------------|----------2-------|-----------------
E|------------------|--------3---------|-2-----x--0-------|-----------------

   B5                                    G5    D/F#   E
e|------------------|------------------|-3----------------|-----------------
b|------------------|------------------|-3-----3----------|-----------------
g|-4----------------|------------------|-0-----2------1---|-----------------
D|-4----------------|------------------|-0-----0------2---|-----------------
A|-2----------------|------------------|--------------2---|-----------------
E|------------------|------------------|-3-----2------0---|-----------------
   B5    B5/A                G5          D/F#     E5
e|------------------|------------------|------------------|-----------------
b|------------------|------------------|------------------|-----------------
g|-4-----4----------|--------------0---|------------------|-----------------
D|-4-----4----------|-----------0------|-------0--2-------|-----------------
A|-2-----0----------|------------------|----0-----2-------|-----------------
E|------------------|--------3---------|-2--------0-------|-----------------

e|------------------|------------------|-3----------------|-----------------
b|------------------|------------------|-3-----3----------|-----------------
g|-4-----4----------|------------------|-0-----2-------1--|-----------------
D|-4-----4----------|------------------|-0-----0-------2--|-----------------
A|-2-----0----------|------------------|---------------2--|-----------------
E|------------------|------------------|-3-----2----------|-----------------
     Bsus4 (Angus)
                              Oh!
e|--12-12-12-12-12-12-12-12-|--12-12-12-12-12-12-12-12-|
b|--12-12-12-12-12-12-12-12-|--12-12-12-12-12-12-12-12-|
g|--11-11-11-11-11-11-11-11-|--11-11-11-11-11-11-11-11-|
D|--------------------------|--------------------------|
A|--------------------------|--------------------------|
E|--------------------------|--------------------------|
Pattern 2
Yeah,Yeah,                     E
   B5   B5/A        G5     D/F#
e|-------------|----3----|---------|--------0----------|
b|-------------|----3----|--3------|--------0--0-------|
g|-4----4------|----0----|--2--1---|--0-0-0-0----------|
D|-4----4------|----0----|--0--2---|--2-0-2----2-------|
A|-2----0------|---------|-----2---|-------------------|
E|-------------|----3----|--2--0---|-------------------|
Pattern 3
Yeah, oh.                      E
   B5   B5/A        G5     D/F#                         end it w/pattern 2 (2x)
e|-------------|----3----|---------|--------7-7-7------|
b|-------------|----3----|--3------|--------7-7-7------|
g|-4----4------|----0----|--2--1---|--------------0----|
D|-4----4------|----0----|--0--2---|--2/-9-------------|
A|-2----0------|---------|-----2---|-----------------0-|
E|-------------|----3----|--2--0---|-------------------|
Pattern 4
Stand up...
  B       D/A         A        E             G5    E
e|-----------|-------------------|--------|--3---------|
b|4/------3-3|3-3-----2-----2----|--------|--3---------|
g|4/------2-2|2-2-----2-----2--1-|--------|--0-----1---|
D|4/------4-4|4-4-----2-----2--2-|--------|--0-----2---|  3 x
A|2/------0-0|0-0-----0-----0--2-|--------|--------2---|
E|-----------|-----------------0-|--------|--3-----0---|

Chorus w/patt. 3

     b   hold bend.....
e|--------------------------------------------------------|-----------------
b|-10-(12)-------------(12)--(12)--(12)--(12)--(12)--(12)-|(12)(12)(12)(12)-
g|--------------------------------------------------------|-----------------
D|--------------------------------------------------------|-----------------
A|--------------------------------------------------------|-----------------
E|--------------------------------------------------------|-----------------
                                      A     D/A           G                D
                                      b     b  ~~~~~~~
e|----------------------------------|------------------5--------------------
b|(12)-(12)-(12)-(12)-(12)-(12)-\---|8-10--8-10----------8--5---5-----------
g|-------------------------------\--|-------------------------8---8--7--5---
D|----------------------------------|-------------------------------------7\
A|----------------------------------|--------------------------------------\
E|----------------------------------|---------------------------------------
  A   D/A    A          G        D          A       D/A      A              G
             ~~~~~~~~~ b  r      ~~~~~~~~~ b           b
e|-------------------------------------------5-----------5------------5--
b|-----------------------------------------5---8-5-----5---8--5-----5---8-5|
g|--------------------7-9--7--5--7-----7-9---------7-9----------7-9------
D|5----x----7\------------------------------------------------------------
A|------------------------------------------------------------------------
E|------------------------------------------------------------------------
                              D           A      D/A       A            G
   b           b               b  r ~~~~~~        b r    ~~~    b  r
e|------5-----------5-------5-------------10----8--9--8---------------------
b|----5---8-5-----5---8-5-----7-8---7-------------------10---12-13-12-10-12|
g|7-9---------7-9---------7---7-8---7---------------------------------------
D|--------------------------------------------------------------------------
A|--------------------------------------------------------------------------
E|--------------------------------------------------------------------------
             D           A        D/A      A                G               D
  b     b             b                             b  b         b  r
e|---------------------------12---12---12----\------------------------------
b|-13-12-13------12-12-14---------12---14----\---/13-15-17-13-13-15-13-1013|
g|--------------------------------------------------------------------------
D|--------------------------------------------------------------------------
A|--------------------------------------------------------------------------
E|--------------------------------------------------------------------------
               A       D/A         A               G           D           A
  b      b      b      b      b         ~~~~~~~~~~~        r     ~~~~
e|--------------------------------------------------------------------------
b|-15--13-15--13-15--13-15--13-15--13-15-----------10-12-13-12-10--------10|
g|-------------------------------------------------------------------/11----
D|--------------------------------------------------------------------------
A|--------------------------------------------------------------------------
E|--------------------------------------------------------------------------
       D/A     A        G        D            A   D/A    A     G     D
       b            b       ~~~~~       ~~~~                   b     b     b
e|-------------------12-----------------------------------------------------
b|10-------10--\--12-13-8--8------------------------------20-22-20-22-20-22|
g|---12-14-----------------------9-7-5-7------5-----------------------------
D|----------------------------------------------7--7--7--\------------------
A|--------------------------------------------------------------------------
E|--------------------------------------------------------------------------
         G             D     A        B5
Fire!    We    sa     lute   you
          ub     ub     ub    ub
e|---------------------------------------|
b|---------8------8------8-----5---------|
g|------10-12--10-12--10-12--7-9------4--|
D|------------------------------------4--|
A|------------------------------------2--|
E|---------------------------------------|

         G              D      A      B5
         We ...
          ub      ub     ub     ub
e|---------------------------------------|
b|---------8-------8------7------5-------|
g|------10-12---10-12---9-11---7-9----4--|
D|------------------------------------4--|
A|------------------------------------2--|
E|---------------------------------------|
         G              D      A      B5             G5
         We....                       Ow!  Fire!  We
          ub       ub     ub     ub                 ub     ub     ub     ub
e|---------10-------10-----14-----12-----------------10-----10-----10----10-
b|------13-15----13-15--17-19--15-17--------------13-15--13-15--13-15-13-15-
g|------------------------------------4------------------------------------
D|------------------------------------4-------------------------------------
A|------------------------------------2-------------------------------------
E|--------------------------------------------------------------------------
 
  D      A                           B5
    ub     ub     ub     ub     ub    ub  hb   ub                 ub
e|---10-----9------9------9------9------9-\-----7----7---7---7------7--7--7-
b|13-15--12-14--12-14--12-14--12-14--12-14\--10-12--12--12--12--10-12-12-12-
g|--------------------------------------------------------------------------
D|--------------------------------------------------------------------------
A|--------------------------------------------------------------------------
E|--------------------------------------------------------------------------


           G5            D     A           B5                     G5
    ub       ub     ub    ub    ub   ub    ~~~~~~~  ~~~~~~ ~~~~~~   ub     ub
e|----7------------------------------------------------------------7------7|
b|10-12-\------8------8-----7----5----5\-----------------------10-12--10-12|
g|---------10-12--10-12--9-11--7-9--7-9\---4------\-4---4--4-------------
D|-------------------------------------------------------------------------
A|-------------------------------------------------------------------------
E|-------------------------------------------------------------------------
  D       A   (OH!) F.. t... a...  t. r....
    ub     ub
e|---10-----12-\-|       B5
b|13-15--15-17-\-|
g|---------------|
D|---------------|
A|---------------|
E|---------------|
                    G5 D   A                 B5                          G5
    b        b ~~~~~~   b          b              b  hb       b  ~~~~~~
e||-----------------|--|------------------|------|---------------------|----
b||-----------------|--|10-12---12-10-12\-|------|---------------------|----
g||*-9-11--11-9-11--|--|------------------|------|-9-11---11--9--11 ---|----
D||*----------------|--|------------------|------|---------------------|----
A||-----------------|--|------------------|------|---------------------|----
E||-----------------|--|------------------|------|---------------------|----
  D   1.-A
     b   b            b ~~~~~~~
e|----|------------------------||
b|-10-|-10-12-12-12-10-12\-----||
g|----|-----------------------*||
D|----|-----------------------*||
A|----|------------------------||
E|----|------------------------||
2.-   A                               B5
 b     b      b     b     b     b     b
e|-----------------------------------------------7--------------------------
b|12-10-12--10-12-10-12-10-12-10-12-10-12----------10-7---7-----------------
g|------------------------------------------------------9---9--7------------
D|---------------------------------------------------------------9-----\----
A|--------------------------------------------------------------------------
E|--------------------------------------------------------------------------
   G5               D                 A

e|----------7---------------------------------------------------------------
b|------------10-7-10-7-6-7-6-----------------------------------------------
g|9-11------------------------9-7-7-----------------------------------------
D|----------------------------------9-----9---7\----------------------------
A|------------------------------------7-9---9---\--------------------------
E|--------------------------------------------------------------------------
B5                                                            G5
               ~~~~~~              ~~~~~~~                    b     b
e|--------------------------------------------------------------------------
b|--10-12-12-12------10-12-12-12-12-------10-12-12-10-12----15-17-15-17-----
g|--------------------------------------------------------------------------
D|--------------------------------------------------------------------------
A|--------------------------------------------------------------------------
E|--------------------------------------------------------------------------
  D          A                         B5
              b     b       r          b        b        b        b        b
e|12--------------------------------------17-------17-------17-------17-----
b|-12-15--17-19-17-19--19----17-15-17-19----17-19----17-19----17-19---1719|
g|--------------------------------------------------------------------------
D|--------------------------------------------------------------------------
A|--------------------------------------------------------------------------
E|--------------------------------------------------------------------------
                                                    G5                D
       b          b        b          r                               b
e|17---------17-------17--------------------------------------------15-17---
b|---17-19------17-19----17-19-17-19----19-17-15----17-15--------12---------
g|-----------------------------------------------16-------16---14-----------
D|--------------------------------------------------------------------------
A|--------------------------------------------------------------------------
E|--------------------------------------------------------------------------
    A                        B5
                             b    hb                         r
e|-14-12-------12-14-12------------17--------------------------------------|
b|-------15-15----------15-17-19-------19--19--19-19-19-19-19-17-17-15------
g|--------------------------------------------------------------------------
D|--------------------------------------------------------------------------
A|--------------------------------------------------------------------------
E|--------------------------------------------------------------------------
   G5             D       A                 G5            D      A
    b       b                   b            b       b      b           b
e|17-19---17-19---------------17-19--17-14-17-19---17-19--------------22-24-
b|----------------17-19---17------------------------------17-19--17---------
g|--------------------------------------------------------------------------
D|--------------------------------------------------------------------------
A|--------------------------------------------------------------------------
E|--------------------------------------------------------------------------
           G5             D     A
           b      b       ub     ub     ub
e|22--19--------------------------------------|
b|-------22-24--22-24------15-----14-----10---|
g|----------------------17-19--16-18--12-14---|
D|--------------------------------------------|
A|--------------------------------------------|
E|--------------------------------------------|
   B5  A5  G5 D/F# E       Fire!    B5
e|--------------------------------------------|
b|---------3---3------------------------------|
g|-4---2---0---2---1----------------4/--------|
D|-4---2---0---0---2----------------4/--------|
A|-2---0-----------2----------------2/--------|
E|---------3---2---0--------------------------|

Lyrics:
We roll tonight
To the guitar bite

Stand up and be counted
For what you are about to recieve
We are the dealers
We'll give you everything you need
Hail hail to the good times
'Cause rock has got to ride away
We ain't no legend, ain't no cause
We're just living for today

For those about to rock, we salute you

We rock at dawn on the front line
Like a bolt right out of the blue
The sky's alight with the guitar bite
Heads will roll and rock tonight

For those about to rock, we salute you

We're just a battery for hire with a guitar fire
Ready and aimed at you
Pick up your balls and load up your cannon
For a twenty-one gun salute

For those about to rock - fire
We salute you

Shoot, shoot

We salute you










































FOR THOSE ABOUT TO AC/DC

I Salute you!!!!!!!!


Voytazz
9 comments total. Showing first comments.
+1 reply
ibanez87 wrote on August 25 2005, 12:00 am

sucks. sorry, but it does

-1 reply
Voytazz wrote on August 27 2005, 12:00 am

YOU SUCKS

+1 reply
Voytazz wrote on August 27 2005, 12:00 am

sorry

I want to post or [tab]
guest
You may want to rate the tab now too:
select rating
Please do not post tabs as comments. Select "correction" instead!