Oops, an error
Loading. Please wait.

Whole Lotta Rosie Live Tab

4,254 views 9 this week
1 commentread comment
1 2 3 4 5
please rate
add to favorites launch autoscroll
font size
0
reset
Autoscroll
+/-
esc
set tempo
stop
Contributor
Tabbers playing skills
advanced ++
WARNING: You are trying to view
                                    content from Ultimate-Guitar.com
                                    in an unauthorized application,
                                    which is prohibited.

                                    Please use an official Ultimate
                                    Guitar Tabs application for iPhone,
                                    iPad or Android to access legitimate
                                    chords, guitar, bass, and drum tabs
                                    from Ultimate-Guitar.com database.

                                    Type "ultimate guitar tabs" in Apple
                                    App Store's or Android Market's
                                    search to find the application.
-------------------------------------------------------------------------------
                             Whole Lotta Rosie - AC/DC
-------------------------------------------------------------------------------

Tabbed by: Isaias Garcia (TexasFury)

Album: If You Want Blood, You've Got It (1978)

Tuning: Standard


Guitar - Angus
   Intro
     E  E  E   E  E   E  E  E     W                   E  E  E   E  E   E  E  E   
E||----------------------------|-------------------|----------------------------|
B||----------------------------|-------------------|----------------------------|
G||---------------7------5-----|-------------------|---------------7------5-----|
D||-----2---------7------5--2--|-------------------|-----2---------7------5--2--|
A||-----0--3p--0--5p--0--3--0--|-------------------|-----0--3p--0--5p--0--3--0--|
E||----------------------------|-------------------|----------------------------|


  W                   E  E  E   E  E   E  E  E           E  E  E   E  E   E  E  E         
-------------------|----------------------------|-----|----------------------------|-----|
-------------------|----------------------------|-----|----------------------------|-----|
-------------------|---------------7------5-----|-----|---------------7------5-----|-----|
-------------------|-----2---------7------5--2--|-----|-----2---------7------5--2--|-----|
-------------------|-----0--3p--0--5p--0--3--0--|-----|-----0--3p--0--5p--0--3--0--|-----|
-------------------|----------------------------|-----|----------------------------|-----|


  E  E  E   E  E   E  E  E           E  E  E   E  E   E  E  E     W                 
----------------------------|-----|----------------------------|-------------------|
----------------------------|-----|----------------------------|-------------------|
---------------7------5-----|-----|---------------7------5-----|-------------------|
-----2---------7------5--2--|-----|-----2---------7------5--2--|-------------------|
-----0--3p--0--5p--0--3--0--|-----|-----0--3p--0--5p--0--3--0--|-------------------|
----------------------------|-----|----------------------------|-------------------|


  E  E  E   E  E   E  E  E     W                   E  E  E   E  E   E  E  E     W                 
----------------------------|-------------------|----------------------------|-------------------|
----------------------------|-------------------|----------------------------|-------------------|
---------------7------5-----|-------------------|---------------7------5-----|-------------------|
-----2---------7------5--2--|-------------------|-----2---------7------5--2--|-------------------|
-----0--3p--0--5p--0--3--0--|-------------------|-----0--3p--0--5p--0--3--0--|-------------------|
----------------------------|-------------------|----------------------------|-------------------|


  E  E  E   E  E   E  E  E                         E  E  E   E  E   E  E  E                       
----------------------------|-------------------|----------------------------|-------------------|
----------------------------|-------------------|----------------------------|-------------------|
---------------7------5-----|-------------------|---------------7------5-----|-------------------|
-----2---------7------5--2--|-------------------|-----2---------7------5--2--|-------------------|
-----0--3p--0--5p--0--3--0--|-------------------|-----0--3p--0--5p--0--3--0--|-------------------|
----------------------------|-------------------|----------------------------|-------------------|


  E  E  E   E  E   E  E  E                                                               
----------------------------|-------------------|-------------------|-------------------|
----------------------------|-------------------|-------------------|-------------------|
---------------7------5-----|-------------------|-------------------|-------------------|
-----2---------7------5--2--|-------------------|-------------------|-------------------|
-----0--3p--0--5p--0--3--0--|-------------------|-------------------|-------------------|
----------------------------|-------------------|-------------------|-------------------|

                             Verse 1
  E  E  E   E  E   E  E  E     E  E  Q    Q    E  E     E  E  E  E  E  E  E  E   
----------------------------|------------------------|--------------------------|
----------------------------|------------------------|--------------------------|
---------------7------5-----|-----2-------2-------2--|--L-----------------------|
-----2---------7------5--2--|-----2--2----2-------2--|--L--------------------2--|
-----0--3p--0--5p--0--3--0--|--L-----0---------0-----|-----0--3--0--5--0--3--0--|
----------------------------|------------------------|--------------------------|


  E  E  Q    Q    E  E     E  E  E  E  E  E  E  E     E  E  Q    Q    E  E   
------------------------|--------------------------|------------------------|
------------------------|--------------------------|------------------------|
-----2-------2-------2--|--L-----------------------|-----2-------2-------2--|
-----2--2----2-------2--|--L-----------------------|-----2--2----2-------2--|
--L-----0---------0-----|-----0--3--0--5--0--3--0--|--L-----0---------0-----|
------------------------|--------------------------|------------------------|


  E  E  E  E  E  E  E  E     E  E  Q    Q    E  E     E  E  E  E  E  E  E  E   
--------------------------|------------------------|--------------------------|
--------------------------|------------------------|--------------------------|
--L-----------------------|-----2-------2----0--2--|--L-----------------------|
--L-----------------------|-----2--2----2----0--2--|--L-----------------------|
-----0--3--0--5--0--3--0--|--L-----0---------0-----|-----0--3--0--5--0--3--0--|
--------------------------|------------------------|--------------------------|


  E  E  Q    Q    E  E     E  E  E  E  E  E  E  E     E  E  Q    Q    E  E   
------------------------|--------------------------|------------------------|
------------------------|--------------------------|------------------------|
-----2-------2----0--2--|--L-----------------------|-----2-------2----0--2--|
-----2--2----2----0--2--|--L-----------------------|-----2--2----2----0--2--|
--L-----0---------0-----|-----0--3--0--5--0--3--0--|--L-----0---------0-----|
------------------------|--------------------------|------------------------|


  E  E  E  E  E  E  E  E     E  E  Q    Q    E  E     E  E  E  E  E  E  E  E   
--------------------------|------------------------|--------------------------|
--------------------------|------------------------|--------------------------|
--L-----------------------|-----2-------2----0--2--|--L-----------------------|
--L-----------------------|-----2--2----2----0--2--|--L-----------------------|
-----0--3--0--5--0--3--0--|--L-----0---------0-----|-----0--3--0--5--0--3--0--|
--------------------------|------------------------|--------------------------|


  E  E  Q    Q    E  E     E  E  E  E  E  E  E  E     E  E  Q    Q    E  E   
------------------------|--------------------------|------------------------|
------------------------|--------------------------|------------------------|
-----2-------2----0--2--|--L-----------------------|-----2-------2----0--2--|
-----2--2----2----0--2--|--L-----------------------|-----2--2----2----0--2--|
--L-----0---------0-----|-----0--3--0--5--0--3--0--|--L-----0---------0-----|
------------------------|--------------------------|------------------------|


  E  E  E  E  E  E  E  E     E  E  Q    Q    E  E     E  E  E  E  E  E  E  E   
--------------------------|------------------------|--------------------------|
--------------------------|------------------------|--------------------------|
--L-----------------------|-----2-------2----0--2--|--L-----------------------|
--L-----------------------|-----2--2----2----0--2--|--L-----------------------|
-----0--3--0--5--0--3--0--|--L-----0---------0-----|-----0--3--0--5--0--3--0--|
--------------------------|------------------------|--------------------------|


  E  E  Q    Q    E  E     E  E  E  E  E  E  E  E     E  E  Q    Q    E  E   
------------------------|--------------------------|------------------------|
------------------------|--------------------------|------------------------|
-----2-------2----0--2--|--L-----------------------|-----2-------2----0--2--|
-----2--2----2----0--2--|--L-----------------------|-----2--2----2----0--2--|
--L-----0---------0-----|-----0--3--0--5--0--3--0--|--L-----0---------0-----|
------------------------|--------------------------|------------------------|


  E  E  E  E  E  E  E  E     Q    E  E  Q    Q       H.           E  E     Q    E  E  Q    Q     
--------------------------|-----------------------|---------------------|-----------------------|
--------------------------|--1----L----------1----|--L------------------|--3----L--3--L----3----|
--L-----------------------|-----------------------|---------------------|--2----L--2--L----2----|
--L-----------------------|--3----L--3--L----3----|--L------------3-----|--0----L--0--L----0----|
-----0--3--0--5--0--3--0--|--3----L--3--L----3----|--L------------3-----|-----------------------|
--------------------------|--1----L--1--L----1----|--L---------------0--|-----------------------|


  H.           E  E     H.           E  E     W                   H.           E  E   
---------------------|------------------3--|--L----------------|------------------3--|
--L------------L-----|------------------3--|--L----------------|------------------3--|
--L------------L--0--|--2------------x--0--|--L----------------|--2------------x--0--|
--L------------L--0--|--2------------x--0--|--L----------------|--2------------x--0--|
---------------------|--0------------x-----|-------------------|--0------------x-----|
---------------------|------------------3--|--L----------------|------------------3--|


  W                   H.           E  E     W                   Q.     E  Q    Q     
--L----------------|------------------3--|--L----------------|----------------------|
--L----------------|------------------3--|--L----------------|----------------------|
--L----------------|--2------------x--0--|--L----------------|----------------------|
--L----------------|--2------------x--0--|--L----------------|----------------------|
-------------------|--0------------x-----|-------------------|----------------------|
--L----------------|------------------3--|--L----------------|--3------2--L----3----|

                        Verse 2
  E  E  Q    Q    Q       E  E  E  E  Q    Q       E  E  E  E  E  E  E  E   
-----------------------|------------------------|--------------------------|
-----------------------|------------------------|--------------------------|
-----------------------|--2--2--2--2-------2----|--L-----------------------|
-----------------------|--2--2--2--2--2----2----|--L--------------------2--|
-----------------------|--------------0----0----|--L--0--3--0--5--0--3--0--|
--L--2--L----3----4----|------------------------|--------------------------|


  E  E  E  E  Q    E  E     E  E  E  E  E  E  E  E     E  E  E  E  E  E  E  E   
-------------------------|--------------------------|--------------------------|
-------------------------|--------------------------|--------------------------|
-----2--------2-------2--|--L-----------------------|-----2--------2--------2--|
--L--2--2--2--2-------2--|--L--------------------2--|--L--2--2--2--2--2--2--2--|
--L-----0--0-------0-----|-----0--3--0--5--0--3--0--|--L-----0--0-----0--0-----|
-------------------------|--------------------------|--------------------------|


  E  E  E  E  E  E  E  E     E  E  E  E  E  E  E  E     E  E  E  E  E  E  E  E   
--------------------------|--------------------------|--------------------------|
--------------------------|--------------------------|--------------------------|
--L-----------------------|-----2--------2--------2--|--L-----------------------|
--L--------------------2--|--L--2--2--2--2--2--2--2--|--L--------------------2--|
-----0--3--0--5--0--3--0--|--L-----0--0-----0--0-----|-----0--3--0--5--0--3--0--|
--------------------------|--------------------------|--------------------------|


  E  E  E  E  E  E  E  E     E  E  E  E  E  E  E   E     E  E  E  E  E  E  E  E   
--------------------------|---------------------------|--------------------------|
--------------------------|---------------------------|--------------------------|
-----2--------2--------2--|--L------------------------|-----2--2-----2-----------|
--L--2--2--2--2--2--0--2--|--L---------------------2--|--L--2--2--2--2-----2--2--|
--L-----0--0-----0--0-----|-----0--3--0--5--0--3b--0--|--L--------0-----0--0--0--|
--------------------------|---------------------------|--------------------------|


  E  E  E  E  E  E  E   E     E  E  E  E  E  E  E  E     E  E  E  E  E  E  E   E   
---------------------------|--------------------------|---------------------------|
---------------------------|--------------------------|---------------------------|
---------------------------|-----2--2-----2-----0--2--|--L------------------------|
--L---------------------2--|--L--2--2--2--2-----0--2--|--L---------------------2--|
--L--0--3--0--5--0--3b--0--|--L--------0-----0-----0--|--L--0--3--0--5--0--3b--0--|
---------------------------|--------------------------|---------------------------|


  E  E  E  E  E  E  E  E     E  E  E  E  E  E  E   E     E  E  E  E  E  E  E  E   
--------------------------|---------------------------|--------------------------|
--------------------------|---------------------------|--------------------------|
-----2--2-----2--2-----2--|--L------------------------|-----2--------2--------2--|
--L--2--2--2--2--2-----2--|--L---------------------2--|--L--2--2--2--2-----0--2--|
--L--------0--------0--0--|--L--0--3--0--5--0--3b--0--|--L-----0--0-----0--0--0--|
--------------------------|---------------------------|--------------------------|


  E  E  E  E  E  E  E   E     E  E  E  E  E  E  E  E     E  E  E  E  Q    E  E   
---------------------------|--------------------------|-------------------------|
---------------------------|--------------------------|-------------------------|
--L------------------------|-----2--------2-----------|-----2-------------------|
--L---------------------2--|--L--2--2--2--2-----0--2--|--L--2--2--2--2----2-----|
--L--0--3--0--5--0--3b--0--|--L-----0--0-----0--0--0--|--L-----0--0--0----0-----|
---------------------------|--------------------------|----------------------0--|


  Q    E  E  Q    Q       H.           E  E     Q    E  E  Q    Q       H.           E  E   
------------------1----|--L------------------|-----------------------|---------------------|
--1----L----------1----|--L------------------|--3----L--3--L----3----|--L------------L-----|
-----------------------|---------------------|--2----L--2--L----2----|--L------------L--0--|
--3----L--3--L----3----|--L------------3-----|--0----L--0--L----0----|--L------------L--0--|
--3----L--3--L----3----|--L------------3-----|-----------------------|---------------------|
--1----L--1--L----1----|--L---------------0--|-----------------------|---------------------|


  H.           E  E     W                   H.           E  E     W                 
------------------3--|--L----------------|------------------3--|--L----------------|
------------------3--|--L----------------|------------------3--|--L----------------|
--2------------x--0--|--L----------------|--2------------x--0--|--L----------------|
--2------------x--0--|--L----------------|--2------------x--0--|--L----------------|
--0------------x-----|-------------------|--0------------x-----|-------------------|
------------------3--|--L----------------|------------------3--|--L----------------|


  H.           E  E     W                   Q.     E  Q    Q       E  E  Q    Q    Q     
------------------3--|--L----------------|----------------------|-----------------------|
------------------3--|--L----------------|----------------------|-----------------------|
--2------------x--0--|--L----------------|----------------------|-----------------------|
--2------------x--0--|--L----------------|----------------------|-----------------------|
--0------------x-----|-------------------|----------------------|-----------------------|
------------------3--|--L----------------|--3------2--L----3----|--L--2--L----3----4----|

Guitar Solo #1
  E  S S S S S S S S S S S S S S    S E.  Q     E  E   E  S S  
---------------------------------|----------------------------|
---------------------------------|----------------------------|
--5--5-5-5-5-5-5-x-5-5-5-5-5-5-5-|--5-----------------------5-|
---------------------------------|----7---L~----L--L\---------|
---------------------------------|---------------------x--x---|
---------------------------------|----------------------------|


  S  S S S S  S S  S  S S E    E     E     H         E  E   E  S S  
----------------------------------------|--------------------------|
----------------------------------------|--------------------------|
--5~-5---x-5h-6-x--5--x-5-5--5g6---5g6--|------------------------5-|
------------------(5)---------(5)-------|--7~--------L--L\---------|
----------------------------------------|-------------------x--x---|
----------------------------------------|--------------------------|


                                                    PM                                            
  S S  S S S  S S  S  S S S S E  S S    E  S S S E  S  E  S S E   S  S    E  E   H        E  E    
-------------------------------------|---------------------------------|-------------------------|
-------------------------------------|-----------------5---------------|------------------8------|
----5h-6---5h-6-x-(0)-x-5-x-5-5----5-|-----5-5-5-x--4--5--5-5-5s--2s-5-|-----7b--L-----------7b--|
---------x------x-(0)-x---x------x---|--x------------------------------|-------------------------|
--x----------------------------------|---------------------------------|-------------------------|
-------------------------------------|---------------------------------|-------------------------|


  E     E  H         E  S S      S S S S   S S S S Q     E  S S    S S S S   S S E  Q     E  E    
------------------------5---|-------------------------------5---|--------------------------------|
--------------------------8-|--5g8---5---------7--------------8-|--5---5---------7-----------8b--|
--Lpbr--L--L~--------L------|------7---7-5g6---7---5~----x------|----7---7-5g6---7--5~----5------|
----------------------------|----------------7---7-------x------|--------------7-----------------|
----------------------------|-----------------------------------|--------------------------------|
----------------------------|-----------------------------------|--------------------------------|


  E    S   S   S   S   S   S   S   S   S   S   S   S   S   S    
---------------------------------------------------------------|
--Lpb--8pb-8pb-8pb-8pb-8pb-8pb-8pb-8pb-8pb-8pb-8pb-8pb-8pb-8pb-|
---------------------------------------------------------------|
---------------------------------------------------------------|
---------------------------------------------------------------|
---------------------------------------------------------------|


                                             |--3--|                             
  S   S   S   S   E    E    Q      E  S S    S  S  S E  S S S S S S S S S S S S  
--------------------------------------7-7-|--8p-7p-5-7--7-5-7-8-7-5-7-8-7-5-7-8-|
--8pb-8pb-8pb-8pb-8pb--8pb--Lb~----8------|-------------------------------------|
------------------------------------------|-------------------------------------|
------------------------------------------|-------------------------------------|
------------------------------------------|-------------------------------------|
------------------------------------------|-------------------------------------|


                          |---3--|                       |--3--|                 
  S S S S S S S S S S S S S  S   S S S    S  S S  S S  S S  S  S S S S S E   E   
--7-5-7-8-7-5-7-8-7-5-7-8-7h-8h-10-8-5-|--7p-4----------------------------------|
---------------------------------------|-------7p-5-7p-5-----------------5------|
---------------------------------------|-----------------7p-6p-5-7-5-4---5b-----|
---------------------------------------|-------------------------------7-----7--|
---------------------------------------|----------------------------------------|
---------------------------------------|----------------------------------------|


          PM                                                                                   
  E   E   E  E  E   E  E   E       Q.      E    Q     Q          E  E    E  E   E.   S E   E   
-------------------------------|-----------------------------|--------------------------------|
--------------------------15b--|---L------15b---L----15br----|---L-------------13---13----12--|
-----------------------x-------|-----------------------------|---x--7s--14--------------------|
--7~--L\--4--7--LS--4--x-------|-----------------------------|--------------------------------|
-------------------------------|-----------------------------|--------------------------------|
-------------------------------|-----------------------------|--------------------------------|


   S  E   S  S  S  E   T   T  S  S  S  S  E   T  T     H          Q        Q      
---------------------------------------------------|-----------------------------|
-----12--------------------------------------------|-----------------------------|
--14-----14--L-12-14--12p-11-11-12-11--------------|-----------------------------|
--------------------------------------14-12---L-10-|---L~---------L\----5g15\----|
---------------------------------------------------|-----------------------------|
---------------------------------------------------|-----------------------------|

Angus' Breakdown
   E   E  E  E  E  E  E   E      E  E   Q    H            E   E  E  E  E  E  E   E    
------------------------------|-----------------------|------------------------------|
------------------------------|-----------------------|----------------6-------------|
----------5-----7-----5b------|-----------------------|----------5-----7-----5b------|
-------7-----7-----7------7~--|--L--L\----------------|-------7-----7-----7------7~--|
--(x)-------------------------|-----------------------|--(x)-------------------------|
------------------------------|-----------------------|------------------------------|


                                             >                                      
  E  E   Q    Q     Q         E     E  E  E  E  E  E   E      E  E   Q    H         
--------------------------|--------------------------------|-----------------------|
--------------------------|--------------------------------|-----------------------|
-------------------(x)----|------------5-----7-----5b------|-----------------------|
--L--L\------------(x)----|--(x)--5g7-----7-----7------7~--|--L--L\----------------|
--------------------------|--------------------------------|-----------------------|
--------------------------|--------------------------------|-----------------------|


                  >                                                         >              
   E     E  E  E  E  E  E   E      E   E   Q    H            E     E  E  E  E  E  E   E    
--------------------------------|------------------------|--------------------------------|
--------------------------------|------------------------|--------------------------------|
------------5-----7-----5b------|------------------------|------------5-----7-----5b------|
--(x)--5g7-----7-----7------7~--|--L---------------------|--(x)--5g7-----7-----7------7~--|
--------------------------------|-----(5)----------------|--------------------------------|
--------------------------------|------------------------|--------------------------------|


                                             >                                      
  E   E    Q     H            E     E  E  E  E  E  E   E      E  E   Q    H         
--------------------------|--------------------------------|-----------------------|
--------------------------|--------------------------------|-----------------------|
--------------------------|------------5-----7-----5b------|-----------------------|
--L-----------------------|--(x)--5g7-----7-----7------7~--|--L--L\----------------|
-----(5)--(x)-------------|--------------------------------|-----------------------|
--------------------------|--------------------------------|-----------------------|


                  >                         PM    PM PM PM                            
   E     E  E  E  E  E  E   E      E  E  E  E  E  E  E  E     E  E  Q    Q    E   E   
--------------------------------|--------------------------|-------------------------|
--------------------------------|--------------------------|-------------------------|
------------5-----7-----5b------|--------5-----7-----5-----|--------5----7----5b-----|
--(x)--5g7-----7-----7------7~--|--L--L-----7-----7-----7--|--L--7----------------7--|
--------------------------------|--------------------------|-------------------------|
--------------------------------|--------------------------|-------------------------|

                         Guitar Solo #2
  E  E  Q    Q    E  E     Q     Q    Q    E   E     E   E   Q    Q    E  E   
------------------------|-------------------------|--------------------------|
------------------------|-------------7-----------|---------------7----------|
--------5----7----5-----|--------5----7----5b-----|----------5----7----5-----|
--L--7---------------7--|--L~------------------7--|--L~--L\---------------7--|
------------------------|-------------------------|--------------------------|
------------------------|-------------------------|--------------------------|


  Q     Q    Q    E   E     E   E   Q    Q     E    E     E  S S S  S E  S  S S S S  S S S  
-------------------------|-----------------------------|--5--------------------------------|
-------------7-----------|--------------------------8--|-----8-5----5-8-----5-8-5----5-8-8-|
--------5----7----5b-----|------7b--L----7b----7b~-----|---------7b------7b-------7b-------|
--L~------------------7--|--L~-------------------------|-----------------------------------|
-------------------------|-----------------------------|-----------------------------------|
-------------------------|-----------------------------|-----------------------------------|


                                                                           NH                      
  E   S S E   S S E  E  E   E     Q     S S  S S S S  S S E  E     Q       E   E    Q     E   E    
------------------5------------|--------5-----------------------|---------------------------------|
------5-8-----5-8----5------5--|--L~------8p-5---5--------------|-------------20b---L----20--20b--|
--7b------7b---------5--7b-----|---------------7---7p-5---7--5--|--5\-----------------------------|
-------------------------------|------------------------7-------|--------<>7----------------------|
-------------------------------|--------------------------------|---------------------------------|
-------------------------------|--------------------------------|---------------------------------|


   Q      E   E    Q     E   E        E    E    S  S  S  S   E   S  S  E    S  S  
----------------------------------|------------17--------------------------20----|
---L~----20--20b---L----20--20b~--|---L~--20b-----20-17-20b--L--20-17-20b-----20-|
----------------------------------|----------------------------------------------|
----------------------------------|----------------------------------------------|
----------------------------------|----------------------------------------------|
----------------------------------|----------------------------------------------|


   E    S  S  E    S  S  E    S  S  E    S  S     Q      S  S  S  S  S  S  S  S   S     S  S  S   
-------17---------17---------17---------17----|---------17-20-17----17---------------------------|
--20b-----17-20b-----17-20b-----17-20b-----17-|--20b-------------20----20-17-----17-17g20-17-----|
----------------------------------------------|------------------------------19b-------------19b-|
----------------------------------------------|--------------------------------------------------|
----------------------------------------------|--------------------------------------------------|
----------------------------------------------|--------------------------------------------------|


       |---3--|                    |---3--|       |---3---|  
   E   S   S  S   S  S  S  S   E   S   S  S   E   S   S   S  
--17--------------------------17----------------------------|
------20p-17--------17-20---------20p-17---------17h-20p-17-|
-------------19b--L-------19b------------19b--L-------------|
------------------------------------------------------------|
------------------------------------------------------------|
------------------------------------------------------------|


                                                    |--3--|                         
   S   S  S  S  S   S  S  S  Q      E      E     E  S  S  S S S  S  S E  E   E  E   
------17-----------17-17-17-------------------|------------------------------------|
------17-20-17--------17-17-------------------|------------------------------------|
--19b----------19b----------------------9g19--|--7---------------------------------|
-----------------------------------(0)--------|-----5h-7p-5---------5-L--L\--------|
----------------------------19\---------------|-------------7-7-(7)----------0--0--|
----------------------------------------------|------------------------------------|

                                    Outro
  E   E    Q      E      E   Q        Q    E  E  Q    Q       H.           E  E   
-----------------------------------|------------------1----|--L------------------|
-----20b---L~----20pb~---L---------|--1----L----------1----|--L------------------|
----------------------------17\----|-----------------------|---------------------|
--0-------------------------17\----|--3----L--3--L----3----|--L------------3-----|
--0--------------------------------|--3----L--3--L----3----|--L------------3-----|
-----------------------------------|--1----L--1--L----1----|--L---------------0--|


  Q    E  E  Q    Q       H.           E  E     H.           E  E     W                 
-----------------------|---------------------|------------------3--|--L----------------|
--3----L--3--L----3----|--L------------L-----|------------------3--|--L----------------|
--2----L--2--L----2----|--L------------L--0--|--2------------x--0--|--L----------------|
--0----L--0--L----0----|--L------------L--0--|--2------------x--0--|--L----------------|
-----------------------|---------------------|--0------------x-----|-------------------|
-----------------------|---------------------|------------------3--|--L----------------|


  H.           E  E     W                   H.           E  E     W                 
------------------3--|--L----------------|------------------3--|--L----------------|
------------------3--|--L----------------|------------------3--|--L----------------|
--2------------x--0--|--L----------------|--2------------x--0--|--L----------------|
--2------------x--0--|--L----------------|--2------------x--0--|--L----------------|
--0------------x-----|-------------------|--0------------x-----|-------------------|
------------------3--|--L----------------|------------------3--|--L----------------|


                                                  TP                                         
  Q.     E  Q    Q       E  E  Q    Q    Q        W                    H         Q     Q     
----------------------|-----------------------|--------------------|------------------------|
----------------------|-----------------------|--14----------------|---L--------14----14----|
----------------------|-----------------------|--14----------------|---L--------14----14----|
----------------------|-----------------------|--------------------|------------------------|
----------------------|-----------------------|--------------------|------------------------|
--3------2--L----3----|--L--2--L----3----4----|--------------------|------------------------|


   |---3---|   |---3---|   |---3---|           |-3-| |3|            
   E   E   E   E   E   E   E   E   E   Q       S S S S E   S S E    
--------------------------------------------|----------------------|
--14--14--14--14--14--14--14--14--14--14----|----------------------|
--14--14--14--14--14--14--14--14--14--14----|----------------5-7b--|
--------------------------------------------|------7-5-7~--L-------|
--------------------------------------------|--0-0-----------------|
--------------------------------------------|----------------------|


                             |--3-|     |--3-|   
  S S  S  S S  S  S  S S  S  S  S S  E  S  S S   
------------------------------------------------|
----5h-8p-5----5h-8p-5----5h-8p-5-------8p-5----|
--L---------7b---------7b---------7b-L-------7b-|
------------------------------------------------|
------------------------------------------------|
------------------------------------------------|


    |--3--|                                                                       
  S T  T  T T  T S T  T  T T  T T T T T  T  T T T T S  Q       W                  
--5---------------------------------------------------------|-------------------||
--5-5h-8p-5-7p-5--------------------------------------------|-------------------||
-----------------8-8p-7p-5-7p-5---7---5h-7p-5---7-----------|-------------------||
--------------------------------7---7---------7-------------|-------------------||
--------------------------------------------------7-5s-3----|--L----------------||
------------------------------------------------------------|-------------------||



Guitar - Malcolm
   Intro
     E  E  E  E  E  E  E  E     W                   E  E  E  E  E  E  E  E     W                 
E||--------------------------|-------------------|--------------------------|-------------------|
B||--------------------------|-------------------|--------------------------|-------------------|
G||--------------------------|-------------------|--------------------------|-------------------|
D||-----2-----------------2--|-------------------|-----------------------2--|-------------------|
A||-----0--3--0--5--0--3--0--|-------------------|-----0--3--0--5--0--3--0--|-------------------|
E||--------------------------|-------------------|--------------------------|-------------------|


  E  E  E  E  E  E  E  E     W                   E  E  E  E  E  E  E  E     W                 
--------------------------|-------------------|--------------------------|-------------------|
--------------------------|-------------------|--------------------------|-------------------|
-----------------------2--|-------------------|-----------------------2--|-------------------|
-----2-----------------2--|-------------------|-----------------------2--|-------------------|
-----0--3--0--5--0--3--0--|-------------------|-----0--3--0--5--0--3--0--|-------------------|
--------------------------|-------------------|--------------------------|-------------------|


  E  E  E  E  E  E  E  E     W                   E  E  E  E  E  E  E  E     W                 
--------------------------|-------------------|--------------------------|-------------------|
--------------------------|-------------------|--------------------------|-------------------|
-----------------------2--|-------------------|-----------------------2--|-------------------|
-----2-----------------2--|-------------------|-----2-----------------2--|-------------------|
-----0--3--0--5--0--3--0--|-------------------|-----0--3--0--5--0--3--0--|-------------------|
--------------------------|-------------------|--------------------------|-------------------|


  E  E  E  E  E  E  E  E     W                   E  E  E  E  E  E  E  E     W                 
--------------------------|-------------------|--------------------------|-------------------|
--------------------------|-------------------|--------------------------|-------------------|
-----------------------2--|-------------------|-----------------------2--|-------------------|
-----2-----------------2--|-------------------|-----2-----------------2--|-------------------|
-----0--3--0--5--0--3--0--|-------------------|-----0--3--0--5--0--3--0--|-------------------|
--------------------------|-------------------|--------------------------|-------------------|


  E  E  E  E  E  E  E  E     W                   E  E  E  E  E  E  E  E     W                 
--------------------------|-------------------|--------------------------|-------------------|
--------------------------|-------------------|--------------------------|-------------------|
-----------------------2--|-------------------|-----------------------2--|-------------------|
-----2-----------------2--|-------------------|-----2-----------------2--|-------------------|
-----0--3--0--5--0--3--0--|-------------------|-----0--3--0--5--0--3--0--|-------------------|
--------------------------|-------------------|--------------------------|-------------------|


  E  E  E  E  E  E  E  E     W                   W                   W                 
--------------------------|-------------------|-------------------|-------------------|
--------------------------|-------------------|-------------------|-------------------|
-----------------------2--|-------------------|-------------------|-------------------|
-----2-----------------2--|-------------------|-------------------|-------------------|
-----0--3--0--5--0--3--0--|-------------------|-------------------|-------------------|
--------------------------|-------------------|-------------------|-------------------|

                           Verse 1
  E  E  E  E  E  E  E  E     E  E  E  E  E  E  E  E     E  E  E  E  E  E  E  E   
--------------------------|--------------------------|--------------------------|
--------------------------|--------------------------|--------------------------|
--------------------------|-----2--------2-----------|--------------------------|
-----2-----------------2--|--L--2--------2-----0--2--|--L--------------------2--|
-----0--3--0--5--0--3--0--|--L-----0--0-----0--0--0--|--L--0--3--0--5--0--3--0--|
--------------------------|--------------------------|--------------------------|


  E  E  E  E  E  E  E  E     E  E  E  E  E  E  E  E     E  E  E  E  E  E  E  E   
--------------------------|--------------------------|--------------------------|
--------------------------|--------------------------|--------------2-----0-----|
-----2--------2--------2--|--L-----------------------|-----2--------2-----0--2--|
--L--2--------2-----0--2--|--L--------------------2--|--L--2--------2-----0--2--|
--L-----0--0-----0--0-----|-----0--3--0--5--0--3--0--|--L-----0--0-----0-----0--|
--------------------------|--------------------------|--------------------------|


  E  E  E  E  E  E  E  E     E  E  E  E  E  E  E  E     E  E  E  E  E  E  E  E   
--------------------------|--------------------------|--------------------------|
--------------------------|--------------------------|--------------------------|
--L-----5-----7-----5-----|-----2--------2--------2--|--L-----------------------|
--L--------------------2--|--L--2--------2-----0--2--|--L--------------------2--|
--L--0--3--0--5--0--3--0--|--L-----0--0-----0--0--0--|--L--0--3--0--5--0--3--0--|
--------------------------|--------------------------|--------------------------|


  E  E  E  E  E  E  E  E     E  E  E  E  E  E  E  E     E  E  E  E  E  E  E  E   
--------------------------|--------------------------|--------------------------|
--------------------------|--------------------------|--------------------------|
--------------------------|--------------------------|-----2--------2--------2--|
--L--2--------2-----0--2--|--L--------------------2--|--L--2--------2-----0--2--|
--L--0--0--0--0--0--0--0--|--L--0--3--0--5--0--3--0--|--L-----0--0--0--0--0--0--|
--------------------------|--------------------------|--------------------------|


  E  E  E  E  E  E  E  E     E  E  E  E  E  E  E  E     E  E  E  E  E  E  E  E   
--------------------------|--------------------------|--------------------------|
--------------------------|--------------------------|--------------------------|
--L-----------------------|-----2--------2-----2--2--|--L-----------------------|
--L--------------------2--|--L--2--------2-----2--2--|--L--------------------2--|
--L--0--3--0--5--0--3--0--|--L-----0--0-----0-----0--|--L--0--3--0--5--0--3--0--|
--------------------------|--------------------------|--------------------------|


  E  E  E  E  E  E  E  E     E  E  E   E  E  E  E   E     E  E  E  E  E  E  E  E   
--------------------------|----------------------------|--------------------------|
--------------------------|----------------------------|--------------------------|
-----2--------2--------2--|--L-------------------------|--------------------------|
--L--2--------2-----0--2--|--L----------------------2--|--L--2--------2-----0--2--|
--L-----0--0-----0--0--0--|--L--0--3b--0--5--0--3b--0--|--L--0--0--0--0--0--0--0--|
--------------------------|----------------------------|--------------------------|


  E  E  E   E  E  E  E   E     E  E  E  E  E  E  E  E     E  E  E  E  E  E  E   E   
----------------------------|--------------------------|---------------------------|
----------------------------|--------------------------|---------------------------|
----------------------------|--------------------------|---------------------------|
--L----------------------2--|--L--2--------2-----0--2--|--L---------------------2--|
--L--0--3b--0--5--0--3b--0--|--L--0--0--0--0--0--0--0--|--L--0--3--0--5--0--3b--0--|
----------------------------|--------------------------|---------------------------|


  E  E  E  E  E  E  E  E     E  E  E  E  E  E  E   E     E  E  Q    E  E  E  E   
--------------------------|---------------------------|-------------------------|
--------------------------|---------------------------|-------------------------|
-----2--------2--------2--|--L------------------------|----------------------2--|
--L--2--------2--------2--|--L--2------------------2--|--L--2--2----2--2--2--2--|
--L-----0--0-----0--0-----|-----0--3--0--5--0--3b--0--|--L--0--0----0--0--0--0--|
--------------------------|---------------------------|-------------------------|


  E  E  Q    E  E  E  E     Q    E  E  Q    Q       W                   Q    E  E  Q    Q     
-------------------------|--1----L--1--L----1----|--L----------------|-----------------------|
-------------------------|--1----L--1--L----1----|--L----------------|--3----L--3--L----3----|
--L----------2--0--------|--x-------x-------x----|-------------------|--2----L--2--L----2----|
--L--2--2----2--0--------|--3----L--3--L----3----|--L----------------|--0----L--0--L----0----|
--L--0--0----0-----------|--3----L--3--L----3----|--L----------------|--0----L--0--L----0----|
-------------------0--0--|--1----L--1--L----1----|--L----------------|-----------------------|


                                     ^  v                                        ^  v   
  H.           E  E     H.           E  E     H.           E  E     H.           E  E   
---------------------|------------------3--|--L------------L-----|------------------3--|
--L------------L-----|------------------3--|--L------------L-----|------------------3--|
--L------------L-----|--2------------0--0--|--L------------L-----|--2------------0--0--|
--L------------L-----|--2------------0--0--|--L------------L-----|--2------------0--0--|
--L------------L-----|--0------------------|---------------------|--0------------------|
------------------0--|---------------3--3--|--L------------L--0--|---------------3--3--|


                                     ^  v                                                
  H.           E  E     H.           E  E     H.           E  E     Q.     E  Q    Q     
--L------------L-----|------------------3--|--L------------------|--3--------------3----|
--L------------L-----|------------------3--|--L------------------|--3------3--L----3----|
--L------------L-----|--2------------0--0--|--L------------0-----|--0------2--L----0----|
--L------------L-----|--2------------0--0--|--L------------0-----|--0------0--L----0----|
---------------------|--0------------------|---------------------|----------------------|
--L------------L--0--|---------------3--3--|--L---------------3--|--3------2--L----3----|

                          Verse 2
  E  E  Q    Q    E   E     E  E  E  E  E  E   E   E     E  E  E  E  E  E  E   E   
--L----------3----3------|----------------------------|---------------------------|
--L--3--L----3----3------|----------------------------|---------------------------|
--L--2--L----0----0------|-----2--------2-----(0)--2--|--L------------------------|
--L--0--L----0----0------|--2--2--------2-----(0)--2--|--L---------------------2--|
-------------------------|--0-----0--0-----0-------0--|--L--0--3--0--5--0--3b--0--|
--L--2--L----3----3s--4--|----------------------------|---------------------------|


  E  E  E  E  E  E   E   E     E  E  E  E  E  E  E   E     E  E  E  E  E  E   E   E   
----------------------------|---------------------------|----------------------------|
----------------------------|---------------------------|----------------------------|
----------------------------|---------------------------|-----2--------2-------------|
--L--2--4--0--2-----(4)--2--|--L---------------------2--|--L--2--------2-----(0)--2--|
--L-----0--0-----0-------0--|--L--0--3--0--5--0--3b--0--|--L-----0--0-----0---0---0--|
----------------------------|---------------------------|----------------------------|


  E  E  E  E  E  E  E   E     E  E  E  E  E  E   E   E     E  E  E  E  E  E  E   E   
---------------------------|----------------------------|---------------------------|
---------------------------|----------------------------|---------------------------|
---------------------------|-----2--------2-------------|---------------------------|
--L---------------------2--|--L--2--------2-----(0)--2--|--L---------------------2--|
--L--0--3--0--5--0--3b--0--|--L-----0--0-----0---0---0--|--L--0--3--0--5--0--3b--0--|
---------------------------|----------------------------|---------------------------|


  E  E  E  E  E  E   E   E     E  E  E  E  E  E  E   E     E  E  E  E  E  E   E   E   
----------------------------|---------------------------|----------------------------|
----------------------------|---------------------------|----------------------------|
-----2--------2-------------|---------------------------|-----2--------2-------------|
--L--2--------2-----(0)--2--|--L---------------------2--|--L--2--------2-----(0)--2--|
--L-----0--0-----0---0---0--|--L--0--3--0--5--0--3b--0--|--L-----0--0-----0---0---0--|
----------------------------|---------------------------|----------------------------|


  E  E  E  E  E  E  E   E     E  E  E  E  E  E   E   E     E  E  E  E  E  E  E   E   
---------------------------|----------------------------|---------------------------|
---------------------------|----------------------------|---------------------------|
---------------------------|--------------2-------------|---------------------------|
--L---------------------2--|--L--2--------2-----(0)--2--|--L---------------------2--|
--L--0--3--0--5--0--3b--0--|--L--0--0--0-----0---0---0--|--L--0--3--0--5--0--3b--0--|
---------------------------|----------------------------|---------------------------|


  E  E  E  E  E  E   E   E     E  E  E  E  E  E  E   E     E  E  E  E  E  E   E   E   
----------------------------|---------------------------|----------------------------|
----------------------------|---------------------------|----------------------------|
----------------------------|---------------------------|----------------------------|
--L--2--------2-----(0)--2--|--L---------------------2--|--L--2--------2-----(0)--2--|
--L--0--0--0--0--0---0---0--|--L--0--3--0--5--0--3b--0--|--L--0--0--0--0--0---0---0--|
----------------------------|---------------------------|----------------------------|


  E  E  E  E  E  E  E   E     E  E  Q    E  E  E  E     E  E  Q    Q    E  E   
---------------------------|-------------------------|------------------------|
---------------------------|-------------------------|------------------------|
---------------------------|-----2--2----2--2--2--2--|--L--2--2----2----2-----|
--L---------------------2--|--L--2--2----2--2--2--2--|--L--2--2----2----2-----|
--L--0--3--0--5--0--3b--0--|--L--0--0----0--0--0--0--|--L--0--0----0----0-----|
---------------------------|-------------------------|---------------------0--|


  Q    E  E  Q    Q       E  E  Q    E  E  E  E     Q    E  E  E  E  Q       Q    H        E  E   
--1----L--1--L----1----|--L----------------------|------------------------|----------------------|
--1----L--1--L----1----|--L----------------------|--3-------3--L-----3----|--L-------------3-----|
--x-------x-------x----|-------------------------|--2-------2--L-----2----|--L-------------2-----|
--3----L--3--L----3----|--L----------------------|--0-------0--L-----0----|--L-------------0-----|
--3----L--3--L----3----|--L----------------3--0--|-------0--------0-------|-------0--------------|
--1----L--1--L----1----|--L--1--1----1--1--1-----|------------------------|-------------------0--|


               ^  v                                         ^  v                         
  H.           E  E     Q    H        E  E     H.           E  E     H.           E  E   
------------------3--|--L----3--------L-----|------------------3--|--L------------L-----|
------------------3--|--L----3--------L-----|------------------3--|--L------------L-----|
--2------------0--0--|--L----0--------L-----|--2------------0--0--|--L------------L-----|
--2------------0--0--|--L----0--------L-----|--2------------0--0--|--L------------L-----|
--0------------------|----------------------|--0------------------|---------------------|
---------------3--3--|--L----3--------L--0--|---------------3--3--|--L------------L--0--|


               ^  v                                                                        
  H.           E  E     H.           E  E     Q.     E  Q    Q       E  E  Q    Q    Q     
------------------3--|--L------------------|--3--------------3----|--L----------3---------|
------------------3--|--L------------------|--3------3--L----3----|--L--3--L----3---------|
--2------------0--0--|--L------------0-----|--0------2--L----0----|--L--2--L----0---------|
--2------------0--0--|--L------------0-----|--0------0--L----0----|--L--0--L----0---------|
--0------------------|---------------------|----------------------|-----------------------|
---------------3--3--|--L---------------3--|--3--------------3----|--L----------3----4----|

Guitar Solo #1
  E  E  Q    E  E  E  E     E  E  E  E  E  E  E   E     E  E  E  E  E  E  E  E   
-------------------------|---------------------------|--------------------------|
-------------------------|---------------------------|--------------------------|
-------------------------|---------------------------|--------------------------|
--2--2--4----2-----4--2--|--L---------------------2--|--L--2--4--0--2-----4--2--|
--0--0--0----0--0--0--0--|--L--0--3--0--5--0--3b--0--|--L--0--0-----0--0--0--0--|
-------------------------|---------------------------|--------------------------|


  E  E  E  E  E  E  E  E     E  E  E  E  E  E  E  E     E  E  E  E  E  E  E  E   
--------------------------|--------------------------|--------------------------|
--------------------------|--------------------------|--------------------------|
--------------------------|--------------------------|--------------------------|
--L--------------------2--|--L-----4--0--2-----0--2--|--L--------------------2--|
--L--0--3--0--5--0--3--0--|--L--0--0--0--0--0--0--0--|--L--0--3--0--5--0--3--0--|
--------------------------|--------------------------|--------------------------|


  E  E  E  E  E  E  E  E     E  E  E  E  E  E  E  E     E  E  E  E  E  E  E  E   
--------------------------|--------------------------|--------------------------|
--------------------------|--------------------------|--------------------------|
--------------------------|--------------------------|--------------------------|
--L--2--4-----2-----0--2--|--L--------------------2--|--L--2--4-----2-----0--2--|
--L--0--0--0--0--0--0--0--|--L--0--3--0--5--0--3--0--|--L--0--0--0--0--0--0--0--|
--------------------------|--------------------------|--------------------------|


  E  E  E  E  E  E  E  E     E  E  E  E  E  E  E  E     E  E  E  E  E  E  E  E   
--------------------------|--------------------------|--------------------------|
--------------------------|--------------------------|--------------------------|
--------------------------|--------------------------|--------------------------|
--L--------------------2--|--L-----4-----2-----0--2--|--L--------------------2--|
--L--0--3--0--5--0--3--0--|--L--0--0--0--0--0--0--0--|--L--0--3--0--5--0--3--0--|
--------------------------|--------------------------|--------------------------|


  E  E  E  E  E  E  E  E     E  E  E  E  E  E  E  E     E  E  E  E  E  E  E  E   
--------------------------|--------------------------|--------------------------|
--------------------------|--------------------------|--------------------------|
--------------------------|--------------------------|--------------------------|
--L-----4-----2-----0--2--|--L--------------------2--|--L-----4--0--2--2--0--2--|
--L--0--0--0--0--0--0--0--|--L--0--3--0--5--0--3--0--|--L--0--0--0--0--0--0--0--|
--------------------------|--------------------------|--------------------------|


  Q    Q    E  E  E  E     Q    E  E  E  E  Q       Q    Q    E  E  E  E     Q    E  E  Q    Q     
------------------------|------------------------|------------------------|--2----2--2--L----2----|
------------------------|------------------------|------------------------|--3----3--3--L----3----|
------------------------|------------------------|------------------------|--2----2--2--L----2----|
--L----2----2--2--------|------------------------|------------------0--0--|--0----0--0--L----0----|
--L----0----0--0--------|--3----3--3--L--3--3----|--L----3----3--3--0--0--|-----------------------|
------------------0--0--|--1----1--1--L--1--1----|--L----1----1--1--------|-----------------------|

                         Angus' Breakdown
  Q    Q    E  E  E  E     Q    Q    H           E  E  E   E   E  E  E  E      Q     Q    H         
--L---------------------|---------------------|----------------------------|-----------------------|
--L----3----3--3--3--3--|---------------------|----------------------------|-----------------------|
--L----2----2--2--2--2--|--2------------------|----------------7-----5-----|--(x)------------------|
--L----0----0--0--0--0--|--2------------------|--------5-------7-----5--2--|--(x)------------------|
-------0----0--0--0--0--|--0------------------|-----0--3--(x)--5--0--3--0--|-----------------------|
------------------------|---------------------|----------------------------|-----------------------|


  E  E  E   E   E  E  E  E      Q     Q    H           E  E  E  E  E  E  E  E   
----------------------------|-----------------------|--------------------------|
----------------------------|-----------------------|--------------------------|
----------------7-----5-----|--(x)------------------|--------------------------|
--------5-------7-----5--2--|--(x)------------------|--------5-----7-----5--2--|
-----0--3--(x)--5--0--3--0--|-----------------------|-----0--3--0--5--0--3--0--|
----------------------------|-----------------------|--------------------------|


   Q     Q    H           E  E  E  E  E  E  E  E      Q     Q    H         
-----------------------|--------------------------|-----------------------|
-----------------------|--------------------------|-----------------------|
--(x)------------------|--------------------------|--(x)------------------|
--(x)------------------|--------5-----7-----5--2--|--(x)------------------|
-----------------------|-----0--3--0--5--0--3--0--|-----------------------|
-----------------------|--------------------------|-----------------------|


  E  E  E  E  E  E  E  E      Q     Q    H           E  E  E  E  E  E  E  E   
--------------------------|-----------------------|--------------------------|
--------------------------|-----------------------|--------------------------|
--------------------------|--(x)------------------|--------------------------|
--------5-----7-----5--2--|--(x)------------------|--------5-----7--------2--|
-----0--3--0--5--0--3--0--|-----------------------|-----0--3--0--5--0--3--0--|
--------------------------|-----------------------|--------------------------|


   Q     Q    H           W                   W                   E  E  E  E  E  E  E  E   
-----------------------|-------------------|-------------------|--------------------------|
-----------------------|-------------------|-------------------|--------------------------|
--(x)------------------|-------------------|-------------------|--------------------------|
--(x)------------------|-------------------|-------------------|-----2-----------------2--|
-----------------------|-------------------|-------------------|-----0--3--0--5--0--3--0--|
-----------------------|-------------------|-------------------|--------------------------|

Guitar Solo #2
  E  E  E  E  E  E  E  E     E  E  E  E  E  E  E  E     E  E  E  E  E  E  E  E   
--------------------------|--------------------------|--------------------------|
--------------------------|--------------------------|--------------------------|
--------------2-----------|--------------------------|--------------2-----------|
--L--2--------4-----0--2--|--L--2-----------------2--|--L--2--------4-----0--2--|
--L--0--0--0--0--0--0--0--|--L--0--3--0--5--0--3--0--|--L--0--0--0--0--0--0--0--|
--------------------------|--------------------------|--------------------------|


  E  E  E  E  E  E  E  E     E  E  E  E  E  E  E  E     E  E  E  E  E  E  E  E   
--------------------------|--------------------------|--------------------------|
--------------------------|--------------------------|--------------------------|
--------------------------|--------------------------|--------------------------|
--L--2-----------------2--|--L--2--4-----2-----0--2--|--L--2-----------------2--|
--L--0--3--0--5--0--3--0--|--L--0--0--0--0--0--0--0--|--L--0--3--0--5--0--3--0--|
--------------------------|--------------------------|--------------------------|


  E  E  E  E  E  E  E  E     E  E  E  E  E  E  E  E     E  E  E  E  E  E  E  E   
--------------------------|--------------------------|--------------------------|
--------------------------|--------------------------|--------------------------|
--------------------------|--------------------------|--------------------------|
--L--2--4-----2-----0--2--|--L--2-----------------2--|--L--2--4-----2-----0--2--|
--L--0--0--0--0--0--0--0--|--L--0--3--0--5--0--3--0--|--L--0--0--0--0--0--0--0--|
--------------------------|--------------------------|--------------------------|


  E  E  E  E  E  E  E  E     E  E  E  E  E  E  E  E     E  E  E  E  E  E  E  E   
--------------------------|--------------------------|--------------------------|
--------------------------|--------------------------|--------------------------|
--------------------------|--------------------------|--------------------------|
--L--2-----------------2--|--L--2--4-----2-----0--2--|--L--2-----------------2--|
--L--0--3--0--5--0--3--0--|--L--0--0--0--0--0--0--0--|--L--0--3--0--5--0--3--0--|
--------------------------|--------------------------|--------------------------|


  E  E  E  E  E  E  E  E     E  E  E  E  E  E  E  E     E  E  E  E  E  E  E  E   
--------------------------|--------------------------|--------------------------|
--------------------------|--------------------------|--------------------------|
-----2--2-----------------|--------------------------|--------------------------|
--L--2--4-----2-----0--2--|--L--2-----------------2--|--L--2--4-----5--5--4--2--|
--L--0--0--0--0--0--0--0--|--L--0--3--0--5--0--3--0--|--L--0--0--0--0--0--0--0--|
--------------------------|--------------------------|--------------------------|

                          Outro
  E  E  Q    E  E  E  E     Q    E  E  Q    Q       H        E  E  E  E     Q    E  E  E  E  Q     
-------------------------|-----------------------|-----------------------|------------------------|
--3----------------------|--1----L--1--L----1----|--L--------------------|--3-------3--L-----3----|
--2----------------------|--x----L--x--L----x----|--L--------------------|--2-------2--L-----2----|
--0--2--2----2--2--2-----|--3----L--3--L----3----|--L--------------------|--0-------0--L-----0----|
-----0--0----0--0--0-----|--3----L--3--L----3----|--L--------3--3--0--0--|-------0--------0-------|
----------------------0--|--1----L--1--L----1----|--L--------1--1--------|------------------------|


                                       ^  v                                        ^  v   
  Q    Q    Q    E  E     H.           E  E     H.           E  E     H.           E  E   
-----------------------|------------------3--|--L------------------|------------------3--|
--L----3----3----3-----|------------------3--|--L------------------|------------------3--|
--L----2----2----2-----|--2------------0--0--|--L------------0-----|--2------------0--0--|
--L----0----0----0-----|--2------------0--0--|--L------------0-----|--2------------0--0--|
-------0----0----------|--0------------------|---------------------|--0------------------|
--------------------0--|---------------3--3--|--L------------3--0--|---------------3--3--|


                                     ^  v                                               
  H.           E  E     H.           E  E     Q    H.              Q.     E  Q    Q     
--L------------L-----|------------------3--|--L----3------------|--3--------------3----|
--L------------L-----|------------------3--|--L----3------------|--3------3--L----3----|
--L------------L-----|--2------------0--0--|--L----0------------|--0------2--L----0----|
--L------------L-----|--2------------0--0--|--L----0------------|--0------0--L----0----|
---------------------|--0------------------|--------------------|----------------------|
--L------------L--0--|---------------3--3--|--L----3------------|--3--------------3----|


                                                                         TP                
  E  E  Q    Q    Q       Q.     E  Q    Q       E  E  Q    Q    Q       W                 
--L----------3---------|----------------------|-----------------------|-------------------|
--L--3--L----3---------|----------------------|-----------------------|-------------------|
--L--2--L----0---------|--2------2--L----2----|--L--2--L----2----2----|--2----------------|
--L--0--L----0---------|--2------2--L----2----|--L--2--L----2----2----|--2----------------|
-----------------------|--0------0--L----0----|--L--0--L----0----0----|--0----------------|
--L----------3----4----|----------------------|-----------------------|-------------------|


  H           W                   W                   H        Q    Q      
-----------|-------------------|-------------------|---------------------||
-----------|-------------------|-------------------|----------------2----||
--2--------|--L----------------|-------------------|----------------2----||
--2--------|--L----------------|-------------------|----------------2----||
--0--------|--L----------------|-------------------|----------------0----||
-----------|-------------------|-------------------|---------------------||




Duration Legend
---------------
W - whole
H - half
Q - quarter
E - 8th
S - 16th
T - 32nd
X - 64th
. - note dotted
|-n-|  - n-tuplets


Tablature Legend
----------------
L - tied note
x - dead note
g - grace note
(n) - ghost note
> - accentuded note
NH - natural harmonic
AH - artificial harmonic
TH - tapped harmonic
SH - semi harmonic
PH - pitch harmonic
h - hammer on
p - pull off
b - bend
br - bendRelease
pb - preBend
pbr - preBendRelease
brb - bendReleaseBend
\n/ - tremolo bar dip
\n - tremolo bar dive
-/n - tremolo bar Release up
/n\ - tremolo bar inverted dip
/n - tremolo bar return
-\n - tremolo bar Release down
S - shift slide
s - legato slide
/ -  slide into from below or out of upwards
\ -  slide into from above or out of downwards
~ - vibrato
W - wide vibrato
tr - trill
TP - tremolo picking
T - tapping
S - slap
P - pop
< - fade in
^ - brush up
v - brush down
comments
We did not receive enough feedback on this tab! Please rate:
print report bad tab
1 2 3 4 5
1 comment total.
0 reply
TexasFury wrote on July 6 2014, 12:31 pm

Guys I have an error in the end of the first half of the solo. It's the descending trill - I ommitet it! I will fix it by Thursday.

I want to post or [tab]
guest
You may want to rate the tab now too:
select rating
Please do not post tabs as comments. Select "correction" instead!