Oops, an error
Loading. Please wait.

Another Second To Be Bass Tab

ver1
ver1

Whole song

Interactive

More versions @911Tabs.com
214 views 1 this week
no commentswrite comment
1 2 3 4 5
please rate
Autoscroll
+/-
esc
set tempo
stop
Contributor
Hey! There's an official Ultimate Guitar app which is ideal
for learning songs when you're away from computer. Get the app
WARNING: You are trying to view
                                    content from Ultimate-Guitar.com
                                    in an unauthorized application,
                                    which is prohibited.

                                    Please use an official Ultimate
                                    Guitar Tabs application for iPhone,
                                    iPad or Android to access legitimate
                                    chords, guitar, bass, and drum tabs
                                    from Ultimate-Guitar.com database.

                                    Type "ultimate guitar tabs" in Apple
                                    App Store's or Android Market's
                                    search to find the application.
                             Another Second To Be                               


                                                                          Accept
Bass
Transcribed by emad


     H           E  S S E  S S E  S S E  S S    E  S S E  S S E  S S E  E   
G||-----------|------------------------------|-----------------------------|
D||-----------|------------------------------|-----------------------------|
A||-----------|--2--2-2-2--2-2-2--2-2-2--2-2-|--0--0-0-0--0-0-0--0-0-0-----|
E||-----------|------------------------------|--------------------------3--|


  E  S S E  S S E  S S E  S S    E  S S E  S S E  E  E  E   
------------------------------|----------------------------|
------------------------------|----------------------------|
------------------------------|----------------2--1-----2--|
--L--3-3-3--3-3-3--3-3-3--3-3-|--2--2-2-2--2-2-------5-----|


  E  S S E  S S E  S S E  S S    E  S S E  S S E  S S E  E   
------------------------------|-----------------------------|
------------------------------|-----------------------------|
--L--2-2-2--2-2-2--2-2-2--2-2-|--0--0-0-0--0-0-0--0-0-0-----|
------------------------------|--------------------------3--|


  E  S S E  S S E  S S E  S S    E  S S E  S S E  E  E  E   
------------------------------|----------------------------|
------------------------------|----------------------------|
------------------------------|----------------4--2--------|
--L--3-3-3--3-3-3--3-3-3--3-3-|--2--2-2-2--2-2-------5--0--|


  E  E  E  E  E  E  E  E     E  S S E  S S E  S S E  S S  
--------------------------|------------------------------|
--------------------------|------------------------------|
--------------------------|------------------------------|
--L--0--0--0--L--0--0--0--|--0--0-0-0--0-0-0--0-0-0--0-0-|


  E  S S E  E  E  E  E  E     E  S S E  S S E  S S E  S S  
---------------------------|------------------------------|
---------------------------|------------------------------|
---------------------------|------------------------------|
--0--0-0-0--0--L--0--0--0--|--0--0-0-0--0-0-0--0-0-0--0-0-|


  E  S S E  E  E  E  E  E     E  S S E  S S E  S S E  S S  
---------------------------|------------------------------|
---------------------------|------------------------------|
---------------------------|------------------------------|
--0--0-0-0--0--L--0--0--0--|--0--0-0-0--0-0-0--0-0-0--0-0-|


  E  E  H.              W                   E  S S E  E  E  S S E  E   
---------------------|-------------------|----------------------------|
---------------------|-------------------|----------------------------|
--7--5--L------------|--L----------------|--7--7-7-7--7--7--7-7-7--7--|
---------------------|-------------------|----------------------------|


  E  S S E  E  E  S S E  E     E  S S E  E  E  S S E  E   
----------------------------|----------------------------|
----------------------------|----------------------------|
--7--7-7-7--7--7--7-7-7--7--|--5--5-5-5--5--5--5-5-5--5--|
----------------------------|----------------------------|


  E  S S E  E  E  S S E  E     E  S S E  E  E  E  E  E   
----------------------------|---------------------------|
----------------------------|---------------------------|
--5--5-5-5--5--5--5-5-5--5--|---------------------------|
----------------------------|--0--0-0-0--0--L--0--0--0--|


  E  S S E  E  E  E  E  E     E  S S E  E  E  S S E  E   
---------------------------|----------------------------|
---------------------------|----------------------------|
---------------------------|--7--7-7-7--7--7--7-7-7--7--|
--0--0-0-0--0--L--0--0--0--|----------------------------|


  E  S S E  E  E  S S E  E     E  S S E  E  E  S S E  E   
----------------------------|----------------------------|
----------------------------|----------------------------|
--7--7-7-7--7--7--7-7-7--7--|--5--5-5-5--5--5--5-5-5--5--|
----------------------------|----------------------------|


  E  S S E  E  E  S S E  E     E  S S E  E  E  E  E  E   
----------------------------|---------------------------|
----------------------------|---------------------------|
--5--5-5-5--5--5--5-5-5--5--|---------------------------|
----------------------------|--0--0-0-0--0--L--0--0--0--|


  E  S S E  E  E  E  E  E     E  S S E  S S E  S S E  S S  
---------------------------|------------------------------|
---------------------------|------------------------------|
---------------------------|--2--2-2-2--2-2-2--2-2-2--2-2-|
--0--0-0-0--0--L--0--0--0--|------------------------------|


  E  S S E  S S E  S S E  S S    E  S S E  S S E  S S E  S S  
------------------------------|------------------------------|
------------------------------|------------------------------|
--2--2-2-2--2-2-2--2-2-2--2-2-|--2--2-2-2--2-2-2--2-2-2--2-2-|
------------------------------|------------------------------|


  E  S S E  S S E  S S E  S S    E  S S E  S S E  S S E  S S  
------------------------------|------------------------------|
------------------------------|------------------------------|
--2--2-2-2--2-2-2--2-2-2--2-2-|--0--0-0-0--0-0-0--0-0-0--0-0-|
------------------------------|------------------------------|


  E  S S E  S S E  S S E  S S    E  S S E  S S E  S S E  S S  
------------------------------|------------------------------|
------------------------------|------------------------------|
--3--3-3-3--3-3-5--5-5-5--5-5-|--3--3-3-3--3-3-3--3-3-3--5-5-|
------------------------------|------------------------------|


  E  E  H.              E  S S E  E  E  E  E  E     E  S S E  E  E  E  E  E   
---------------------|---------------------------|---------------------------|
---------------------|---------------------------|---------------------------|
--5------------------|---------------------------|---------------------------|
---------------------|--0--0-0-0--0--L--0--0--0--|--0--0-0-0--0--L--0--0--0--|


  E  S S E  E  E  E  E  E     E  S S S S S S E.  S E  E   
---------------------------|-----------------------------|
---------------------------|-----------------------------|
---------------------------|-----------------5---5-L--5--|
--0--0-0-0--0--L--0--0--0--|--0--0-0-0-0-0-0-------------|


  E  S S E  E  E  E  E  E     E  S S E  E  E  E  E  E   
---------------------------|---------------------------|
---------------------------|---------------------------|
---------------------------|---------------------------|
--0--0-0-0--0--L--0--0--0--|--0--0-0-0--0--L--0--0--0--|


  E  S S E  E  E  E  E  E     E  E  H.              E  S S E  E  E  S S E  E   
---------------------------|---------------------|----------------------------|
---------------------------|---------------------|----------------------------|
---------------------------|--7--5--L------------|--7--7-7-7--7--7--7-7-7--7--|
--0--0-0-0--0--L--0--0--0--|---------------------|----------------------------|


  E  S S E  E  E  S S E  E     E  S S E  E  E  S S E  E   
----------------------------|----------------------------|
----------------------------|----------------------------|
--7--7-7-7--7--7--7-7-7--7--|--5--5-5-5--5--5--5-5-5--5--|
----------------------------|----------------------------|


  E  S S E  E  E  S S E  E     E  S S E  E  E  E  E  E   
----------------------------|---------------------------|
----------------------------|---------------------------|
--5--5-5-5--5--5--5-5-5--5--|---------------------------|
----------------------------|--0--0-0-0--0--L--0--0--0--|


  E  S S E  E  E  E  E  E     E  S S E  E  E  S S E  E   
---------------------------|----------------------------|
---------------------------|----------------------------|
---------------------------|--7--7-7-7--7--7--7-7-7--7--|
--0--0-0-0--0--L--0--0--0--|----------------------------|


  E  S S E  E  E  S S E  E     E  S S E  E  E  S S E  E   
----------------------------|----------------------------|
----------------------------|----------------------------|
--7--7-7-7--7--7--7-7-7--7--|--5--5-5-5--5--5--5-5-5--5--|
----------------------------|----------------------------|


  E  S S E  E  E  S S E  E     E  S S E  E  E  E  E  E   
----------------------------|---------------------------|
----------------------------|---------------------------|
--5--5-5-5--5--5--5-5-5--5--|---------------------------|
----------------------------|--0--0-0-0--0--L--0--0--0--|


  E  S S E  E  E  E  E  E     E  S S E  S S E  S S E  S S  
---------------------------|------------------------------|
---------------------------|------------------------------|
---------------------------|--2--2-2-2--2-2-2--2-2-2--2-2-|
--0--0-0-0--0--L--0--0--0--|------------------------------|


  E  S S E  S S E  S S E  S S    E  S S E  S S E  S S E  S S  
------------------------------|------------------------------|
------------------------------|------------------------------|
--2--2-2-2--2-2-2--2-2-2--2-2-|--2--2-2-2--2-2-2--2-2-2--2-2-|
------------------------------|------------------------------|


  E  S S E  S S E  S S E  S S    E  S S E  S S E  S S E  S S  
------------------------------|------------------------------|
------------------------------|------------------------------|
--2--2-2-2--2-2-2--2-2-2--2-2-|--0--0-0-0--0-0-0--0-0-0--0-0-|
------------------------------|------------------------------|


  E  S S E  S S E  S S E  S S    E  S S E  S S E  S S E  S S  
------------------------------|------------------------------|
------------------------------|------------------------------|
--3--3-3-3--3-3-5--5-5-5--5-5-|--3--3-3-3--3-3-3--3-3-3--5-5-|
------------------------------|------------------------------|


  E  E  H.              E  S S E  E  E  E  E  E     E  S S E  E  E  E  E  E   
---------------------|---------------------------|---------------------------|
---------------------|---------------------------|---------------------------|
--5------------------|---------------------------|---------------------------|
---------------------|--0--0-0-0--0--L--0--0--0--|--0--0-0-0--0--L--0--0--0--|


  E  S S E  E  E  E  E  E     E  S S S S S S E.  S E  E   
---------------------------|-----------------------------|
---------------------------|-----------------------------|
---------------------------|-----------------5---5-L--5--|
--0--0-0-0--0--L--0--0--0--|--0--0-0-0-0-0-0-------------|


  E  S S E  E  E  E  E  E     E  S S E  E  E  E  E  E   
---------------------------|---------------------------|
---------------------------|---------------------------|
---------------------------|---------------------------|
--0--0-0-0--0--L--0--0--0--|--0--0-0-0--0--L--0--0--0--|


  E  S S E  E  E  E  E  E     E  E  H.              E  E  H.            
---------------------------|---------------------|---------------------|
---------------------------|---------------------|---------------------|
---------------------------|---------------------|---------------------|
--0--0-0-0--0--L--0--0--0--|--2--2---------------|--2--2---------------|


  E  E  H.              E  E  H        E  E     E  S S E  S S E  S S E  S S  
---------------------|-----------------------|------------------------------|
---------------------|-----------------------|------------------------------|
---------------------|--------------------2--|--L--2-2-2--2-2-2--2-2-2--2-2-|
--2--2---------------|--2--2-----------------|------------------------------|


  E  S S E  S S E  S S E  S S    E  S S E  S S E  S S E  E   
------------------------------|-----------------------------|
------------------------------|-----------------------------|
--2--2-2-2--2-2-2--2-2-2--2-2-|--2--2-2-2--2-2-2--2-2-2--5--|
------------------------------|-----------------------------|


  E  E  E  E  E   E   E  E     E  S S E  S S E  S S E  S S  
----------------------------|------------------------------|
----------------------------|------------------------------|
--L--5--4--2--4h--5p--4-----|--2--2-2-2--2-2-2--2-2-2--2-2-|
-------------------------5--|------------------------------|


  E  S S E  S S E  S S E  S S    E  S S E  S S E  S S E  E   
------------------------------|-----------------------------|
------------------------------|-----------------------------|
--2--2-2-2--2-2-2--2-2-2--2-2-|--2--2-2-2--2-2-2--2-2-2--5--|
------------------------------|-----------------------------|


  E  E  E  E  E   E   E  E     E  S S E  S S E  S S E  S S  
----------------------------|------------------------------|
----------------------------|------------------------------|
--L--5--4--2--4h--5p--4-----|--2--2-2-2--2-2-2--2-2-2--2-2-|
-------------------------5--|------------------------------|


  E  S S E  S S E  S S E  S S    E  S S E  S S E  S S E  E   
------------------------------|-----------------------------|
------------------------------|-----------------------------|
--2--2-2-2--2-2-2--2-2-2--2-2-|--2--2-2-2--2-2-2--2-2-2--5--|
------------------------------|-----------------------------|


  E  E  E  E  E   E   E  E     E  S S E  S S E  S S E  S S  
----------------------------|------------------------------|
----------------------------|------------------------------|
--L--5--4--2--4h--5p--4-----|--2--2-2-2--2-2-2--2-2-2--2-2-|
-------------------------5--|------------------------------|


  E  S S E  S S E  S S E  S S    E  S S E  S S E  S S E  E   
------------------------------|-----------------------------|
------------------------------|-----------------------------|
--2--2-2-2--2-2-2--2-2-2--2-2-|--2--2-2-2--2-2-2--2-2-2--5--|
------------------------------|-----------------------------|


              |--3--|  |--3--|                                                
  E  E  E  E  E  E  E  E  E  E     H        E.  S E  E     H.           Q     
--------------------------------|-----------------------|--------------------|
--------------2-----4-----5-----|-----------------------|--------------------|
--L--5--4--2--------------------|--7--------------------|--5------------2----|
--------------------------------|-----------0---2-L--3--|--------------------|


  W                   E    E  E  E  E.  S E  E      H        E  E  Q     
-------------------|-----5g7--L------------------|----------------------|
-------------------|-------------7--5---4-L------|----------------------|
--3----------------|--5----------------------5\--|----------------------|
-------------------|-----------------------------|--0--------2--3--L----|


  H.           Q       W                   E  E  E  E  E  E  E  E   
--------------------|-------------------|--------------------------|
--------------------|-------------------|--------------------------|
--5------------2----|--3----------------|--2--2--2--2--2--2--2--2--|
--------------------|-------------------|--------------------------|


  E  E  E  E  E  E  E  E     E  S S E  E  E  E  E  E   
--------------------------|---------------------------|
--------------------------|---------------------------|
--2--2--2--2--2--2--2--2--|---------------------------|
--------------------------|--0--0-0-0--0--L--0--0--0--|


  E  S S E  E  E  E  E  E     E  S S E  E  E  E  E  E   
---------------------------|---------------------------|
---------------------------|---------------------------|
---------------------------|---------------------------|
--0--0-0-0--0--L--0--0--0--|--0--0-0-0--0--L--0--0--0--|


  E  S S S S S S E.  S E  E     E  S S E  E  E  E  E  E   
-----------------------------|---------------------------|
-----------------------------|---------------------------|
-----------------5---5-L--5--|---------------------------|
--0--0-0-0-0-0-0-------------|--0--0-0-0--0--L--0--0--0--|


  E  S S E  E  E  E  E  E     E  S S E  E  E  E  E  E   
---------------------------|---------------------------|
---------------------------|---------------------------|
---------------------------|---------------------------|
--0--0-0-0--0--L--0--0--0--|--0--0-0-0--0--L--0--0--0--|


  E  S S S S S S E.  S E  E     E  S S E  E  E  E  E  E   
-----------------------------|---------------------------|
-----------------------------|---------------------------|
-----------------5---5-L--5--|---------------------------|
--0--0-0-0-0-0-0-------------|--0--0-0-0--0--L--0--0--0--|


  E  S S E  E  E  E  E  E     E  S S E  E  E  E  E  E   
---------------------------|---------------------------|
---------------------------|---------------------------|
---------------------------|---------------------------|
--0--0-0-0--0--L--0--0--0--|--0--0-0-0--0--L--0--0--0--|


  E  S S S S S S E.  S E  E     E  S S E  E  E  E  E  E   
-----------------------------|---------------------------|
-----------------------------|---------------------------|
-----------------5---5-L--5--|---------------------------|
--0--0-0-0-0-0-0-------------|--0--0-0-0--0--L--0--0--0--|


  E  S S E  E  E  E  E  E     E  S S E  E  E  E  E  E   
---------------------------|---------------------------|
---------------------------|---------------------------|
---------------------------|---------------------------|
--0--0-0-0--0--L--0--0--0--|--0--0-0-0--0--L--0--0--0--|


  E  S S S S S S E.  S E  E     E  E  Q     H          
-----------------------------|-----------------------||
-----------------------------|-----------------------||
-----------------5---5-L--5--|--7--5--7\-------------||
--0--0-0-0-0-0-0-------------|-----------------------||




Duration Legend
---------------
W - whole
H - half
Q - quarter
E - 8th
S - 16th
T - 32nd
X - 64th
. - note dotted
|-n-|  - n-tuplets


Tablature Legend
----------------
L - tied note
x - dead note
g - grace note
(n) - ghost note
> - accentuded note
NH - natural harmonic
AH - artificial harmonic
TH - tapped harmonic
SH - semi harmonic
PH - pitch harmonic
h - hammer on
p - pull off
b - bend
br - bendRelease
pb - preBend
pbr - preBendRelease
brb - bendReleaseBend
\n/ - tremolo bar dip
\n - tremolo bar dive
-/n - tremolo bar Release up
/n\ - tremolo bar inverted dip
/n - tremolo bar return
-\n - tremolo bar Release down
S - shift slide
s - legato slide
/ -  slide into from below or out of upwards
\ -  slide into from above or out of downwards
~ - vibrato
W - wide vibrato
tr - trill
TP - tremolo picking
T - tapping
S - slap
P - pop
< - fade in
^ - brush up
v - brush down
comments
We did not receive enough feedback on this tab! Please rate:
print report bad tab
1 2 3 4 5
I want to post or [tab]
guest
You may want to rate the tab now too:
select rating
Please do not post tabs as comments. Select "correction" instead!