Oops, an error
Loading. Please wait.

Balls To The Wall Bass Tab

ver2
ver2

Whole song

Interactive

More versions @911Tabs.com
3,181 views 3 this week
no commentswrite comment
1 2 3 4 5
please rate
add to favorites launch autoscroll
font size
0
reset
Autoscroll
+/-
esc
set tempo
stop
Contributor
WARNING: You are trying to view
                                    content from Ultimate-Guitar.com
                                    in an unauthorized application,
                                    which is prohibited.

                                    Please use an official Ultimate
                                    Guitar Tabs application for iPhone,
                                    iPad or Android to access legitimate
                                    chords, guitar, bass, and drum tabs
                                    from Ultimate-Guitar.com database.

                                    Type "ultimate guitar tabs" in Apple
                                    App Store's or Android Market's
                                    search to find the application.
                              Balls To The Wall                                 

Transcribed by an unregistered user.

                                                                          Accept
Bass



     E  E  E  E  E  E  E  E     E  E  E  E  E  E  E  E   
G||--------------------------|--------------------------|
D||--------------------------|--------------------------|
A||--------------------------|--------------------------|
E||--3--3--3--3--3--3--3--3--|--3--3--3--3--3--3--3--3--|


  E  E  E  E  E  E  E  E     E  E  E  E  E  E  E  E   
--------------------------|--------------------------|
--------------------------|--------------------------|
--------------------------|--------------------------|
--0--0--0--0--0--0--0--0--|--0--0--0--0--0--0--0--0--|


  E  E  E  E  E  E  E  E     H        E.  S E  E     E  E  E  E  E  E  E  E   
--------------------------|-----------------------|--------------------------|
--------------------------|-----------------------|--------------------------|
--------------------------|-----------------------|--------------------------|
--0--0--0--0--0--0--0--0--|--3--------4---5-L--0--|--0--0--0--0--0--0--0--0--|


  E  E  E  E  E  E  E  E     E  E  E  E  E  E  E  E     W                 
--------------------------|--------------------------|-------------------|
--------------------------|--------------------------|-------------------|
--------------------------|--------------------------|-------------------|
--0--0--0--0--0--0--0--0--|--0--0--0--0--0--0--0--0--|--3----------------|


  H        E  E  E  E     E  E  E  E  E  E  E  E     E  E  E  E  E  E  E  E   
-----------------------|--------------------------|--------------------------|
-----------------------|--------------------------|--------------------------|
-----------------------|--------------------------|--------------------------|
--L-----------3-----0--|--0--0--0--0--0--0--0--0--|--0--0--0--0--0--0--0--0--|


  E  E  E  E  E  E  E  E     E  E  E  E  E  E  E  E   
--------------------------|--------------------------|
--------------------------|--------------------------|
--------------------------|--------------------------|
--0--0--0--0--0--0--0--0--|--0--0--0--0--0--0--0--0--|


  E  E  E  E  E  E  E  E     E  E  E  E  E  E  E  E   
--------------------------|--------------------------|
--------------------------|--------------------------|
--------------------------|--------------------------|
--0--0--0--0--0--0--0--0--|--0--0--0--0--0--0--0--0--|


  E  E  E  E  E  E  E  E     E  E  E  E  E  E  E  E   
--------------------------|--------------------------|
--------------------------|--------------------------|
--------------------------|-----------------------7--|
--0--0--0--0--0--0--0--0--|--0--0--0--0--0--3--L-----|


  E  E  E  E  E  E  E  E     E  E  E  E  E  E  E  E   
--------------------------|--------------------------|
--------------------------|--------------------------|
--------------------------|--------------------------|
--0--0--0--0--0--0--0--0--|--0--0--0--0--0--0--0--0--|


  E  E  E  E  E  E  E  E     E  E  E  E  E  E  E  E   
--------------------------|--------------------------|
--------------------------|--------------------------|
--------------------------|--------------------------|
--0--0--0--0--0--0--0--0--|--0--0--0--0--0--0--0--0--|


  E  E  E  E  E  E  E  E     E  E  E  E  E  E  E  E   
--------------------------|--------------------------|
--------------------------|--------------------------|
--------------------------|--------------------------|
--0--0--0--0--0--0--0--0--|--0--0--0--0--0--0--0--0--|


  E  E  E  E  E  E  E  E     E  E  E  E  E  E  E  E   
--------------------------|--------------------------|
--------------------------|--------------------------|
--------------------------|--------------------------|
--0--0--0--0--0--0--0--0--|--0--0--0--0--0--0--0--0--|


  E  E  E  E  E  E  E  E     E  E  E  E  E  E  E  E   
--------------------------|--------------------------|
--------------------------|--------------------------|
--2--2--2--2--2--2--2--2--|--2--2--2--2--2--2--2--2--|
--------------------------|--------------------------|


  E  E  E  E  E  E  E  E     E  E  E  E  E  E  E  E   
--------------------------|--------------------------|
--------------------------|--------------------------|
--2--2--2--2--2--2--2--2--|--2--2--2--2--2--2--2--2--|
--------------------------|--------------------------|


  E  E  E  E  E  E  E  E     E  E  E  E  E  E  E  E   
--------------------------|--------------------------|
--------------------------|--------------------------|
--2--2--2--2--2--2--2--2--|--2--2--2--2--2--2--2--2--|
--------------------------|--------------------------|


  E  E  E  E  E  E  E  E     E  E  E  E  E  E  Q       Q    E  E  Q    E  E   
--------------------------|-------------------------|------------------------|
--------------------------|-------------------------|------------------------|
--2--2--2--2--2--2--2--2--|--0--0--0--0--0----------|-------2----------------|
--------------------------|-------------------------|--0-------0--3----2--0--|


  E  E  E  E  Q    Q       Q    E  E  Q    E  E     E  E  E  E  E  E  E  E   
------------------------|------------------------|--------------------------|
------------------------|------------------------|--------------------------|
--------2---------------|-------2----------------|--------2-----------------|
--0--0-----0--3----2----|--0-------0--3----2--0--|--0--0-----0--3--2--3--0--|


  Q    E  E  Q    E  E     E  E  E  E  Q    Q       Q    E  E   
------------------------|------------------------|-------------|
------------------------|------------------------|-------------|
-------2----------------|--------2---------------|-------2-----|
--0-------0--3----2--0--|--0--0-----0--3----2----|--0-------0--|


  E  E  E  E  E  E  E  E     E  E  E  E  E  E  E  E   
--------------------------|--------------------------|
--------------------------|--------------------------|
--------------------------|--5--5--5--5--5--5--5--5--|
--3--3--3--3--3--3--3--3--|--------------------------|


  E  E  E  E  E  E  E  E     E  E  E  E  E  E  E  E   
--------------------------|--------------------------|
--------------------------|--------------------------|
--------------------------|--------------------------|
--0--0--0--0--0--0--0--0--|--0--0--0--0--0--0--0--0--|


  E  E  E  E  E  E  E  E     E  E  E  E  E  Q    E     E  E  E  E  E  E  E  E   
--------------------------|-------------------------|--------------------------|
--------------------------|-------------------------|--------------------------|
--------------------------|----------------------5--|--7-----------------------|
--0--0--0--0--0--0--0--0--|--0--0--0--0--0--3-------|-----0--0--0--0--0--0--0--|


  E  E  E  E  E  E  E  E     E  E  E  E  E  E  E  E   
--------------------------|--------------------------|
--------------------------|--------------------------|
--------------------------|--------------------------|
--0--0--0--0--0--0--0--0--|--0--0--0--0--0--0--0--0--|


  E  E  E  E  E  E  E  E     E  E  E  E  E  E  E  E   
--------------------------|--------------------------|
--------------------------|--------------------------|
-----------------------7--|--------------------------|
--0--0--0--0--0--3--------|--0--0--0--0--0--0--0--0--|


  E  E  E  E  E  E  E  E     E  E  E  E  E  E  E  E   
--------------------------|--------------------------|
--------------------------|--------------------------|
--------------------------|--------------------------|
--0--0--0--0--0--0--0--0--|--0--0--0--0--0--0--0--0--|


  E  E  E  E  E  E  E  E     E  E  E  E  E  E  E  E   
--------------------------|--------------------------|
--------------------------|--------------------------|
--------------------------|--------------------------|
--0--0--0--0--0--0--0--0--|--0--0--0--0--0--0--0--0--|


  E  E  E  E  E  E  E  E     E  E  E  E  E  E  E  E   
--------------------------|--------------------------|
--------------------------|--------------------------|
--------------------------|--------------------------|
--0--0--0--0--0--0--0--0--|--0--0--0--0--0--0--0--0--|


  E  E  E  E  E  E  E  E     E  E  E  E  E  E  E  E   
--------------------------|--------------------------|
--------------------------|--------------------------|
--------------------------|--------------------------|
--0--0--0--0--0--3--L--0--|--0--0--0--0--0--0--0--0--|


  E  E  E  E  E  E  E  E     E  E  E  E  E  E  E  E   
--------------------------|--------------------------|
--------------------------|--------------------------|
--------------------------|--------------------------|
--0--0--0--0--0--0--0--0--|--0--0--0--0--0--0--0--0--|


  E  E  E  E  E  E  E  E     E  E  E  E  E  E  E  E   
--------------------------|--------------------------|
--------------------------|--------------------------|
--------------------------|--------------------------|
--0--0--0--0--0--0--0--0--|--0--0--0--0--0--0--0--0--|


  E  E  E  E  E  E  E  E     E  E  E  E  E  E  E  E   
--------------------------|--------------------------|
--------------------------|--------------------------|
--------------------------|--------------------------|
--0--0--0--0--0--0--0--0--|--0--0--0--0--0--0--0--0--|


  E  E  E  E  E  E  E  E     E  E  E  E  E  E  E  E   
--------------------------|--------------------------|
--------------------------|--------------------------|
--------------------------|--2--2--2--2--2--2--2--2--|
--0--0--0--0--0--0--0--0--|--------------------------|


  E  E  E  E  E  E  E  E     E  E  E  E  E  E  E  E   
--------------------------|--------------------------|
--------------------------|--------------------------|
--2--2--2--2--2--2--2--2--|--2--2--2--2--2--2--2--2--|
--------------------------|--------------------------|


  E  E  E  E  E  E  E  E     E  E  E  E  E  E  E  E   
--------------------------|--------------------------|
--------------------------|--------------------------|
--2--2--2--2--2--2--2--2--|--2--2--2--2--2--2--2--2--|
--------------------------|--------------------------|


  E  E  E  E  E  E  E  E     E  E  E  E  E  E  E  E     E  E  E  E  E  E  Q     
--------------------------|--------------------------|-------------------------|
--------------------------|--------------------------|-------------------------|
--2--2--2--2--2--2--2--2--|--2--2--2--2--2--2--2--2--|--0--0--0--0--0----------|
--------------------------|--------------------------|-------------------------|


  Q    E  E  Q    E  E     E  E  E  E  Q    Q       Q    E  E  Q    E  E   
------------------------|------------------------|------------------------|
------------------------|------------------------|------------------------|
-------2----------------|--------2---------------|-------2----------------|
--0-------0--3----2--0--|--0--0-----0--3----2----|--0-------0--3----2--0--|


  E  E  E  E  E  E  E  E     Q    E  E  Q    E  E     E  E  E  E  Q    Q     
--------------------------|------------------------|------------------------|
--------------------------|------------------------|------------------------|
--------2-----------------|-------2----------------|--------2---------------|
--0--0-----0--3--2--3--0--|--0-------0--3----2--0--|--0--0-----0--3----2----|


  Q    E  E     E  E  E  E  E  E  E  E     E  E  E  E  E  E  E  E   
-------------|--------------------------|--------------------------|
-------------|--------------------------|--------------------------|
-------2-----|--------------------------|--5--5--5--5--5--5--5--5--|
--0-------0--|--3--3--3--3--3--3--3--3--|--------------------------|


  E  E  E  E  E  E  E  E     E  E  E  E  E  E  E  E   
--------------------------|--------------------------|
--------------------------|--------------------------|
--------------------------|--------------------------|
--0--0--0--0--0--0--0--0--|--0--0--0--0--0--0--0--0--|


  E  E  E  E  E  E  E  E     E  E  E  E  E  E  E  E   
--------------------------|--------------------------|
--------------------------|--------------------------|
--------------------------|--------------------------|
--0--0--0--0--0--0--0--0--|--0--0--0--0--0--0--0--0--|


  E  E  E  E  E  E  E  E     E  E  E  E  E  E  E  E   
--------------------------|--------------------------|
--------------------------|--------------------------|
--------------------------|--------------------------|
--0--0--0--0--0--0--0--0--|--0--0--0--0--0--0--0--0--|


  E  E  E  E  E  E  E  E     E  E  E  E  E  E  E  E   
--------------------------|--------------------------|
--------------------------|--------------------------|
--------------------------|--------------------------|
--0--0--0--0--0--0--0--0--|--0--0--0--0--0--0--0--0--|


  E  E  E  E  E  E  E  E     E  E  E  E  E  E  E  E   
--------------------------|--------------------------|
--------------------------|--------------------------|
--2--2--2--2--2--2--2--2--|--------------------------|
--------------------------|--3--3--3--3--3--3--3--3--|


  E  E  E  E  E  E  E  E     E  E  E  E  E  E  E  E   
--------------------------|--------------------------|
--------------------------|--------------------------|
--2--2--2--2--2--2--2--2--|--0--0--0--0--0--0--------|
--------------------------|--------------------3--5--|


  E  E  E  E  E  E  E  E     E  E  E  E  E  E  E  E   
--------------------------|--------------------------|
--------------------------|--------------------------|
--2--2--2--2--2--2--2--2--|--------------------------|
--------------------------|--3--3--3--3--3--3--3--3--|


  E  E  E  E  E  E  E  E     E  E  E  E  E  E  E  E   
--------------------------|--------------------------|
--------------------------|--------------------------|
--2--2--2--2--2--2--2--2--|--0--0--0--0--0--0--0--0--|
--------------------------|--------------------------|


  E  E  E  E  E  E  E  E     E  E  E  E  E  E  E  E   
--------------------------|--------------------------|
--------------------------|--------------------------|
--2--2--2--2--2--2--2--2--|--------------------------|
--------------------------|--3--3--3--3--3--3--3--3--|


  E  E  E  E  E  E  E  E     E  E  E  E  E  E  E  E   
--------------------------|--------------------------|
--------------------------|--------------------------|
--2--2--2--2--2--2--2--2--|--0--0--0--0--0--0--0-----|
--------------------------|-----------------------3--|


  E  E  E  E  E  E  E  E     E  E  E  E  E  E  E  E   
--------------------------|--------------------------|
--------------------------|--------------------------|
--2--2--2--2--2--2--2--2--|--------------------------|
--------------------------|--3--3--3--3--3--3--3--3--|


  E  E  E  E  E  E  E  E     E  E  E  E  E  E  Q        Q    E  E  Q    E  E   
--------------------------|--------------------------|------------------------|
--------------------------|--------------------------|------------------------|
--2--2--2--2--2--2--2--2--|--0--0--0--0--0-----------|-------2----------------|
--------------------------|-----------------0--3~----|--0-------0--3----2--0--|


  E  E  E  E  Q    Q       Q    E  E  Q    E  E     E  E  E  E  Q    Q     
------------------------|------------------------|------------------------|
------------------------|------------------------|------------------------|
--------2---------------|-------2----------------|--------2---------------|
--0--0-----0--3----2----|--0-------0--3----2--0--|--0--0-----0--3----2----|


  Q    E  E  Q    Q       E  E  E  E  Q    Q       Q    E  E  Q    E  E   
-----------------------|------------------------|------------------------|
-----------------------|------------------------|------------------------|
-------2---------------|--------2---------------|-------2----------------|
--0-------0--3----2----|--0--0-----0--3----2----|--0-------0--3----2--0--|

                   
  E  E  E  E  Q    Q         Q                    E  E  Q    E  E   
------------------------||-----------------------------------------|
------------------------||*----------------------------------------|
--------2---------------||*-----------------------2----------------|
--0--0-----0--3----2----||---0-----------------------0--3----2--0--|


  E  E  E  E  Q    Q    14x  Q    E  E  Q    E  E     E  E  E  E  Q    Q     
-------------------------||------------------------|------------------------|
------------------------*||------------------------|------------------------|
--------2---------------*||-------2----------------|--------2---------------|
--0--0-----0--3----2-----||--0-------0--3----2--0--|--0--0-----0--3----2----|


  Q    E  E  Q    E  E     E  E  E  E  Q    Q       Q    E  E  Q    E  E   
------------------------|------------------------|------------------------|
------------------------|------------------------|------------------------|
-------2----------------|--------2---------------|-------2----------------|
--0-------0--3----2--0--|--0--0-----0--3----2----|--0-------0--3----2--0--|


  E  E  E  E  Q    Q       Q    E  E  Q    E  E     E  E  E  E  Q    Q     
------------------------|------------------------|------------------------|
------------------------|------------------------|------------------------|
--------2---------------|-------2----------------|--------2---------------|
--0--0-----0--3----2----|--0-------0--3----2--0--|--0--0-----0--3----2----|


  Q    E  E  Q    E  E     E  E  E  E  Q    Q       Q    E  E  Q    E  E   
------------------------|------------------------|------------------------|
------------------------|------------------------|------------------------|
-------2----------------|--------2---------------|-------2----------------|
--0-------0--3----2--0--|--0--0-----0--3----2----|--0-------0--3----2--0--|


  E  E  E  E  Q    Q       Q    E  E  Q    E  E     E  E  E  E  Q    Q     
------------------------|------------------------|------------------------|
------------------------|------------------------|------------------------|
--------2---------------|-------2----------------|--------2---------------|
--0--0-----0--3----2----|--0-------0--3----2--0--|--0--0-----0--3----2----|


    Q    E  E  Q    E  E     E  E  E  E  Q    Q     6x  W                 
|-------------------------|-------------------------||-------------------|
|*------------------------|------------------------*||-------------------|
|*-------2----------------|--------2---------------*||-------------------|
|---0-------0--3----2--0--|--0--0-----0--3----2-----||-------------------|


  W                   W                   W                 
-------------------|-------------------|-------------------|
-------------------|-------------------|-------------------|
-------------------|-------------------|-------------------|
-------------------|-------------------|-------------------|


  E  E  E  E  E  E  E  E     E  E  E  E  E  E  E  E   
--------------------------|--------------------------|
--------------------------|--------------------------|
--2--2--2--2--2--2--2--2--|--2--2--2--2--2--2--2--2--|
--------------------------|--------------------------|


  E  E  E  E  E  E  E  E     E  E  E  E  E  E  E  E   
--------------------------|--------------------------|
--------------------------|--------------------------|
--2--2--2--2--2--2--2--2--|--2--2--2--2--2--2--2--2--|
--------------------------|--------------------------|


  E  E  E  E  E  E  E  E     E  E  E  E  E  E  E  E   
--------------------------|--------------------------|
--------------------------|--------------------------|
--2--2--2--2--2--2--2--2--|--2--2--2--2--2--2--2--2--|
--------------------------|--------------------------|


  E  E  E  E  E  E  E  E     E  E  E  E  E  E  Q       Q    E  E  Q    E  E   
--------------------------|-------------------------|------------------------|
--------------------------|-------------------------|------------------------|
--2--2--2--2--2--2--2--2--|--0--0--0--0--0----------|-------2----------------|
--------------------------|-------------------------|--0-------0--3----2--0--|


  E  E  E  E  Q    Q       Q    E  E  Q    E  E     E  E  E  E  E  E  E  E   
------------------------|------------------------|--------------------------|
------------------------|------------------------|--------------------------|
--------2---------------|-------2----------------|--------2-----------------|
--0--0-----0--3----2----|--0-------0--3----2--0--|--0--0-----0--3--2--3--0--|


  Q    E  E  Q    E  E     E  E  E  E  Q    Q       Q    E  E   
------------------------|------------------------|-------------|
------------------------|------------------------|-------------|
-------2----------------|--------2---------------|-------2-----|
--0-------0--3----2--0--|--0--0-----0--3----2----|--0-------0--|


  E  E  E  E  E  E  E  E     E  E  E  E  E  E  E  E     Q    E  E  Q    E  E   
--------------------------|--------------------------|------------------------|
--------------------------|--------------------------|------------------------|
--------------------------|--5--5--5--5--5--5--5--5--|-------2----------------|
--3--3--3--3--3--3--3--3--|--------------------------|--0-------0--3----2--0--|


  E  E  E  E  Q    Q       Q    E  E  Q    E  E     E  E  E  E  E  E  E  E   
------------------------|------------------------|--------------------------|
------------------------|------------------------|--------------------------|
--------2---------------|-------2----------------|--------2-----------------|
--0--0-----0--3----2----|--0-------0--3----2--0--|--0--0-----0--3--2--3--0--|


  Q    E  E  Q    E  E     E  E  E  E  Q    Q       Q    E  E   
------------------------|------------------------|-------------|
------------------------|------------------------|-------------|
-------2----------------|--------2---------------|-------2-----|
--0-------0--3----2--0--|--0--0-----0--3----2----|--0-------0--|


  E  E  E  E  E  E  E  E     E  E  E  E  E  E  E  E   
--------------------------|--------------------------|
--------------------------|--------------------------|
--------------------------|--5--5--5--5--5--5--5--5--|
--3--3--3--3--3--3--3--3--|--------------------------|


  E  E  E  E  E  E  E  E     W                   E  E  E  E  E  E  E  E   
--------------------------|-------------------|--------------------------|
--------------------------|-------------------|--------------------------|
-----------------------5--|--L----------------|--------------------------|
--0--0--0--0--0--0--0-----|-------------------|--0--0--0--0--0--0--0--5--|


  W                   E  E  E  E  E  E  E  E     W                 
-------------------|--------------------------|-------------------|
-------------------|--------------------------|-------------------|
-------------------|-----------------------5--|--L----------------|
--L----------------|--0--0--0--0--0--0--0-----|-------------------|


  |----3----|    |----3----|                                              
  Q    Q    Q    Q    Q    Q       Q    H.              W                 
--------------------------------|--------------------|-------------------|
--------------------------------|--------------------|-------------------|
--------------------------------|--------------------|-------------------|
--0----0----2----3----2----3----|--5-----------------|-------------------|


  W                   W                   W                 
-------------------|-------------------|-------------------|
-------------------|-------------------|-------------------|
-------------------|-------------------|-------------------|
-------------------|-------------------|-------------------|


  Q    S S S S S S S S S S S S      S S S S S S S S S S S S S S S S  6x
-------------------------------||------------------------------------||
-------------------------------||*----------------------------------*||
-------------------------------||*----------------------------------*||
--7----7-7-7-7-7-7-7-7-7-7-7-7-||---7-7-7-7-7-7-7-7-7-7-7-7-7-7-7-7--||


  S S S S S S S S S S S S S S S S    S S S S S S S S S S S S S S S S  
----------------------------------|----------------------------------|
----------------------------------|----------------------------------|
----------------------------------|----------------------------------|
--7-7-7-7-7-7-7-7-7-7-7-7-7-7-7-7-|--7-7-7-7-7-7-7-7-7-7-7-7-7-7-7-7-|


  W                   W                     H        H         3x
-------------------|-------------------||----------------------||
-------------------|-------------------||*--------------------*||
--5----------------|--L----------------||*--5--------5--------*||
-------------------|-------------------||----------------------||


  W                   W                   S E  H.           S  
-------------------|-------------------|----------------------|
-------------------|-------------------|----------------------|
--5----------------|--L----------------|----------------------|
-------------------|-------------------|--0-0--L--------------|


  W                   W                   W                  
-------------------|-------------------|-------------------||
-------------------|-------------------|-------------------||
-------------------|-------------------|-------------------||
-------------------|-------------------|-------------------||




Duration Legend
---------------
W - whole
H - half
Q - quarter
E - 8th
S - 16th
T - 32nd
X - 64th
. - note dotted
|-n-|  - n-tuplets


Tablature Legend
----------------
L - tied note
x - dead note
g - grace note
(n) - ghost note
> - accentuded note
NH - natural harmonic
AH - artificial harmonic
TH - tapped harmonic
SH - semi harmonic
PH - pitch harmonic
h - hammer on
p - pull off
b - bend
br - bendRelease
pb - preBend
pbr - preBendRelease
brb - bendReleaseBend
\n/ - tremolo bar dip
\n - tremolo bar dive
-/n - tremolo bar Release up
/n\ - tremolo bar inverted dip
/n - tremolo bar return
-\n - tremolo bar Release down
S - shift slide
s - legato slide
/ -  slide into from below or out of upwards
\ -  slide into from above or out of downwards
~ - vibrato
W - wide vibrato
tr - trill
TP - tremolo picking
T - tapping
S - slap
P - pop
< - fade in
^ - brush up
v - brush down
comments
We did not receive enough feedback on this tab! Please rate:
print report bad tab
1 2 3 4 5
I want to post or [tab]
guest
You may want to rate the tab now too:
select rating
Please do not post tabs as comments. Select "correction" instead!