Oops, an error
Loading. Please wait.

Bound To Fail Bass Tab

ver1
ver1

Whole song

Interactive

More versions @911Tabs.com
377 views 1 this week
no commentswrite comment
1 2 3 4 5
excellent!
x 1
Autoscroll
+/-
esc
set tempo
stop
Contributor
Hey! There's an official Ultimate Guitar app which is ideal
for learning songs when you're away from computer. Get the app
WARNING: You are trying to view
                                    content from Ultimate-Guitar.com
                                    in an unauthorized application,
                                    which is prohibited.

                                    Please use an official Ultimate
                                    Guitar Tabs application for iPhone,
                                    iPad or Android to access legitimate
                                    chords, guitar, bass, and drum tabs
                                    from Ultimate-Guitar.com database.

                                    Type "ultimate guitar tabs" in Apple
                                    App Store's or Android Market's
                                    search to find the application.
                                Bound to fail                                   

Transcribed by an unregistered user

                                                                          Accept
Bass



     H        H           Q    Q    Q    Q       H        H         
G||--------------------|----------------------|--------------------|
D||--------------------|----------------------|--------------------|
A||-----------7--------|--5----7--------------|-----------5--------|
E||--5-----------------|------------5----4----|--2-----------------|


  |----3----|                                                          
  Q    Q    Q    H           H        H           Q    Q    Q    Q     
--------------------------|--------------------|----------------------|
--------------------------|--------------------|----------------------|
--2----2----2----7--------|-----------7--------|--5----7--------------|
--------------------------|--5-----------------|------------5----4----|


      |----3----|              |----3----|                                  
  E.  Q    Q    Q    Q    S    Q    Q    Q    H           W                 
----------------------------|--------------------------|-------------------|
----------------------------|--------------------------|-------------------|
----------------5----L----L-|-----------------7--------|--L----------------|
--2---2----2----------------|--3----3----3-------------|-------------------|


  H             S S E  E  S S E  E  S S E     S S E  E  S S E  E  E  E   
-----------||------------------------------|----------------------------|
-----------||*-----------------------------|----------------------------|
--L--------||*-----------------------------|----------------------------|
-----------||---0-2-2--2--0-2-2--2--0-2-5--|--0-2-2--2--0-2-2--2--5--3--|


  S S E  E  S S E  E  S S E     S S E  E  S S Q    Q       
-----------------------------|---------------------------||
-----------------------------|--------------------------*||
-----------------------------|----------------5----7----*||
--0-2-2--2--0-2-2--2--0-2-5--|--0-0-2--2--0-2------------||


  E  S S E  S S E  S S E  S S    E  S S E  S S E  S S E  S S  
------------------------------|------------------------------|
------------------------------|------------------------------|
------------------------------|------------------------------|
--9--9-9-9--9-9-9--9-9-9--9-9-|--9--9-9-9--9-9-9--9-9-9--9-9-|


  E  S S E  S S E  S S E  S S    E  S S E  S S E  E  S E.   
------------------------------|----------------------------|
------------------------------|----------------------------|
------------------------------|-------------------7--------|
--9--9-9-9--9-9-9--9-9-9--9-9-|--9--9-9-9--9-9-9-----9-7---|


  E  S S E  S S E  S S E  S S    E  S S E  S S E  S S E  S S  
------------------------------|------------------------------|
------------------------------|------------------------------|
------------------------------|------------------------------|
--9--9-9-9--9-9-9--9-9-9--9-9-|--9--9-9-9--9-9-9--9-9-9--9-9-|


  H        Q    E  E     Q    E  Q.     S E.     E  S S E  S S E  S S E  S S  
----------------------|-----------------------|------------------------------|
----------------------|-----------------------|------------------------------|
----------------------|-----------------------|------------------------------|
--5--------4----2--0--|--0-------2------L-7---|--9--9-9-9--9-9-9--9-9-9--9-9-|


  E  S S E  S S E  S S E  S S    E  S S E  S S E  S S E  S S  
------------------------------|------------------------------|
------------------------------|------------------------------|
------------------------------|------------------------------|
--9--9-9-9--9-9-9--9-9-9--9-9-|--9--9-9-9--9-9-9--9-9-9--9-9-|


  E  S S E  S S E  E  S E.     E  S S E  S S E  S S E  S S  
----------------------------|------------------------------|
----------------------------|------------------------------|
-------------------7--------|------------------------------|
--9--9-9-9--9-9-9-----9-7---|--9--9-9-9--9-9-9--9-9-9--9-9-|


  E  S S E  S S E  S S E  S S    H        Q    E  E     Q    E  Q.     E  E   
------------------------------|----------------------|-----------------------|
------------------------------|----------------------|-----------------------|
------------------------------|----------------------|-----------------------|
--9--9-9-9--9-9-9--9-9-9--9-9-|--5--------4----2--0--|--0-------2------L--0--|


  H.           Q       H.           E  E     W                 
--------------------|---------------------|-------------------|
--------------------|---------------------|-------------------|
--------------------|---------------------|-------------------|
--L------------L----|--2------------L--0--|--L----------------|


            |----3----|                                     
  E  Q.     Q    Q    Q         S S E  E  S S E  E  S S E   
---------------------------||------------------------------|
---------------------------||*-----------------------------|
---------------------------||*-----------------------------|
--2---------5----5----5----||---0-2-2--2--0-2-2--2--0-2-5--|


  S S E  E  S S E  E  E  E     S S E  E  S S E  E  S S E   
----------------------------|-----------------------------|
----------------------------|-----------------------------|
----------------------------|-----------------------------|
--0-2-2--2--0-2-2--2--5--3--|--0-2-2--2--0-2-2--2--0-2-5--|


  S S E  E  S S Q    Q         E  S S E  S S E  S S E  S S  
---------------------------||------------------------------|
--------------------------*||------------------------------|
----------------5----7----*||------------------------------|
--0-0-2--2--0-2------------||--9--9-9-9--9-9-9--9-9-9--9-9-|


  E  S S E  S S E  S S E  S S    E  S S E  S S E  S S E  S S  
------------------------------|------------------------------|
------------------------------|------------------------------|
------------------------------|------------------------------|
--9--9-9-9--9-9-9--9-9-9--9-9-|--9--9-9-9--9-9-9--9-9-9--9-9-|


  E  S S E  S S E  E  S E.     E  S S E  S S E  S S E  S S  
----------------------------|------------------------------|
----------------------------|------------------------------|
-------------------7--------|------------------------------|
--9--9-9-9--9-9-9-----9-7---|--9--9-9-9--9-9-9--9-9-9--9-9-|


  E  S S E  S S E  S S E  S S    H        Q    E  E     Q    E  Q.     E  E   
------------------------------|----------------------|-----------------------|
------------------------------|----------------------|-----------------------|
------------------------------|----------------------|-----------------------|
--9--9-9-9--9-9-9--9-9-9--9-9-|--5--------4----2--0--|--0-------2------L--0--|


  H.           Q       H.           E  E     W                 
--------------------|---------------------|-------------------|
--------------------|---------------------|-------------------|
--------------------|---------------------|-------------------|
--L------------L----|--2------------L--0--|--L----------------|


            |----3----|                                   
  E  Q.     Q    Q    Q       S S E  E  S S E  E  S S E   
---------------------------|-----------------------------|
---------------------------|-----------------------------|
---------------------------|-----------------------------|
--2---------5----5----5----|--0-2-2--2--0-2-2--2--0-2-5--|


  S S E  E  S S E  E  E  E     S S E  E  S S E  E  S S E   
----------------------------|-----------------------------|
----------------------------|-----------------------------|
----------------------------|-----------------------------|
--0-2-2--2--0-2-2--2--5--3--|--0-2-2--2--0-2-2--2--0-2-5--|


  S S E  E  S S Q    Q       S S E  E  S S E  E  S S E   
--------------------------|-----------------------------|
--------------------------|-----------------------------|
----------------5----7----|-----------------------------|
--0-0-2--2--0-2-----------|--0-2-2--2--0-2-2--2--0-2-5--|


  S S E  E  S S E  E  E  E     S S E  E  S S E  E  E  S S  
----------------------------|-----------------------------|
----------------------------|-----------------------------|
----------------------------|-----------------------------|
--0-2-2--2--0-2-2--2--5--3--|--0-2-2--2--0-2-2--2--2--2-3-|


  E  E  E  E  E  E  E  E     E  E  E  E  E  E  E  E   
--------------------------|--------------------------|
--------------------------|--------------------------|
--------------------------|--------------------------|
--L--3--3--3--3--3--3--3--|--2--2--2--2--2--2--2--3--|


  E  E  E  E  E  E  E  E     E  H        S S E  E   
--------------------------|------------------------|
--------------------------|------------------------|
--------------------------|------------------------|
--L--3--3--3--3--3--3--3--|--2-----------0-2-3--2--|


  E  S S E  S S E  S S E  S S    E  S S E  S S E  S S E  S S  
------------------------------|------------------------------|
------------------------------|------------------------------|
--3--3-3-3--3-3-3--3-3-3--3-3-|--2--2-2-2--2-2-2--2-2-2--2-2-|
------------------------------|------------------------------|


  E  S S E  S S E  S S E  S S    E  S S E  S S E  S S E  S S  
------------------------------|------------------------------|
------------------------------|------------------------------|
--3--3-3-3--3-3-3--3-3-3--3-3-|--2--2-2-2--2-2-2--2-2-2--2-2-|
------------------------------|------------------------------|


  E  S S E  S S E  S S E  S S    E  S S E  S S E  S S E  S S  
------------------------------|------------------------------|
------------------------------|------------------------------|
--3--3-3-3--3-3-3--3-3-3--3-3-|--2--2-2-2--2-2-2--2-2-2--2-2-|
------------------------------|------------------------------|


  E  S S E  S S E  S S E  S S    E  S S E  S S E  S S E  S S  
------------------------------|------------------------------|
------------------------------|------------------------------|
--3--3-3-3--3-3-3--3-3-3--3-3-|--2--2-2-2--2-2-2--2-2-2--2-2-|
------------------------------|------------------------------|


  E  S S E  S S E  S S E  S S    E  S S E  S S E  S S E  S S  
------------------------------|------------------------------|
------------------------------|------------------------------|
--3--3-3-3--3-3-3--3-3-3--3-3-|--2--2-2-2--2-2-2--2-2-2--2-2-|
------------------------------|------------------------------|


  E  S S E  S S E.  E.  E     Q    Q       H        H         
---------------------------|------------|--------------------|
---------------------------|------------|--------------------|
--3--3-3-3--3-3-5---3------|------------|-----------5--------|
------------------------5--|--7----5----|--3-----------------|


                                              |----3----|              
  Q    Q    Q    Q       H        H           Q    Q    Q    H         
----------------------|--------------------|--------------------------|
----------------------|--------------------|--------------------------|
--3----5--------------|-----------3--------|--0----0----0----5--------|
------------3----2----|--0-----------------|--------------------------|


                                                  |----3----|            
  H        H           Q    Q    Q    Q       E.  Q    Q    Q    Q    S  
--------------------|----------------------|----------------------------|
--------------------|----------------------|----------------------------|
-----------5--------|--3----5--------------|----------------3----L----L-|
--3-----------------|------------3----2----|--0---0----0----------------|


  |----3----|                                                      
  Q    Q    Q    H           W                   W                 
--------------------------|-------------------|-------------------|
--------------------------|-------------------|-------------------|
-----------------5--------|--L----------------|--L----------------|
--5----5----5-------------|-------------------|-------------------|


  H        H           E  E  E  E  E  E  E  E     E  E  E  E  E  E  E  E   
--------------------|--------------------------|--------------------------|
--------------------|--------------------------|--------------------------|
--L-----------------|--------------5--5--5--5--|--3--3--5--5--------------|
--------------------|--3--3--3--3--------------|--------------3--3--2--2--|


  E  E  E  E  E  E  E  E     E  E  E  E  E  E  E  E   
--------------------------|--------------------------|
--------------------------|--------------------------|
--------------3--3--3--3--|--0--0--0--0--5--5--5--5--|
--0--0--0--0--------------|--------------------------|


  E  E  E  E  E  E  E  E     E  E  E  E  E  E  E  E   
--------------------------|--------------------------|
--------------------------|--------------------------|
--------------5--5--5--5--|--3--3--5--5--------------|
--3--3--3--3--------------|--------------3--3--2--2--|


  E  E  E  E  E  E  E  E     E  E  E  E  E  E  E  E   
--------------------------|--------------------------|
--------------------------|--------------------------|
--------------3--3--3--3--|--------------5--5--5--5--|
--0--0--0--0--------------|--5--5--5--5--------------|


  E  E  E  E  E  E  E  E     E  E  E  E  E  E  E  E   
--------------------------|--------------------------|
--------------------------|--------------------------|
--------------5--5--5--5--|--3--3--5--5--------------|
--3--3--3--3--------------|--------------3--3--2--2--|


  E  E  E  E  E  E  E  E     E  E  E  E  E  E  E  E   
--------------------------|--------------------------|
--------------------------|--------------------------|
--------------3--3--3--3--|--------------5--5--5--5--|
--0--0--0--0--------------|--5--5--5--5--------------|


  E  E  E  E  E  E  E  E     E  E  E  E  E  E  E  E   
--------------------------|--------------------------|
--------------------------|--------------------------|
--------------5--5--5--5--|--3--3--5--5--------------|
--3--3--3--3--------------|--------------3--3--2--2--|


  E  E  E  E  E  E  E  E     E  E  E  E  E  E  E  E   
--------------------------|--------------------------|
--------------------------|--------------------------|
--------------3--3--3--3--|--------------5--5--5--5--|
--0--0--0--0--------------|--5--5--5--5--------------|


  E  E  E  E  E  E  E  E     E  E  E  E  E  E  E  E   
--------------------------|--------------------------|
--------------------------|--------------------------|
--------------5--5--5--5--|--3--3--5--5--------------|
--3--3--3--3--------------|--------------3--3--2--2--|


  E  E  E  E  E  E  E  E     E  E  E  E  E  E  E  E   
--------------------------|--------------------------|
--------------------------|--------------------------|
--------------3--3--3--3--|--0--0--0--0--5--5--5--5--|
--0--0--0--0--------------|--------------------------|


  E  E  E  E  E  E  E  E     E  E  E  E  E  E  E  E   
--------------------------|--------------------------|
--------------------------|--------------------------|
--------------5--5--5--5--|--3--3--5--5--------------|
--3--3--3--3--------------|--------------3--3--2--2--|


  E  E  E  E  E  E  E  E     E  E  E  E  E  E  E  E   
--------------------------|--------------------------|
--------------------------|--------------------------|
--------------3--3--3--3--|--0--0--0--0--5--5--5--5--|
--0--0--0--0--------------|--------------------------|


  E  E  E  E  E  E  E  E     E  E  E  E  E  E  E  E   
--------------------------|--------------------------|
--------------------------|--------------------------|
--------------5--5--5--5--|--3--3--5--5--------------|
--3--3--3--3--------------|--------------3--3--2--2--|


  E  E  E  E  E  E  E  E     E  E  E  E  E  E  E  E   
--------------------------|--------------------------|
--------------------------|--------------------------|
--------------3--3--3--3--|--0--0--0--0--5--5--5--5--|
--0--0--0--0--------------|--------------------------|


  E  E  E  E  E  E  E  E     E  E  E  E  E  E  E  E   
--------------------------|--------------------------|
--------------------------|--------------------------|
--------------5--5--5--5--|--3--3--5--5--------------|
--3--3--3--3--------------|--------------3--3--2--2--|


  E  E  E  E  E  E  E  E     E  E  E  E  E  E  E  E    
--------------------------|--------------------------||
--------------------------|--------------------------||
--------------3--3--3--3--|--0--0--0--0--5--5--5--5--||
--0--0--0--0--------------|--------------------------||




Duration Legend
---------------
W - whole
H - half
Q - quarter
E - 8th
S - 16th
T - 32nd
X - 64th
. - note dotted
|-n-|  - n-tuplets


Tablature Legend
----------------
L - tied note
x - dead note
g - grace note
(n) - ghost note
> - accentuded note
NH - natural harmonic
AH - artificial harmonic
TH - tapped harmonic
SH - semi harmonic
PH - pitch harmonic
h - hammer on
p - pull off
b - bend
br - bendRelease
pb - preBend
pbr - preBendRelease
brb - bendReleaseBend
\n/ - tremolo bar dip
\n - tremolo bar dive
-/n - tremolo bar Release up
/n\ - tremolo bar inverted dip
/n - tremolo bar return
-\n - tremolo bar Release down
S - shift slide
s - legato slide
/ -  slide into from below or out of upwards
\ -  slide into from above or out of downwards
~ - vibrato
W - wide vibrato
tr - trill
TP - tremolo picking
T - tapping
S - slap
P - pop
< - fade in
^ - brush up
v - brush down
comments
We did not receive enough feedback on this tab! Please rate:
print report bad tab
1 2 3 4 5
I want to post or [tab]
guest
You may want to rate the tab now too:
select rating
Please do not post tabs as comments. Select "correction" instead!