Oops, an error
Loading. Please wait.

Breaker Bass Tab

ver1
ver1

Whole song

Interactive

More versions @911Tabs.com
709 views 1 this week
no commentswrite comment
1 2 3 4 5
please rate
Autoscroll
+/-
esc
set tempo
stop
Contributor
Hey! There's an official Ultimate Guitar app which is ideal
for learning songs when you're away from computer. Get the app
WARNING: You are trying to view
                                    content from Ultimate-Guitar.com
                                    in an unauthorized application,
                                    which is prohibited.

                                    Please use an official Ultimate
                                    Guitar Tabs application for iPhone,
                                    iPad or Android to access legitimate
                                    chords, guitar, bass, and drum tabs
                                    from Ultimate-Guitar.com database.

                                    Type "ultimate guitar tabs" in Apple
                                    App Store's or Android Market's
                                    search to find the application.
                                    Breaker                                     

Transcribed by an unregistered user

                                                                          Accept
Bass



     H.           S S S S    H        E.  Q    S    H.           S S S S  
G||-----------------------|----------------------|-----------------------|
D||-----------------------|----------------------|-----------------------|
A||-----------------------|---------------5----L-|-----------------------|
E||-----------------0-0-0-|----------------------|-----------------0-0-0-|


  H        E.  Q    S    S S S S S S S S S S S S S S S S  
----------------------|----------------------------------|
----------------------|----------------------------------|
---------------5----L-|--7-7-7-7-7-7-7-7-7-7-7-7-7-7-----|
----------------------|------------------------------0-0-|


  S S S S S S S S S S S S S S S S    S S S S S S S S S S S S S S S S  
----------------------------------|----------------------------------|
----------------------------------|----------------------------------|
--7-7-7-7-7-7-7-7-7-7-7-5-5-5-5-5-|--7-7-7-7-7-7-7-7-7-7-7-7-7-7-----|
----------------------------------|------------------------------0-0-|


  S S S S S S S S S S S S S S S S    S S S S S S S S S S S S S S S S  
----------------------------------|----------------------------------|
----------------------------------|----------------------------------|
--7-7-7-7-7-7-7-7-7-7-7-5-5-5-5-5-|--7-7-7-7-7-7-7-7-7-7-7-7-7-7-7-7-|
----------------------------------|----------------------------------|


  S S S S S S S S S S S S S S S S    S S S S S S S S S S S S S S S S  
----------------------------------|----------------------------------|
----------------------------------|----------------------------------|
--7-7-7-7-7-7-7-7-7-7---5-5-5-5-5-|--7-7-7-7-7-7-7-7-7-7-7-7-7-7-7-7-|
----------------------0-----------|----------------------------------|


  S S S S S S S S S S S S S S S S    S S S S S S S S S S S S S S S S  
----------------------------------|----------------------------------|
----------------------------------|----------------------------------|
--7-7-7-7-7-7-7-7-7-7---5-5-5-5-5-|----------------------------------|
----------------------0-----------|--3-3-3-3-3-3-3-3-3-3-3-3-3-3-3-3-|


  S S S S S S S S S S S S S S S S    S S S S S S S S S S S S S S S S  
----------------------------------|----------------------------------|
----------------------------------|----------------------------------|
----------------------------------|----------------------------------|
--3-3-3-3-3-3-3-3-3-3-4-4-5-5-6-6-|--7-7-7-7-7-7-7-7-7-7-7-7-7-7-7-7-|


  S S S S S S S S S S S  S S S  S S    S S S S S S S S S S S S S S S S  
------------------------------------|----------------------------------|
--9-9-9-9-9-9-9-9-9-9-7----9-7------|----------------------------------|
------------------------10-----10-9-|--7-7-7-7-7-7-7-7-7-7-7-7-7-7-----|
------------------------------------|------------------------------0-0-|


  S S S S S S S S S S S S S S S S    S S S S S S S S S S S S S S S S  
----------------------------------|----------------------------------|
----------------------------------|----------------------------------|
--7-7-7-7-7-7-7-7-7-7-7-5-5-5-5-5-|--7-7-7-7-7-7-7-7-7-7-7-7-7-7-----|
----------------------------------|------------------------------0-0-|


  S S S S S S S S S S S S S S S S    S S S S S S S S S S S S S S S S  
----------------------------------|----------------------------------|
----------------------------------|----------------------------------|
--7-7-7-7-7-7-7-7-7-7-7-5-5-5-5-5-|--7-7-7-7-7-7-7-7-7-7-7-7-7-7-7-7-|
----------------------------------|----------------------------------|


  S S S S S S S S S S S S S S S S    S S S S S S S S S S S S S S S S  
----------------------------------|----------------------------------|
----------------------------------|----------------------------------|
--7-7-7-7-7-7-7-7-7-7---5-5-5-5-5-|--7-7-7-7-7-7-7-7-7-7-7-7-7-7-7-7-|
----------------------0-----------|----------------------------------|


  S S S S S S S S S S S S S S S S    S S S S S S S S S S S S S S S S  
----------------------------------|----------------------------------|
----------------------------------|----------------------------------|
--7-7-7-7-7-7-7-7-7-7---5-5-5-5-5-|----------------------------------|
----------------------0-----------|--3-3-3-3-3-3-3-3-3-3-3-3-3-3-3-3-|


  S S S S S S S S S S S S S S S S    S S S S S S S S S S S S S S S S  
----------------------------------|----------------------------------|
----------------------------------|----------------------------------|
----------------------------------|----------------------------------|
--3-3-3-3-3-3-3-3-3-3-4-4-5-5-6-6-|--7-7-7-7-7-7-7-7-7-7-7-7-7-7-7-7-|


  S S S S S S S S S S S  S S S  S S    E.  E.  E  Q.     E   
------------------------------------|-----------------------|
--9-9-9-9-9-9-9-9-9-9-7----9-7------|-----------------------|
------------------------10-----10-9-|-----------------------|
------------------------------------|--3---2---3--5------0--|


  E.  E.  E  E.  E.  E     E.  E.  E  H           E.  E.  E   E  Q.      
------------------------|----------------------|------------------------|
------------------------|----------------------|------------------------|
------------------------|----------------------|------------------------|
--8---7---5--8---7---5--|--3---2---3--5--------|--8---7---8--10---------|


  S S S S S S S S S S S S S S S S    S S S S S S S S S S S S S S S S  
----------------------------------|----------------------------------|
----------------------------------|----------------------------------|
--7-7-7-7-7-7-7-7-7-7-7-7-7-7-----|--7-7-7-7-7-7-7-7-7-7-7-5-5-5-5-5-|
------------------------------0-0-|----------------------------------|


  S S S S S S S S S S S S S S S S    S S S S S S S S  E  E  E  E     H         
----------------------------------|-------------------------------|-----------|
----------------------------------|-------------------------------|-----------|
--7-7-7-7-7-7-7-7-7-7-7-7-7-7-----|--7-7-7-7-7-7-7-7-10--9--7--5--|-----------|
------------------------------0-0-|-------------------------------|-----------|


  S S S S S S S S S S S S S S S S    S S S S S S S S S S S S S S S S  
----------------------------------|----------------------------------|
----------------------------------|----------------------------------|
--7-7-7-7-7-7-7-7-7-7-7-7-7-7-7-7-|--7-7-7-7-7-7-7-7-7-7---5-5-5-5-5-|
----------------------------------|----------------------0-----------|


  S S S S S S S S S S S S S S S S    S S S S S S S S S S S S S S S S  
----------------------------------|----------------------------------|
----------------------------------|----------------------------------|
--7-7-7-7-7-7-7-7-7-7-7-7-7-7-7-7-|--7-7-7-7-7-7-7-7-7-7---5-5-5-5-5-|
----------------------------------|----------------------0-----------|


  S S S S S S S S S S S S S S S S    S S S S S S S S S S S S S S S S  
----------------------------------|----------------------------------|
----------------------------------|----------------------------------|
----------------------------------|----------------------------------|
--3-3-3-3-3-3-3-3-3-3-3-3-3-3-3-3-|--3-3-3-3-3-3-3-3-3-3-4-4-5-5-6-6-|


  S S S S S S S S S S S S S S S S    S S S S S S S S S S S  S S S  S S  
----------------------------------|------------------------------------|
----------------------------------|--9-9-9-9-9-9-9-9-9-9-7----9-7------|
----------------------------------|------------------------10-----10-9-|
--7-7-7-7-7-7-7-7-7-7-7-7-7-7-7-7-|------------------------------------|


  E.  E.  E  Q.     E     E.  E.  E  E.  E.  E     E.  E.  E  H         
-----------------------|------------------------|----------------------|
-----------------------|------------------------|----------------------|
-----------------------|------------------------|----------------------|
--3---2---3--5------0--|--8---7---5--8---7---5--|--3---2---3--5--------|


  E.  E.  E   E  Q.        S S S S S S S S S S S S S S S S  
------------------------|----------------------------------|
------------------------|----------------------------------|
------------------------|--7-7-7-7-7-7-7-7-7-7-7-7-7-7-7-7-|
--8---7---8--10---------|----------------------------------|


  S S S S S S S S S S S S S S S S    S S S S S S S S S S S S S S S S  
----------------------------------|----------------------------------|
----------------------------------|----------------------------------|
--5-5-5-5-5-5-5-5-5-5-5-5-5-5-5-5-|--7-7-7-7-7-7-7-7-7-7-7-7-7-7-7-7-|
----------------------------------|----------------------------------|


  S S S S S S S S S S S S S S S S    S S S S S S S S S S S S S S S S  
----------------------------------|----------------------------------|
----------------------------------|----------------------------------|
------------------5-5-5-5-5-5-5-5-|--7-7-7-7-7-7-7-7-7-7-7-7-7-7-7-7-|
--3-3-3-3-3-3-3-3-----------------|----------------------------------|


  S S S S S S S S S S S S S S S S    S S S S S S S S S S S S S S S S  
----------------------------------|----------------------------------|
----------------------------------|----------------------------------|
--5-5-5-5-5-5-5-5-5-5-5-5-5-5-5-5-|--7-7-7-7-7-7-7-7-7-7-7-7-7-7-7-7-|
----------------------------------|----------------------------------|


  S S S S S S S S E.  E.  E     Q      Q    H           W                 
-----------------------------|-----------------------|-------------------|
-----------------------------|-----------------------|-------------------|
------------------7---5---3--|--2S----14-------------|-------------------|
--3-3-3-3-3-3-3-3------------|-----------------------|-------------------|


  S S  S S S  S S S  S S S  S S S  S S    S S S S S  S S S S S S  S S S S S  
---------------------------------------|------------------------------------|
---------------------------------------|------------------------------------|
--7-7-10-7-7-12-7-7-10-7-7-12-7-7-10-7-|--5-5-9-5-5-10-5-5-9-5-5-10-5-5-9-5-|
---------------------------------------|------------------------------------|


  S S  S S S  S S S  S S S  S S S  S S    S S S S S  S S S S S S  S S S S S  
---------------------------------------|------------------------------------|
---------------------------------------|------------------------------------|
--7-7-10-7-7-12-7-7-10-7-7-12-7-7-10-7-|--5-5-9-5-5-10-5-5-9-5-5-10-5-5-9-5-|
---------------------------------------|------------------------------------|


  E  Q.     E  E  Q       Q    E  E  H           E  E  H.            
-----------------------|----------------------|---------------------|
-----------------------|----------------------|---------------------|
------------9--9-------|----------------------|--9--9---------------|
--0--------------------|-------0--0-----------|---------------------|


  E.  Q    S E.  Q    S    E.  Q    S E.  Q    S  
------------------------|------------------------|
------------------------|------------------------|
--9---7----L-5---3----L-|--7---3----L-5---2----L-|
------------------------|------------------------|


  S S S S S S S S S S S S S S S S    E  E  E  E   
----------------------------------|--------------|
----------------------------------|--------------|
--2-2-2-2-2-2-2-2-2-2-2-2-2-2-2-2-|--------------|
----------------------------------|--3--2--3--2--|


  S S S S S S S S S S S S S S S S    E  E  E  E   
----------------------------------|--------------|
----------------------------------|--------------|
--2-2-2-2-2-2-2-2-2-2-2-2-2-2-2-2-|--------------|
----------------------------------|--3--2--3--2--|


  S S S S S S S S S S S S S S S S    E  S E  S H        E   
----------------------------------|------------------------|
----------------------------------|------------------------|
--4-4-4-4-4-4-4-4-4-4-4-4-4-4-4-4-|--4----4----7--------L--|
----------------------------------|------------------------|


  S S S S S S S S S S S S S S S S    S S S S S S S S S S S S S S S S  
----------------------------------|----------------------------------|
----------------------------------|----------------------------------|
--7-7-7-7-7-7-7-7-7-7-7-7-7-7-7-7-|--7-7-7-7-7-7-7-7-7-7---5-5-5-5-5-|
----------------------------------|----------------------0-----------|


  S S S S S S S S S S S S S S S S    S S S S S S S S S S S S S S S S  
----------------------------------|----------------------------------|
----------------------------------|----------------------------------|
--7-7-7-7-7-7-7-7-7-7-7-7-7-7-7-7-|--7-7-7-7-7-7-7-7-7-7---5-5-5-5-5-|
----------------------------------|----------------------0-----------|


  S S S S S S S S S S S S S S S S    S S S S S S S S S S S S S S S S  
----------------------------------|----------------------------------|
----------------------------------|----------------------------------|
----------------------------------|----------------------------------|
--3-3-3-3-3-3-3-3-3-3-3-3-3-3-3-3-|--3-3-3-3-3-3-3-3-3-3-4-4-5-5-6-6-|


  S S S S S S S S S S S S S S S S    S S S S S S S S S S S  S S S  S S  
----------------------------------|------------------------------------|
----------------------------------|--9-9-9-9-9-9-9-9-9-9-7----9-7------|
----------------------------------|------------------------10-----10-9-|
--7-7-7-7-7-7-7-7-7-7-7-7-7-7-7-7-|------------------------------------|


  E.  E.  E  Q.     E     E.  E.  E  E.  E.  E     E.  E.  E  H         
-----------------------|------------------------|----------------------|
-----------------------|------------------------|----------------------|
-----------------------|------------------------|----------------------|
--3---2---3--5------0--|--8---7---5--8---7---5--|--3---2---3--5--------|


  E.  E.  E   E  Q.        S S S S S S S S S S S S S S S S  
------------------------|----------------------------------|
------------------------|----------------------------------|
------------------------|--7-7-7-7-7-7-7-7-7-7-7-7-7-7-7-7-|
--8---7---8--10---------|----------------------------------|


  S S S S S S S S S S S S S S S S    S S S S S S S S S S S S S S S S  
----------------------------------|----------------------------------|
----------------------------------|----------------------------------|
--5-5-5-5-5-5-5-5-5-5-5-5-5-5-5-5-|--7-7-7-7-7-7-7-7-7-7-7-7-7-7-7-7-|
----------------------------------|----------------------------------|


  S S S S S S S S S S S S S S S S    S S S S S S S S S S S S S S S S  
----------------------------------|----------------------------------|
----------------------------------|----------------------------------|
------------------5-5-5-5-5-5-5-5-|--7-7-7-7-7-7-7-7-7-7-7-7-7-7-7-7-|
--3-3-3-3-3-3-3-3-----------------|----------------------------------|


  S S S S S S S S S S S S S S S S    S S S S S S S S S S S S S S S S  
----------------------------------|----------------------------------|
----------------------------------|----------------------------------|
--5-5-5-5-5-5-5-5-5-5-5-5-5-5-5-5-|--7-7-7-7-7-7-7-7-7-7-7-7-7-7-7-7-|
----------------------------------|----------------------------------|


  S S S S S S S S S S S S S S S S    S S  S S S  S S S  S S S  S S S  S S  
----------------------------------|---------------------------------------|
----------------------------------|---------------------------------------|
------------------5-5-5-5-5-5-5-5-|--7-7-10-7-7-12-7-7-10-7-7-12-7-7-10-7-|
--3-3-3-3-3-3-3-3-----------------|---------------------------------------|


  S S S S S  S S S S S S  S S S S S    S S  S S S  S S S  S S S  S S S  S S  
------------------------------------|---------------------------------------|
------------------------------------|---------------------------------------|
--5-5-9-5-5-10-5-5-9-5-5-10-5-5-9-5-|--7-7-10-7-7-12-7-7-10-7-7-12-7-7-10-7-|
------------------------------------|---------------------------------------|


  S S S S S S S S S S S  S S S S S    S S  S S S  S S S  S S S  S S S  S S  
-----------------------------------|---------------------------------------|
--5-5-9-5-5-9-5--------------------|---------------------------------------|
----------------5-9-5-5-10-5-5-9-5-|--7-7-10-7-7-12-7-7-10-7-7-12-7-7-10-7-|
-----------------------------------|---------------------------------------|


  S S S S S  S S S S S S  S S S S S    S S  S S S  S S S  S S S  S S S  S S  
------------------------------------|---------------------------------------|
------------------------------------|---------------------------------------|
--5-5-9-5-5-10-5-5-9-5-5-10-5-5-9-5-|--7-7-10-7-7-12-7-7-10-7-7-12-7-7-10-7-|
------------------------------------|---------------------------------------|


  S S S S S S S S E.  E.  E     W                   W                 
-----------------------------|-------------------|-------------------|
--5-5-9-5-5-9-5-5------------|-------------------|-------------------|
------------------7---5---3--|--2----------------|--L----------------|
-----------------------------|-------------------|-------------------|


  W                   W                   H        H          
-------------------|-------------------|--------------------||
-------------------|-------------------|--------------------||
--L----------------|--L----------------|--7-----------------||
-------------------|-------------------|--------------------||




Duration Legend
---------------
W - whole
H - half
Q - quarter
E - 8th
S - 16th
T - 32nd
X - 64th
. - note dotted
|-n-|  - n-tuplets


Tablature Legend
----------------
L - tied note
x - dead note
g - grace note
(n) - ghost note
> - accentuded note
NH - natural harmonic
AH - artificial harmonic
TH - tapped harmonic
SH - semi harmonic
PH - pitch harmonic
h - hammer on
p - pull off
b - bend
br - bendRelease
pb - preBend
pbr - preBendRelease
brb - bendReleaseBend
\n/ - tremolo bar dip
\n - tremolo bar dive
-/n - tremolo bar Release up
/n\ - tremolo bar inverted dip
/n - tremolo bar return
-\n - tremolo bar Release down
S - shift slide
s - legato slide
/ -  slide into from below or out of upwards
\ -  slide into from above or out of downwards
~ - vibrato
W - wide vibrato
tr - trill
TP - tremolo picking
T - tapping
S - slap
P - pop
< - fade in
^ - brush up
v - brush down
comments
We did not receive enough feedback on this tab! Please rate:
print report bad tab
1 2 3 4 5
I want to post or [tab]
guest
You may want to rate the tab now too:
select rating
Please do not post tabs as comments. Select "correction" instead!