Oops, an error
Loading. Please wait.

Breaker Live Tab

ver1
ver1

Whole song

Interactive

More versions @911Tabs.com
2,228 views 1 this week
1 commentread comment
1 2 3 4 5
excellent!
x 1
Autoscroll
+/-
esc
set tempo
stop
Contributor
Hey! There's an official Ultimate Guitar app which is ideal
for learning songs when you're away from computer. Get the app
WARNING: You are trying to view
                                    content from Ultimate-Guitar.com
                                    in an unauthorized application,
                                    which is prohibited.

                                    Please use an official Ultimate
                                    Guitar Tabs application for iPhone,
                                    iPad or Android to access legitimate
                                    chords, guitar, bass, and drum tabs
                                    from Ultimate-Guitar.com database.

                                    Type "ultimate guitar tabs" in Apple
                                    App Store's or Android Market's
                                    search to find the application.
#----------------------------------PLEASE NOTE---------------------------------#
#This file is the author's own work and represents their interpretation of the #
#song. You may only use this file for private study, scholarship, or research. #
#------------------------------------------------------------------------------#

BREAKER (LIVE) (Live)
As recorded by Accept
(From the 1997 Double Album WORLDWIDE AREAS)

Transcribed by UnGodin
        

Words and Music by Accept
Arranged by Accept

Gtr I (E A D G B E) - 'Heavy Distortion Guitar'
Gtr II (E A D G B E) - 'Chorus/Rhythm guitar'

   Intro
    Q=140
    G5
   8/8
    Gtr I
    PM--------------------------------------------------------------|
    S S S S S S S S S S S S S S S S   S S S S S S S S S S S S S S S S
||----------------------------------|----------------------------------||
||o---------------------------------|---------------------------------o||
||----------------------------------|----------------------------------||
||----------------------------------|----------------------------------||
||o---------------------------------|---------------------------------o||
||--3-3-3-3-3-3-3-3-3-3-3-3-3-3-3-3-|-3-3-3-3-3-3-3-3-3-3-3-3-3-3-3-3--||


   Pre-Verse + Verse
    E5                                                            D5    A5
    PM|    PM     PM|      PM  PM|         PM   PM     PM|      PM
    S S  S S S  S S S  S S S S S S E   +S  S  S S S  S S S  S S S E +S  E  6x
||-----------------------------------|-------------------------------------||
||o----------------------------------|------------------------------------o||
||-----------------------------------|-------------------------------------||
||---------------------------9-----2-|-(2)------------------------7-(7)-2--||
||o-----10---9-10-----10-9---7-----2-|-(2)---10---9-10-----10-9---5-(5)-0-o||
||--0-0----0------0-0------0---0-0-0-|-(0)-0----0------0-0------0----------||


 Pre-Chorus
  G5                                                    G#5 A5  A#5
  PM--------------------------------------------------------------|
  S S S S S S S S S S S S S S S S   S S S S S S S S S S S S S S S S
|---------------------------------|---------------------------------||
|---------------------------------|---------------------------------||
|---------------------------------|---------------------------------||
|---------------------------------|---------------------------------||
|---------------------------------|---------------------------------||
|-3-3-3-3-3-3-3-3-3-3-3-3-3-3-3-3-|-3-3-3-3-3-3-3-3-3-3-4-4-5-5-6-6-||


  B5
  H    H      H    H
|-----------|-----------||
|-----------|-----------||
|-4----4----|-4----4----||
|-4----4----|-4----4----||
|-2----2----|-2----2----||
|-----------|-----------||


   Verse (2)
    E5                                                            D5    A5
    PM|    PM     PM|      PM  PM|         PM   PM     PM|      PM
    S S  S S S  S S S  S S S S S S E   +S  S  S S S  S S S  S S S E +S  E  4x
||-----------------------------------|-------------------------------------||
||o----------------------------------|------------------------------------o||
||-----------------------------------|-------------------------------------||
||---------------------------9-----2-|-(2)------------------------7-(7)-2--||
||o-----10---9-10-----10-9---7-----2-|-(2)---10---9-10-----10-9---5-(5)-0-o||
||--0-0----0------0-0------0---0-0-0-|-(0)-0----0------0-0------0----------||


 Pre-Chorus (2)
  G5                                                    G#5 A5  A#5
  PM--------------------------------------------------------------|
  S S S S S S S S S S S S S S S S   S S S S S S S S S S S S S S S S
|---------------------------------|---------------------------------|
|---------------------------------|---------------------------------|
|---------------------------------|---------------------------------|
|---------------------------------|---------------------------------|
|---------------------------------|---------------------------------|
|-3-3-3-3-3-3-3-3-3-3-3-3-3-3-3-3-|-3-3-3-3-3-3-3-3-3-3-4-4-5-5-6-6-|


  B5
  H    H      H    H
|-----------|-----------||
|-----------|-----------||
|-4----4----|-4----4----||
|-4----4----|-4----4----||
|-2----2----|-2----2----||
|-----------|-----------||


 Interlude
  G5 F#G5A5     C5    B5    A5C5    B5    A5
     PM|        PM------------------------|
  Q  E E H      E +S  E +S  E E +S  E +S  E
|-------------|-----------------------------|
|-------------|-----------------------------|
|-------------|-----------------------------|
|-5------2----|-----------------------------|
|-5--4-5-0----|-3-(3)-2-(2)-0-3-(3)-2-(2)-0-|
|-3--2-3------|-----------------------------|


  G5 F#G5A5     C5    B5    C5D5
     PM|
  Q  E E H      E +S  E +S  E h
|-------------|--------------------||
|-------------|--------------------||
|-------------|--------------------||
|-5------2----|---------------7----||
|-5--4-5-0----|-3-(3)-2-(2)-3-5----||
|-3--2-3------|--------------------||


 Chorus
  E5         D5         E5         G5    D5
  W          W          W           H     H
|----------|----------|----------|-------------|
|----------|----------|----------|-------------|
|-9--------|-7--------|-9--------|-12-----7----|
|-9--------|-7--------|-9--------|-12-----7----|
|-7--------|-5--------|-7--------|-10-----5----|
|-0--------|----------|-0--------|-------------|
|
| Gtr II
| W          W          W           H     H
|----------|----------|----------|-------------|
|----------|-3--------|----------|-------------|
|----------|-2--------|----------|-------11----|
|-2--------|-0--------|-2--------|--5----12----|
|-2--------|----------|-2--------|--5----------|
|-0--------|----------|-0--------|--3----------|


  E5         D5         E5         G5          E5    D5    C5B5    G5F#5
                                                                   PM--|
  W          W          W           W          E +S  E +S  E E +S  E E +S
|----------|----------|----------|-----------|------------------------------||
|----------|----------|----------|-----------|------------------------------||
|-9--------|-7--------|-9--------|-12--------|------------------------------||
|-9--------|-7--------|-9--------|-12--------|-9-(9)-7-(7)-5-4-(4)----------||
|-7--------|-5--------|-7--------|-10--------|-7-(7)-5-(5)-3-2-(2)-5-4-(4)--||
|-0--------|----------|-0--------|-----------|---------------------3-2-(2)--||
|
|                                                                  PM--|
| W          W          W           W          E +S  E +S  E E +S  E E +S
|----------|----------|----------|-----------|------------------------------||
|----------|-3--------|----------|-----------|------------------------------||
|----------|-2--------|----------|-----------|------------------------------||
|-2--------|-0--------|-2--------|--5--------|-9-(9)-7-(7)-5-4-(4)----------||
|-2--------|----------|-2--------|--5--------|-7-(7)-5-(5)-3-2-(2)-5-4-(4)--||
|-0--------|----------|-0--------|--3--------|---------------------3-2-(2)--||


   Verse (3)
    E5                                                            D5    A5
    PM|    PM     PM|      PM  PM|         PM   PM     PM|      PM
    S S  S S S  S S S  S S S S S S E   +S  S  S S S  S S S  S S S E +S  E  6x
||-----------------------------------|-------------------------------------||
||o----------------------------------|------------------------------------o||
||-----------------------------------|-------------------------------------||
||---------------------------9-----2-|-(2)------------------------7-(7)-2--||
||o-----10---9-10-----10-9---7-----2-|-(2)---10---9-10-----10-9---5-(5)-0-o||
||--0-0----0------0-0------0---0-0-0-|-(0)-0----0------0-0------0----------||


 Pre-Chorus (3)
  G5
  PM--------------------------------------------------------------|
  S S S S S S S S S S S S S S S S   S S S S S S S S S S S S S S S S
|---------------------------------|---------------------------------|
|---------------------------------|---------------------------------|
|---------------------------------|---------------------------------|
|---------------------------------|---------------------------------|
|---------------------------------|---------------------------------|
|-3-3-3-3-3-3-3-3-3-3-3-3-3-3-3-3-|-3-3-3-3-3-3-3-3-3-3-4-4-5-5-6-6-|


  B5
  H    H      H    H
|-----------|-----------||
|-----------|-----------||
|-4----4----|-4----4----||
|-4----4----|-4----4----||
|-2----2----|-2----2----||
|-----------|-----------||


 Interlude (2)
  G5 F#G5A5     C5    B5    A5C5    B5    A5
     PM|        PM------------------------|
  Q  E E H      E +S  E +S  E E +S  E +S  E
|-------------|-----------------------------|
|-------------|-----------------------------|
|-------------|-----------------------------|
|-5------2----|-----------------------------|
|-5--4-5-0----|-3-(3)-2-(2)-0-3-(3)-2-(2)-0-|
|-3--2-3------|-----------------------------|


  G5 F#G5A5     C5    B5    C5D5
     PM|
  Q  E E H      E +S  E +S  E h
|-------------|--------------------||
|-------------|--------------------||
|-------------|--------------------||
|-5------2----|---------------7----||
|-5--4-5-0----|-3-(3)-2-(2)-3-5----||
|-3--2-3------|--------------------||


 Chorus (2)
  E5         D5         E5         G5    D5
  W          W          W           H     H
|----------|----------|----------|-------------|
|----------|----------|----------|-------------|
|-9--------|-7--------|-9--------|-12-----7----|
|-9--------|-7--------|-9--------|-12-----7----|
|-7--------|-5--------|-7--------|-10-----5----|
|-0--------|----------|-0--------|-------------|
|
| Gtr II
| W          W          W           H     H
|----------|----------|----------|-------------|
|----------|-3--------|----------|-------------|
|----------|-2--------|----------|-------11----|
|-2--------|-0--------|-2--------|--5----12----|
|-2--------|----------|-2--------|--5----------|
|-0--------|----------|-0--------|--3----------|


  E5         D5         E5         G5
  W          W          W           W
|----------|----------|----------|-----------|
|----------|----------|----------|-----------|
|-9--------|-7--------|-9--------|-12--------|
|-9--------|-7--------|-9--------|-12--------|
|-7--------|-5--------|-7--------|-10--------|
|-0--------|----------|-0--------|-----------|
|
| W          W          W           W
|----------|----------|----------|-----------|
|----------|-3--------|----------|-----------|
|----------|-2--------|----------|-----------|
|-2--------|-0--------|-2--------|--5--------|
|-2--------|----------|-2--------|--5--------|
|-0--------|----------|-0--------|--3--------|


  E5    D5    C5
  E +S  E +S  E H         +w
|-----------------------|-----------||
|-----------------------|-----------||
|-----------------------|-----------||
|-9-(9)-7-(7)-5---------|-----------||
|-7-(7)-5-(5)-3-2tr3----|-(2tr3)----||
|-----------------------|-----------||
|
| E +S  E +S  E H         +W
|-----------------------|-----------||
|-----------------------|-----------||
|---------------4tr5----|-(4tr5)----||
|-9-(9)-7-(7)-5---------|-----------||
|-7-(7)-5-(5)-3---------|-----------||
|-----------------------|-----------||


   Guitar Break
    A5
    PM|   PM|   PM|   PM|   PM|       PM|   PM|   PM|   PM|   PM|
    S S S S S S S S S S S S S S S S   S S S S S S S S S S S S S S S S
||----------------------------------|----------------------------------|
||o---------------------------------|----------------------------------|
||----------------------------------|----------------------------------|
||------5-----7-----5-----7-----5h7-|-----5-----7-----5-----7-----5h7--|
||o-7-7---7-7---7-7---7-7---7-7-----|-7-7---7-7---7-7---7-7---7-7------|
||----------------------------------|----------------------------------|


  G5
  PM|   PM|   PM|   PM|   PM|       PM|   PM|   PM|   PM|   PM|
  S S S S S S S S S S S S S S S S   S S S S S S S S S S S S S S S S
|---------------------------------|----------------------------------||
|---------------------------------|---------------------------------o||
|---------------------------------|----------------------------------||
|-----4-----5-----4-----5-----4h5-|-----4-----5-----4-----5-----4h5--||
|-5-5---5-5---5-5---5-5---5-5-----|-5-5---5-5---5-5---5-5---5-5-----o||
|---------------------------------|----------------------------------||


  A5
  PM|   PM|   PM|   PM|   PM|       PM|   PM|   PM|   PM|   PM|
  S S S S S S S S S S S S S S S S   S S S S S S S S S S S S S S S S
|---------------------------------|---------------------------------|
|---------------------------------|---------------------------------|
|---------------------------------|---------------------------------|
|-----5-----7-----5-----7-----5h7-|-----5-----7-----5-----7-----5h7-|
|-7-7---7-7---7-7---7-7---7-7-----|-7-7---7-7---7-7---7-7---7-7-----|
|---------------------------------|---------------------------------|


  G5                                N.C.
                                     \1
  PM|   PM|   PM|   PM|   PM|
  S S S S S S S S S S S S S S S S    W
|---------------------------------|-<5>----|
|---------------------------------|-<5>----|
|---------------------------------|-<5>----|
|-----4-----5-----4-----5-----4h5-|-<7>----|
|-5-5---5-5---5-5---5-5---5-5-----|--------|
|---------------------------------|--------|


    A5                                G5
    PM|   PM|   PM|   PM|   PM|       PM|   PM|   PM|   PM|   PM|
    S S S S S S S S S S S S S S S S   S S S S S S S S S S S S S S S S   4x
||----------------------------------|-----------------------------------||
||o---------------------------------|----------------------------------o||
||----------------------------------|-----------------------------------||
||------5-----7-----5-----7-----5h7-|-----4-----5-----4-----5-----4h5---||
||o-7-7---7-7---7-7---7-7---7-7-----|-5-5---5-5---5-5---5-5---5-5------o||
||----------------------------------|-----------------------------------||


  A5                      G5
  PM|   PM|   PM|         PM|   PM|   PM|
  S S S S S S S S q  q    S S S S S S S S q  q
|-----------------------|-----------------------|
|-----------------------|-----------------------|
|-----------------------|-----------------------|
|-----5-----7-----4--4--|-----4-----5-----5--5--|
|-7-7---7-7---7-7-5--5--|-5-5---5-5---5-5-7--7--|
|-----------------------|-----------------------|


                                          \1______
  PM|   PM|   PM|         PM|   PM|   PM|
  S S S S S S S S q  q    S S S S S S S S h
|-----------------------|------------------------|
|-----------------------|------------------------|
|-----------------------|------------------------|
|-----5-----7-----4--4--|-----4-----5-----5------|
|-7-7---7-7---7-7-5--5--|-5-5---5-5---5-5-7------|
|-----------------------|------------------------|


  N.C.
  E +S  Q  +S  E +S  Q  +S    E +S  Q  +S  E +S  Q  +S
|---------------------------|---------------------------|
|---------------------------|---------------------------|
|---------------------------|---------------------------|
|-7-(7)-5--(5)-4-(4)-2--(2)-|-9-(9)-5--(5)-7-(7)-4--(4)-|
|-9-(9)-7--(7)-5-(5)-3--(3)-|-7-(7)-3--(3)-5-(5)-2--(2)-|
|---------------------------|---------------------------|


                                PM----|                               PM----|
  E +S  E S S S E +S  E S S S   E E E E E +S  E S S S   E +S  E S S S E E E E
|-----------------------------|-----------------------|--------------------------|
|-----------------------------|-----------------------|--------------------------|
|-----------------------------|-----------------------|--------------------------|
|-4-(4)-4-------4-(4)-4-------|---------4-(4)-4-------|-4-(4)-4------------------|
|-2-(2)-2-0h2p0-2-(2)-2-0h2p0-|-5-5-5-5-2-(2)-2-0h2p0-|-2-(2)-2-0h2p0-5-5-5-5----|
|-----------------------------|-3-2-3-2---------------|---------------3-2-3-2----|


                                            E5
                                            \4______/1___
  E +S  E S S S E +S  E S S S   E +s  E +s  H      +E
|-----------------------------|-------------------------|
|-----------------------------|-------------------------|
|-----------------------------|-------------9------(9)--|
|-6-(6)-6-------6-(6)-6-------|-6-(6)-6-(6)-9------(9)--|
|-4-(4)-4-2h4p2-4-(4)-4-2h4p2-|-4-(4)-4-(4)-7------(7)--|
|-----------------------------|-------------0------(0)--|


   Verse (4 and last)
    E5                                                            D5    A5
    PM|    PM     PM|      PM  PM|         PM   PM     PM|      PM
    S S  S S S  S S S  S S S S S S E   +S  S  S S S  S S S  S S S E +S  E
||-----------------------------------|-------------------------------------||
||o----------------------------------|------------------------------------o||
||-----------------------------------|-------------------------------------||
||---------------------------9-----2-|-(2)------------------------7-(7)-2--||
||o-----10---9-10-----10-9---7-----2-|-(2)---10---9-10-----10-9---5-(5)-0-o||
||--0-0----0------0-0------0---0-0-0-|-(0)-0----0------0-0------0----------||


 Pre-Chorus (4 and last)
  G5
  PM--------------------------------------------------------------|
  S S S S S S S S S S S S S S S S   S S S S S S S S S S S S S S S S
|---------------------------------|---------------------------------|
|---------------------------------|---------------------------------|
|---------------------------------|---------------------------------|
|---------------------------------|---------------------------------|
|---------------------------------|---------------------------------|
|-3-3-3-3-3-3-3-3-3-3-3-3-3-3-3-3-|-3-3-3-3-3-3-3-3-3-3-4-4-5-5-6-6-|


 Interlude (3 and last)
  G5 F#G5A5     C5    B5    A5C5    B5    A5  G5 F#G5A5     C5    B5    C5D5
     PM|        PM------------------------|      PM|
  Q  E E H      E +S  E +S  E E +S  E +S  E   Q  E E H      E +S  E +S  E h
|-------------|-----------------------------|-------------|--------------------|
|-------------|-----------------------------|-------------|--------------------|
|-------------|-----------------------------|-------------|--------------------|
|-5------2----|-----------------------------|-5------2----|---------------7----|
|-5--4-5-0----|-3-(3)-2-(2)-0-3-(3)-2-(2)-0-|-5--4-5-0----|-3-(3)-2-(2)-3-5----|
|-3--2-3------|-----------------------------|-3--2-3------|--------------------|


   Chorus (3 and last)
    E5         D5         E5         G5    D5
    W          W          W           H     H
||-----------|----------|----------|--------------||
||o----------|----------|----------|-------------o||
||--9--------|-7--------|-9--------|-12-----7-----||
||--9--------|-7--------|-9--------|-12-----7-----||
||o-7--------|-5--------|-7--------|-10-----5----o||
||--0--------|----------|-0--------|--------------||
|
|   Gtr II
|   W          W          W           H     H
||-----------|----------|----------|--------------||
||o----------|-3--------|----------|-------------o||
||-----------|-2--------|----------|-------11-----||
||--2--------|-0--------|-2--------|--5----12-----||
||o-2--------|----------|-2--------|--5----------o||
||--0--------|----------|-0--------|--3-----------||


 Guitar Solo
  E5
   T      T      T      T      T      T      T      T      T      T      T
   T T T  T T T  T T T  T T T  T T T  T T T  T T T  T T T  T T T  T T T  T T
|----------------------------------------------------------------------------|
|-10-7h8-12-7h8-10-7h8-12-7h8-10-7h8-12-7h8-10-7h8-12-7h8-10-7h8-12-7h8-10-7-|
|----------------------------------------------------------------------------|
|----------------------------------------------------------------------------|
|----------------------------------------------------------------------------|
|----------------------------------------------------------------------------|
|
|  W
|----------------------------------------------------------------------------|
|----------------------------------------------------------------------------|
|----------------------------------------------------------------------------|
|--2-------------------------------------------------------------------------|
|--2-------------------------------------------------------------------------|
|--0-------------------------------------------------------------------------|


  D5
  T      T     T      T     T      T     T      T     T      T     T
  T T T  T T T T T T  T T T T T T  T T T T T T  T T T T T T  T T T T T
|-------------------------------------------------------------------------|
|-8-5h7-10-5h7-8-5h7-10-5h7-8-5h7-10-5h7-8-5h7-10-5h7-8-5h7-10-5h7-8-5----|
|-------------------------------------------------------------------------|
|-------------------------------------------------------------------------|
|-------------------------------------------------------------------------|
|-------------------------------------------------------------------------|
|
| W
|-------------------------------------------------------------------------|
|-3-----------------------------------------------------------------------|
|-2-----------------------------------------------------------------------|
|-0-----------------------------------------------------------------------|
|-------------------------------------------------------------------------|
|-------------------------------------------------------------------------|


  E5
   T      T      T      T      T      T      T      T      T      T      T
   T T T  T T T  T T T  T T T  T T T  T T T  T T T  T T T  T T T  T T T  T T
|----------------------------------------------------------------------------|
|-10-7h8-12-7h8-10-7h8-12-7h8-10-7h8-12-7h8-10-7h8-12-7h8-10-7h8-12-7h8-10-7-|
|----------------------------------------------------------------------------|
|----------------------------------------------------------------------------|
|----------------------------------------------------------------------------|
|----------------------------------------------------------------------------|
|
|  W
|----------------------------------------------------------------------------|
|----------------------------------------------------------------------------|
|--9-------------------------------------------------------------------------|
|--9-------------------------------------------------------------------------|
|--7-------------------------------------------------------------------------|
|--0-------------------------------------------------------------------------|


  G5                                  D5
   T      T     T      T     T      T T      T     T      T     T      T
   T T T  T T T T T T  T T T T T T  T T T T  T T T T T T  T T T T T T  T
|--8-5h7-10-5h7-8-5h7-10-5h7-8-5h7-10---------------------------------------|
|-------------------------------------8-5h7-10-5h7-8-5h7-10-5h7-8-5h7-10----|
|---------------------------------------------------------------------------|
|---------------------------------------------------------------------------|
|---------------------------------------------------------------------------|
|---------------------------------------------------------------------------|
|
|  H                                  H
|---------------------------------------------------------------------------|
|---------------------------------------------------------------------------|
|-12----------------------------------7-------------------------------------|
|-12----------------------------------7-------------------------------------|
|-10----------------------------------5-------------------------------------|
|---------------------------------------------------------------------------|


  E5
   T      T      T      T      T      T      T      T      T      T      T
   T T T  T T T  T T T  T T T  T T T  T T T  T T T  T T T  T T T  T T T  T T
|----------------------------------------------------------------------------|
|-10-7h8-12-7h8-10-7h8-12-7h8-10-7h8-12-7h8-10-7h8-12-7h8-10-7h8-12-7h8-10-7-|
|----------------------------------------------------------------------------|
|----------------------------------------------------------------------------|
|----------------------------------------------------------------------------|
|----------------------------------------------------------------------------|
|
|  W
|----------------------------------------------------------------------------|
|----------------------------------------------------------------------------|
|----------------------------------------------------------------------------|
|--2-------------------------------------------------------------------------|
|--2-------------------------------------------------------------------------|
|--0-------------------------------------------------------------------------|


  D5
  T      T     T      T     T      T     T      T     T      T     T
  T T T  T T T T T T  T T T T T T  T T T T T T  T T T T T T  T T T T T
|-------------------------------------------------------------------------|
|-8-5h7-10-5h7-8-5h7-10-5h7-8-5h7-10-5h7-8-5h7-10-5h7-8-5h7-10-5h7-8-5----|
|-------------------------------------------------------------------------|
|-------------------------------------------------------------------------|
|-------------------------------------------------------------------------|
|-------------------------------------------------------------------------|
|
| W
|-------------------------------------------------------------------------|
|-3-----------------------------------------------------------------------|
|-2-----------------------------------------------------------------------|
|-0-----------------------------------------------------------------------|
|-------------------------------------------------------------------------|
|-------------------------------------------------------------------------|


  E5
   T      T      T      T      T      T      T      T      T      T      T
   T T T  T T T  T T T  T T T  T T T  T T T  T T T  T T T  T T T  T T T  T T
|----------------------------------------------------------------------------|
|-10-7h8-12-7h8-10-7h8-12-7h8-10-7h8-12-7h8-10-7h8-12-7h8-10-7h8-12-7h8-10-7-|
|----------------------------------------------------------------------------|
|----------------------------------------------------------------------------|
|----------------------------------------------------------------------------|
|----------------------------------------------------------------------------|
|
|  W
|----------------------------------------------------------------------------|
|----------------------------------------------------------------------------|
|--9-------------------------------------------------------------------------|
|--9-------------------------------------------------------------------------|
|--7-------------------------------------------------------------------------|
|--0-------------------------------------------------------------------------|


  G5                                  E5    D5    C5
   T      T     T      T     T      T
   T T T  T T T T T T  T T T T T T  T E +S  E +S  E   W
|--8-5h7-10-5h7-8-5h7-10-5h7-8-5h7-10---------------|---------|
|---------------------------------------------------|---------|
|-------------------------------------9-(9)-7-(7)-5-|-4tr5----|
|---------------------------------------------------|---------|
|---------------------------------------------------|---------|
|---------------------------------------------------|---------|
|
|  H                                  E +S  E +S  E   W
|---------------------------------------------------|---------|
|---------------------------------------------------|---------|
|-12------------------------------------------------|---------|
|-12----------------------------------9-(9)-7-(7)-5-|---------|
|-10----------------------------------7-(7)-5-(5)-3-|-2tr3----|
|---------------------------------------------------|---------|


  N.C.
  T T T T T T T T T T T T T T T T T T T T T T T T T T T T T T T T
|-----------------------------------------------------------------|
|-----------------------------------------------------------------|
|-4-5-4---4-5-4---------------------------------------------------|
|-------7-------7-5-4-5-7-5-4-5-4---------------------------------|
|---------------------------------7-5-3-5-3-2-3-5-3-2---2-3-2-3-2-|
|-----------------------------------------------------5-----------|


  T T T T T T T T T T T T T T T T T T T T T T T T T T T T T T T T
|--------------------------------------------------------------------|
|--------------------------------------------------------------------|
|--------------------------------------------------------------------|
|--------------------------------------------------------------------|
|-----------------0---0-2-3-5-3-2-7-5-3-5-3-2-3-5-3-2---2-3-2-3-2----|
|-5-3-2-0-2-3-2-3---3---------------------------------5--------------|


  B5
  Gtr II
  \7______
  w
|--------|
|--------|
|-4------|
|-4------|
|-2------|
|--------|


 Outro
  E5
  Gtrs I, II
      PM----------------------------------------------------------|
  S S S S S S S S S S S S S S S S   S S S S S S S S S S S S S S S S
|---------------------------------|---------------------------------|
|---------------------------------|---------------------------------|
|---------------------------------|---------------------------------|
|-9-9-----------------------------|---------------------------------|
|-5S7-7-7-7-7-7-7-7-7-7-7-7-7-7-7-|-7-7-7-7-7-7-7-7-7-7-7-7-7-7-7-7-|
|---------------------------------|---------------------------------|


      PM------------------------|       PM------------------------|
  S S S S S S S S S S S S S S S S   S S S S S S S S S S S S S S S S
|---------------------------------|---------------------------------|
|---------------------------------|---------------------------------|
|---------------------------------|---------------------------------|
|-9-9-----------------------------|-9-9-----------------------------|
|-5S7-7-7-7-7-7-7-7-7-7-7-7-7-7-7-|-5S7-7-7-7-7-7-7-7-7-7-7-7-7-7-7-|
|---------------------------------|---------------------------------|


      PM--------|     PM--------|       PM--------|     PM--------|
  S S S S S S S S S S S S S S S S   S S S S S S S S S S S S S S S S
|---------------------------------|---------------------------------|
|---------------------------------|---------------------------------|
|---------------------------------|---------------------------------|
|-9-9-------------9-9-------------|-9-9-------------9-9-------------|
|-5S7-7-7-7-7-7-7-5S7-7-7-7-7-7-7-|-5S7-7-7-7-7-7-7-5S7-7-7-7-7-7-7-|
|---------------------------------|---------------------------------|


  N.C.                              E5
  PM----------------------------|
  S S S S S S S S S S S S S S S S   Q  Q  Q  Q
|---------------------------------|-------------*|
|---------------------------------|-------------*|
|---------------------------------|-------------*|
|---------------------------------|-2--9--9--9--*|
|-5-7-5---5-----------------------|-2--7--7--7--*|
|-------7---7-5-7-5-3-5-3-2-3-2-0-|-0-----------*|



Duration Legend
---------------
W - whole; H - half; Q - quarter; E - 8th; S - 16th; T - 32nd; X - 64th; a - acciaccatura
+ - note tied to previous; . - note dotted; .. - note double dotted
Uncapitalized letters represent notes that are staccato (1/2 duration)
Irregular groupings are notated above the duration line
Duration letters will always appear directly above the note/fret number it represents the
duration for.  Duration letters with no fret number below them represent rests.  Multi-
bar rests are notated in the form Wxn, where n is the number of bars to rest for.  Low
melody durations appear below the staff

Tablature Legend
----------------
 h   - hammer-on
 p   - pull-off
 b   - bend
 pb  - pre-bend
 r   - bend release (if no number after the r, then release immediately)
 /\  - slide into or out of (from/to "nowhere")
 s   - legato slide
 S   - shift slide
<n> - natural harmonic
[n]  - artificial harmonic
n(n) - tapped harmonic
 ~   - vibrato
 tr  - trill
 T   - tap
 TP  - trem. picking
 PM  - palm muting
\n/  - tremolo bar dip; n = amount to dip
 \n  - tremolo bar down
 n/  - tremolo bar up
/n\  - tremolo bar inverted dip
 =   - hold bend; also acts as connecting device for hammers/pulls
 <> - volume swell (louder/softer)
 x   - on rhythm slash represents muted slash
 o   - on rhythm slash represents single note slash

Misc Legend
-----------
 |  - bar
||  - double bar
||o - repeat start
o|| - repeat end
*|  - double bar (ending)
 :  - bar (freetime)
 $  - Segno
 &  - Coda
Tempo markers - <E/E./Q/Q./H/H.> = BPM(8/16=s8/s16), where s8 = swing 8ths, s16 = swing 16ths

comments
We did not receive enough feedback on this tab! Please rate:
print report bad tab
1 2 3 4 5
1 comment total.
0 reply
Marius Vingis wrote on January 20 2009, 09:15 am

This one Rock's !!!!

I want to post or [tab]
guest
You may want to rate the tab now too:
select rating
Please do not post tabs as comments. Select "correction" instead!