Oops, an error
Loading. Please wait.

Cant Stand The Night Bass Tab

ver1
ver1

Whole song

Interactive

More versions @911Tabs.com
898 views 6 this week
no commentswrite comment
1 2 3 4 5
please rate
Autoscroll
+/-
esc
set tempo
stop
Contributor
Hey! There's an official Ultimate Guitar app which is ideal
for learning songs when you're away from computer. Get the app
WARNING: You are trying to view
                                    content from Ultimate-Guitar.com
                                    in an unauthorized application,
                                    which is prohibited.

                                    Please use an official Ultimate
                                    Guitar Tabs application for iPhone,
                                    iPad or Android to access legitimate
                                    chords, guitar, bass, and drum tabs
                                    from Ultimate-Guitar.com database.

                                    Type "ultimate guitar tabs" in Apple
                                    App Store's or Android Market's
                                    search to find the application.
                            Can't Stand the Night                               


                                                                          Accept
Bass
Transcribed by emad


     W                   Q    H.              W                 
G||-------------------|--------------------|-------------------|
D||-------------------|--------------------|--0----------------|
A||--0----------------|--0----0------------|-------------------|
E||-------------------|--------------------|-------------------|


  Q    H.              W                   Q    H.            
--------------------|-------------------|--------------------|
--------------------|--0----------------|--------------------|
--0----0------------|-------------------|--3----3------------|
--------------------|-------------------|--------------------|


  W                   Q    H.              W                 
-------------------|--------------------|-------------------|
-------------------|--------------------|-------------------|
--2----------------|--0----0------------|--0----------------|
-------------------|--------------------|-------------------|


  Q    H.              H.           E  E     E  E  Q    E  E  E  E   
--------------------|---------------------|-------------------------|
--------------------|--0------------L-----|-------------------------|
--0----0------------|------------------0--|--0-----0----0--------0--|
--------------------|---------------------|-----3----------3--3-----|


  W                   Q    H.              W                 
-------------------|--------------------|-------------------|
--0----------------|--------------------|-------------------|
-------------------|--3----3------------|--2----------------|
-------------------|--------------------|-------------------|


  H        E  E  E  E     W                   Q    H.            
-----------------------|-------------------|--------------------|
-----------------------|-------------------|--------------------|
--0-----------0--3-----|--0----------------|--0----0------------|
-----------3--------3--|-------------------|--------------------|


  W                   Q    H.              W                 
-------------------|--------------------|-------------------|
--0----------------|--------------------|--0----------------|
-------------------|--0----0------------|-------------------|
-------------------|--------------------|-------------------|


  Q    H.              W                   Q    H.            
--------------------|-------------------|--------------------|
--------------------|-------------------|--------------------|
--3----3------------|--2----------------|--0----0------------|
--------------------|-------------------|--------------------|


  W                   Q    H.              H.           E  E   
-------------------|--------------------|---------------------|
-------------------|--------------------|--0------------L-----|
--0----------------|--0----0------------|------------------0--|
-------------------|--------------------|---------------------|


  E  E  Q    E  E  E  E     W                   Q    H.            
-------------------------|-------------------|--------------------|
-------------------------|--0----------------|--------------------|
--0-----0----0--------0--|-------------------|--3----3------------|
-----3----------3--3-----|-------------------|--------------------|


  W                   Q    H.              W                 
-------------------|--------------------|-------------------|
-------------------|--------------------|-------------------|
--2----------------|--0----0------------|--0----------------|
-------------------|--------------------|-------------------|


  Q    H.              H.           E  E     E  E  Q    E  E  E  E   
--------------------|---------------------|-------------------------|
--------------------|--0------------L-----|-------------------------|
--0----0------------|------------------0--|--0-----0----0--------0--|
--------------------|---------------------|-----3----------3--3-----|


  W                   Q    H.              W                 
-------------------|--------------------|-------------------|
--0----------------|--------------------|-------------------|
-------------------|--3----3------------|--2----------------|
-------------------|--------------------|-------------------|


  H        E  E  E  E     W                   Q    H.            
-----------------------|-------------------|--------------------|
-----------------------|-------------------|--------------------|
--0-----------0--3-----|--0----------------|--0----0------------|
-----------3--------3--|-------------------|--------------------|


  H.           E  E     E  E  Q    E  E  E  E     W                 
---------------------|-------------------------|-------------------|
--0------------L-----|-------------------------|--0----------------|
------------------0--|--0-----0----0--------0--|-------------------|
---------------------|-----3----------3--3-----|-------------------|


  Q    H.              W                   E  E  E  E  E  E  E  E   
--------------------|-------------------|--------------------------|
--------------------|-------------------|-----------------0--------|
--3----3------------|--2----------------|--0-----0--2--3-----3--2--|
--------------------|-------------------|-----3--------------------|


  W                   W                   Q    H.            
-------------------|-------------------|--------------------|
-------------------|-------------------|--------------------|
--0----------------|--3----------------|--2----2------------|
-------------------|-------------------|--------------------|


  H.           E  E     E  E  Q    Q    Q       W                 
---------------------|-----------------------|-------------------|
--0------------L-----|-----------------------|-------------------|
------------------0--|--0-----0----0----2----|--3----------------|
---------------------|-----3-----------------|-------------------|


  Q    H.              E  E  E  E  H           E  E  E  E  Q    Q     
--------------------|-----------------------|------------------------|
--------------------|--------------7--------|------------------------|
--2----2------------|--0--0--0--0-----------|--0--0--0--0--0----2----|
--------------------|-----------------------|------------------------|


                                                    |----3----|     
  W                   Q    H.              H        Q    Q    Q     
-------------------|--------------------|--------------------------|
-------------------|--------------------|--0--------2----0---------|
--3----------------|--2----2------------|---------------------3----|
-------------------|--------------------|--------------------------|


  H        Q    Q       W                   W                 
---------------------|-------------------|-------------------|
---------------------|-------------------|-------------------|
--0--------0----2----|--3----------------|--2----------------|
---------------------|-------------------|-------------------|


  Q     H.              W                   Q    H.            
-------/2------------|-------------------|--------------------|
---------------------|-------------------|--------------------|
--0------------------|--0----------------|--0----0------------|
---------------------|-------------------|--------------------|


  H.           E  E     E  E  Q    E  E  E  E     H.           E  E   
---------------------|-------------------------|---------------------|
--0------------L-----|-------------------------|--0------------L-----|
------------------0--|--0-----0----0--------0--|------------------3--|
---------------------|-----3----------3--3-----|---------------------|


  E  E  Q    H           W                   W                 
----------------------|-------------------|-------------------|
----------------------|-------------------|-------------------|
--3--2--3----2--------|--2----------------|--0----------------|
----------------------|-------------------|-------------------|


  W                   Q    H.              H.           E  E   
-------------------|--------------------|---------------------|
-------------------|--------------------|--0------------L-----|
--0----------------|--0----0------------|------------------0--|
-------------------|--------------------|---------------------|


  E  E  Q    E  E  E  E     W                   Q    H.            
-------------------------|-------------------|--------------------|
-------------------------|--0----------------|--------------------|
--0-----0----0--------0--|-------------------|--3----3------------|
-----3----------3--3-----|-------------------|--------------------|


  W                   E  E  E  E  E  E  E  E     W                 
-------------------|--------------------------|-------------------|
-------------------|-----------------0--------|-------------------|
--2----------------|--0-----0--2--3-----3--2--|--0----------------|
-------------------|-----3--------------------|-------------------|


  W                   Q    H.              H.           E  E   
-------------------|--------------------|---------------------|
-------------------|--------------------|--0------------L-----|
--3----------------|--2----2------------|------------------0--|
-------------------|--------------------|---------------------|


  E  E  Q    Q    Q       W                   Q    H.            
-----------------------|-------------------|--------------------|
-----------------------|-------------------|--------------------|
--0-----0----0----2----|--3----------------|--2----2------------|
-----3-----------------|-------------------|--------------------|


  E  E  E  E  H           E  E  E  E  Q    Q       W                 
-----------------------|------------------------|-------------------|
--------------7--------|------------------------|-------------------|
--0--0--0--0-----------|--0--0--0--0--0----2----|--3----------------|
-----------------------|------------------------|-------------------|


                                |----3----|                           
  Q    H.              H        Q    Q    Q       H        Q    Q     
--------------------|--------------------------|---------------------|
--------------------|--0--------2----0---------|---------------------|
--2----2------------|---------------------3----|--0--------0----2----|
--------------------|--------------------------|---------------------|


  W                   W                   Q     H.            
-------------------|-------------------|-------/2------------|
-------------------|-------------------|---------------------|
--3----------------|--2----------------|--0------------------|
-------------------|-------------------|---------------------|


  H        E  Q.        Q.     S S S S E  S S S S    Q.     S S S S E  Q     
---------------------|----------------------------|-------------------------|
---------------------|--0------L------------------|--0------L---------------|
--0--------0--0------|-----------0-0---0--0-----0-|-----------3-3-2-3--L----|
---------------------|---------------3------3-3---|-------------------------|


  H        E  Q.        H        E  Q.        Q.     S S S S E  S S S S  
---------------------|---------------------|----------------------------|
---------------------|---------------------|--0------L------------------|
--2--------0--0------|--0--------0--0------|-----------0-0---0--0-----0-|
---------------------|---------------------|---------------3------3-3---|


  Q.     S S S S E  Q       W                   Q    H.            
-------------------------|-------------------|--------------------|
--0------L---------------|-------------------|--------------------|
-----------3-3-2-3--L----|--2----------------|--0----0------------|
-------------------------|-------------------|--------------------|


  W                   Q    H.              H.           E  E   
-------------------|--------------------|---------------------|
-------------------|--------------------|--0------------L-----|
--0----------------|--0----0------------|------------------0--|
-------------------|--------------------|---------------------|


  E  E  Q    E  E  E  E     W                   Q    H.            
-------------------------|-------------------|--------------------|
-------------------------|--0----------------|--------------------|
--0-----0----0--------0--|-------------------|--3----3------------|
-----3----------3--3-----|-------------------|--------------------|


  W                   Q    H.              W                 
-------------------|--------------------|-------------------|
-------------------|--------------------|-------------------|
--2----------------|--0----0------------|--0----------------|
-------------------|--------------------|-------------------|


  Q    H.              H.           E  E     E  E  Q    E  E  E  E   
--------------------|---------------------|-------------------------|
--------------------|--0------------L-----|-------------------------|
--0----0------------|------------------0--|--0-----0----0--------0--|
--------------------|---------------------|-----3----------3--3-----|


  W                   Q    H.              W                 
-------------------|--------------------|-------------------|
--0----------------|--------------------|-------------------|
-------------------|--3----3------------|--2----------------|
-------------------|--------------------|-------------------|


  E  E  E  E  E  E  E  E     W                   W                 
--------------------------|-------------------|-------------------|
-----------------0--------|-------------------|-------------------|
--0-----0--2--3-----3--2--|--0----------------|--3----------------|
-----3--------------------|-------------------|-------------------|


  Q    H.              H.           E  E     E  E  Q    Q    Q     
--------------------|---------------------|-----------------------|
--------------------|--0------------L-----|-----------------------|
--2----2------------|------------------0--|--0-----0----0----2----|
--------------------|---------------------|-----3-----------------|


  W                   Q    H.              E  E  E  E  H         
-------------------|--------------------|-----------------------|
-------------------|--------------------|--------------7--------|
--3----------------|--2----2------------|--0--0--0--0-----------|
-------------------|--------------------|-----------------------|


  E  E  E  E  Q    Q       W                   Q    H.            
------------------------|-------------------|--------------------|
------------------------|-------------------|--------------------|
--0--0--0--0--0----2----|--3----------------|--2----2------------|
------------------------|-------------------|--------------------|


           |----3----|                                               
  H        Q    Q    Q       H        Q    Q       W                 
--------------------------|---------------------|-------------------|
--0--------2----0---------|---------------------|-------------------|
---------------------3----|--0--------0----2----|--3----------------|
--------------------------|---------------------|-------------------|


  Q    H.              W                   H        Q    Q     
--------------------|-------------------|---------------------|
--------------------|-------------------|---------------------|
--2----2------------|--0----------------|--L--------0----2----|
--------------------|-------------------|---------------------|


  W                   Q    H.              H.           E  E   
-------------------|--------------------|---------------------|
-------------------|--------------------|--0------------L-----|
--3----------------|--2----2------------|------------------0--|
-------------------|--------------------|---------------------|


  E  E  Q    Q    Q       W                   Q    H.            
-----------------------|-------------------|--------------------|
-----------------------|-------------------|--------------------|
--0-----0----0----2----|--3----------------|--2----2------------|
-----3-----------------|-------------------|--------------------|


  E  E  E  E  H           E  E  E  E  Q    Q       W                 
-----------------------|------------------------|-------------------|
--------------7--------|------------------------|-------------------|
--0--0--0--0-----------|--0--0--0--0--0----2----|--3----------------|
-----------------------|------------------------|-------------------|


                                |----3----|                           
  Q    H.              H        Q    Q    Q       H        Q    Q     
--------------------|--------------------------|---------------------|
--------------------|--0--------2----0---------|---------------------|
--2----2------------|---------------------3----|--0--------0----2----|
--------------------|--------------------------|---------------------|


  W                   Q    H.              W                 
-------------------|--------------------|-------------------|
-------------------|--------------------|-------------------|
--3----------------|--2----2------------|--0----------------|
-------------------|--------------------|-------------------|


  H        Q    Q       W                   W                  
---------------------|-------------------|-------------------||
---------------------|-------------------|-------------------||
--L--------0----2----|--3----------------|-------------------||
---------------------|-------------------|-------------------||




Duration Legend
---------------
W - whole
H - half
Q - quarter
E - 8th
S - 16th
T - 32nd
X - 64th
. - note dotted
|-n-|  - n-tuplets


Tablature Legend
----------------
L - tied note
x - dead note
g - grace note
(n) - ghost note
> - accentuded note
NH - natural harmonic
AH - artificial harmonic
TH - tapped harmonic
SH - semi harmonic
PH - pitch harmonic
h - hammer on
p - pull off
b - bend
br - bendRelease
pb - preBend
pbr - preBendRelease
brb - bendReleaseBend
\n/ - tremolo bar dip
\n - tremolo bar dive
-/n - tremolo bar Release up
/n\ - tremolo bar inverted dip
/n - tremolo bar return
-\n - tremolo bar Release down
S - shift slide
s - legato slide
/ -  slide into from below or out of upwards
\ -  slide into from above or out of downwards
~ - vibrato
W - wide vibrato
tr - trill
TP - tremolo picking
T - tapping
S - slap
P - pop
< - fade in
^ - brush up
v - brush down
comments
We did not receive enough feedback on this tab! Please rate:
print report bad tab
1 2 3 4 5
I want to post or [tab]
guest
You may want to rate the tab now too:
select rating
Please do not post tabs as comments. Select "correction" instead!