Oops, an error
Loading. Please wait.

Fast As A Shark Tab

ver2
ver2

Whole song

Interactive

More versions @911Tabs.com
5,837 views 3 this week
1 commentread comment
1 2 3 4 5
worth learning
x 4
Autoscroll
+/-
esc
set tempo
stop
Contributor
Difficulty
advanced
Hey! There's an official Ultimate Guitar app which is ideal
for learning songs when you're away from computer. Get the app
WARNING: You are trying to view
                                    content from Ultimate-Guitar.com
                                    in an unauthorized application,
                                    which is prohibited.

                                    Please use an official Ultimate
                                    Guitar Tabs application for iPhone,
                                    iPad or Android to access legitimate
                                    chords, guitar, bass, and drum tabs
                                    from Ultimate-Guitar.com database.

                                    Type "ultimate guitar tabs" in Apple
                                    App Store's or Android Market's
                                    search to find the application.
Band:  Accept
Album: Restless and Wild
Song:  Fast As A Shark

Copyright (c)  (Heavy Metal) (1982)
Version 1.0 - (20/09/06)

Transcribed By: Steve
Email:          stephen.elvidge1@ntlworld.com


.  - palm mute           /  - slide up to
\  - slide down to       ~  - vibrato
h  - hammer on           b  - Bend
p  - pull off            Suffixes for bend
t  - tap                 f  - full bend    h - half bend
ph - pinched harmonic    q  - quarter bend t - tap bend
*  - see comment         ^  - Hold bend    r release bend
x  - Stuccatto           ~  - vibrato bend
,  - slight palm mute    () - ghost note, sustained note
"  - tremolo note        <> - harmonic
pb - pre bend

Tuning E A D G B E


 Main Riff

 Guitar 1 on its own
  [---------------PM---------------]     h    h    h    h  h
|---------------------------------------------------------------|
|---------------------------------------------------------------|
|-----------------------------------3p00-2p00-3p00-2p00-3p02p0--|
|-----------------------------------3p00-2p00-3p00-2p00-3p02p0--|
|---------------------------------------------------------------|
|-0-0-0-0-0-0-0-0-0-0-0-0-0-0-0-0-0-----------------------------| 

 Both guitars  
  [---------------PM---------------]     h     h   h    h  h
|---------------------------------------------------------------|
|---------------------------------------------------------------|
|-----------------------------------3p00-2p00-3p00-2p00-3p02p0--|
|-----------------------------------3p00-2p00-3p00-2p00-3p02p0--|
|---------------------------------------------------------------|
|-0-0-0-0-0-0-0-0-0-0-0-0-0-0-0-0-0-----------------------------| Rpt

 Verse
[------------------------------PM------------------------------]
|---------------------------------------------------------------|
|---------------------------------------------------------------|
|---------------------------------------------------------------|
|---------------------------------------------------------------|
|---------------------------------------------------------------|
|-5-5-5-5-5-5-5-5-5-5-5-5-5-0-5p0-3-3-3-3-3-3-3-3-3-3-3-3-0-3p0-|

 [-------------PM--------------]
|---------------------------------|
|---------------------------------|
|---------------------------------|
|---------------------------------|
|---------------------------------|
|-1-1-1-1-1-1-1-1-1-1-1-1-1-1-3p--|

 [-------PM------]     h    h
|--------------------------------|
|--------------------------------|
|-----------------3p00-2p00-3p0--|
|-----------------3p00-2p00-3p0--|
|--------------------------------|
|-0-0-0-0-0-0-0-0----------------| Rpt

         PM                                    [---------PM--------]
|--------------------------------------------------------------------|
|-3----3-3-3---(3)--/6-6-6---(6)--\----------------------------------|
|-2----2-2-2---(2)--/5-5-5---(5)--\----------------------------------|
|----------------------------------2----(2)----4-4-4-4-4-4-4-4-4-4-4-|
|----------------------------------0----(0)----2-2-2-2-2-2-2-2-2-2-2-|
|--------------------------------------------------------------------|

 Rpt Main Riff 2 X

 Rpt Verse

 Chorus 

 Guitar 1
[-------------------------------------------|
[--------------------8--\-------------------|
[--------------------9--\--------9\7---9-\--|
[--------------5---5-9--\5--7----9\7---9-\--|
[-5--5-5-7---7-3---3-7--\3--5----7\5---7-\--|
[-3--3-3-5---5-----------------x-----x------|
[Guitar 2
[-------------------------------------------|
[-------------------------------------------|
[--------------------------------9\7---9-\--|
[--------------5---5-5---5--7----9\7---9-\--|
[-5--5-5-7---7-3---3-----3--5----7\5---7-\--|
[-3--3-3-5---5-----------------x-----x------|

 Guitar 1
[-----------------------------------|
[--------------------8--\-----------|
[--------------------9--\-----------|
[--------------5---5-9--\5-/7--(7)--|
[-5--5-5-7---7-3---3-7--\3-/5--(5)--|
[-3--3-3-5---5----------------------|
[Guitar 2
[-----------------------------------|
[-----------------------------------|
[-----------------------------------|
[--------------5---5-5---5-/7--(7)--|
[-5--5-5-7---7-3---3-----3-/5--(5)--|
[-3--3-3-5---5----------------------|

 Rpt Main Riff 2 X
 Rpt Verse
 Rpt Chorus
                                                   pick scrape
|--------------------------------------------------------|
|--------------------8--\--------------------------------|
|--------------------9--\--------------------------------|
|--------------5---5-9--\5-/7--4-4-4-4-4-4-4-4-4-4-4\-\--|
|-5--5-5-7---7-3---3-7--\3-/5--2-2-2-2-2-2-2-2-2-2-2-\-\-|
|-3--3-3-5---5-------------------------------------------|



|-------------------------------|
|-------------------------------|
|-----3-5-6p5p3-----3-5-(5)--p3-|
|-----3-5-6p5p3-----3-5-(5)--p3-|
|-------------------------------|
|-333-----------333-------------| Rpt

|------------------------------------------------------------|
|------------------------------------------------------------|
|-----6-8-9p8p7-----6-8-(8)------9-11-12p11p9--------------0-|
|-----6-8-9p8p7-----6-8-(8)------9-11-12p11p9-----9\7-(7)--0-|
|-------------------------------------------------7\5-(5)----|
|-666-----------666----------999--------------000------------|


|-------------------------------|
|-------------------------------|
|-----3-5-6p5p3-----3-5-(5)--p3-|
|-----3-5-6p5p3-----3-5-(5)--p3-|
|-------------------------------|
|-333-----------333-------------|

|-----------------------------------------------------------|
|-----------------------------------------------------------|
|-----6-8-9p8p7-----6-8-(8)------9-11-12p11p9---------------|
|-----6-8-9p8p7-----6-8-(8)------9-11-12p11p9---------------|
|-------------------------------------------------5\4--(4)--|
|-666-----------666----------999--------------000-3\2--(2)--|


 Guitar solo

  B          F#         A         B
   ~~~~~~       ~~~~~~~~               ~~~~~~
|-----------------------------------------------|
|-------------------------------------0------0--|
|-----------------------------------------------|
|-----------------------------------------------|
|-2-----/5\4-------------------4br2-------------|
|------------2/4b--r2---5-----------------------|

  B                                         F#
                                                h    h           h
|-------------------------------------------------------------------|
|-----10-12-1414p12p10-12-15p12-14p12-10-12-------------------------|
|-/11---------------------------------------10-11-10-11-13p11p10-11-|
|-------------------------------------------------------------------|
|-------------------------------------------------------------------|
|-------------------------------------------------------------------|

              G#              A                A#     B      C
|---------------------------------------------------------------------|
|---------------------------------------------------------------------|
|--------------8p5---5-8p5---5-9p6---6-9p6---6-10p7---11p8----12p9----|
|------------------6-------6-------7-------7--------8------9-------10-|
|-9p8-5-7p7\6---------------------------------------------------------|
|---------------------------------------------------------------------|

 C#
|-----------|
|-----------|
|-13p10-----|
|-------11--|
|-----------|
|-----------|

  D
 Guitar 1
[-17-14----17p14-15p14----17p14-15p14-------|
[-------15-------------15-------------14-15-|
[-------------------------------------------|
[-------------------------------------------|
[-------------------------------------------|
[-------------------------------------------|
[Guitar 2
[-------------------------------------------|
[-19p15----19p15-17p15----19p15-17p15-------|
[-------14-------------14-------------14----|
[-------------------------------------------|
[-------------------------------------------|
[-------------------------------------------|

  E                        E
 Guitar 1
[-19p15----19p15-17p15-----15p12----15p12-14p12----|
[-------17-------------17--------14-------------14-|
[--------------------------------------------------|
[--------------------------------------------------|
[--------------------------------------------------|
[--------------------------------------------------|
[Guitar 2
[--------------------------------------------------|
[-20p17----20p17-19p17-----17p14----17p14-15p14----|
[-------16-------------16--------14-------------14-|
[--------------------------------------------------|
[--------------------------------------------------|
[--------------------------------------------------|

 D
 Guitar 1
[-15-14-12----------------------15-14-----|
[----------15-14-12----12-14-15-------15--|
[-------------------14--------------------|
[-----------------------------------------|
[-----------------------------------------|
[-----------------------------------------|
[Guitar 2
[-----------------------------------------|
[-17-15-14-------------------12-17-15-----|
[----------16-14\12-11-12-14----------14--|
[-----------------------------------------|
[-----------------------------------------|
[-----------------------------------------|


 Guitar 1                          ~~~~~~
[-15-14-12--------------------------------|
[----------15-14-12-----------------------|
[-------------------14-12-11--------------|
[----------------------------12-11-9------|
[-----------------------------------------|
[-----------------------------------------|
[Guitar 2                           ~~~~~
[-----------------------------------------|
[-17-15-14--------------------------------|
[----------16-14-12-----------------------|
[-------------------14-12-11--------------|
[----------------------------14-12-10-----|
[-----------------------------------------|

 B
 Guitar 1
[-14p10----10-14p10-12p10----10-14p10-12p10-----|
[-------12----------------12----------------12--|
[-----------------------------------------------|
[-----------------------------------------------|
[-----------------------------------------------|
[-----------------------------------------------|
[Guitar 2
[-----------------------------------------------|
[-15p12----12-15p12-14p12----12-15p12-14p12-----|
[-------11----------------11----------------12--|
[-----------------------------------------------|
[-----------------------------------------------|
[-----------------------------------------------|

 E
 Guitar 1
[-15p12----12-15p12-14p12----12-15p12-14p12--|
[-------14----------------14-----------------|
[--------------------------------------------|
[--------------------------------------------|
[--------------------------------------------|
[--------------------------------------------|
[Guitar 2
[--------------------------------------------|
[-17p14----14-17p14-16p14----14-17p14-16p14--|
[-------14----------------14-----------------|
[--------------------------------------------|
[--------------------------------------------|
[--------------------------------------------|

 A
 Guitar 1
[-12p9----9-12p9-10p9----9-12p9-10p9-----9-10p9-----|
[------10-------------10-------------10----------12-|
[---------------------------------------------------|
[---------------------------------------------------|
[---------------------------------------------------|
[---------------------------------------------------|
[Guitar 2
[---------------------------------------------------|
[-14p10---1014p10-12p10--1014p10-12p10--10-12p10----|
[-------9--------------9--------------9----------12-|
[---------------------------------------------------|
[---------------------------------------------------|
[---------------------------------------------------|

 Guitat 1
[-----------------------------------------------------------------|
[-12-14-1012-810-7-8-5-7-3-5-2-3-0-2------------------------------|
[------------------------------------2-4-0-2----------------------|
[--------------------------------------------4-5-2-4-0-2-4-5p4p2--|
[-----------------------------------------------------------------|
[-----------------------------------------------------------------|
[Guitar 2
[-----------------------------------------------------------------|
[-----------------------------------------------------------------|
[-11-12-9-11-7-9-6-7-4-6-2-4-0-2----------------------------------|
[--------------------------------4-5-2-4-0-2----------------------|
[--------------------------------------------4-5-2-4-0-2-4-5p4p2--|
[-----------------------------------------------------------------|

       [-------PM-------]     PM
|--------------------------------------|
|--------------------------------------|
|--------------------------------------|
|--------------------------------------|
|-5--2-------------------5--2----5--7--|
|-3--0-0-0-0-0-0-0-0-0-0-3--0-00-3--5--|

       [-------PM-------]     
|----------------------------------|
|----------------------------------|
|----------------------------------|
|------------------------7--2--4---|
|-5--2-------------------5--0--2---|
|-3--0-0-0-0-0-0-0-0-0-0-----------|

 Rpt Chorus

 Guitar 1
[-------------------------------------------|
[--------------------8--\-------------------|
[--------------------9--\--------9\7---9-\--|
[--------------5---5-9--\5--7----9\7---9-\--|
[-5--5-5-7---7-3---3-7--\3--5----7\5---7-\--|
[-3--3-3-5---5-----------------x-----x------|
[Guitar 2
[-------------------------------------------|
[-------------------------------------------|
[--------------------------------9\7---9-\--|
[--------------5---5-5---5--7----9\7---9-\--|
[-5--5-5-7---7-3---3-----3--5----7\5---7-\--|
[-3--3-3-5---5-----------------x-----x------|

 Guitar 1                         [--------------PM--------------]
[-----------------------------------------------------------------|
[--------------------8--\-----------------------------------------|
[--------------------9--\-----------------------------------------|
[--------------5---5-9--\5--7-----9-9-9-9-9-9-9-9-9-9-9-9-9-9-9-9-|
[-5--5-5-7---7-3---3-7--\3--5-----7-7-7-7-7-7-7-7-7-7-7-7-7-7-7-7-|
[-3--3-3-5---5----------------------------------------------------|
[Guitar 2                         [--------------PM--------------]
[-----------------------------------------------------------------|
[-----------------------------------------------------------------|
[-----------------------------------------------------------------|
[--------------5---5-5---5--4-2-0-9-9-9-9-9-9-9-9-9-9-9-9-9-9-9-9-|
[-5--5-5-7---7-3---3-----3--------7-7-7-7-7-7-7-7-7-7-7-7-7-7-7-7-|
[-3--3-3-5---5----------------------------------------------------|


 Guitar 1
[-------------------------------------------|
[--------------------8--\-------------------|
[--------------------9--\--------9\7---9-\--|
[--------------5---5-9--\5--7----9\7---9-\--|
[-5--5-5-7---7-3---3-7--\3--5----7\5---7-\--|
[-3--3-3-5---5-----------------x-----x------|
[Guitar 2
[-------------------------------------------|
[-------------------------------------------|
[--------------------------------9\7---9-\--|
[--------------5---5-5---5--7----9\7---9-\--|
[-5--5-5-7---7-3---3-----3--5----7\5---7-\--|
[-3--3-3-5---5-----------------x-----x------|


 Guitar 1
[------------------------------------------------|
[--------------------8--\------------------------|
[--------------------9--\------------------------|
[--------------5---5-9--\5-/7----5-/7----5-/7----|
[-5--5-5-7---7-3---3-7--\3-/5----3-/5----3-/5----|
[-3--3-3-5---5-----------------------------------|
[Guitar 2
[------------------------------------------------|
[------------------------------------------------|
[------------------------------------------------|
[--------------5---5-5---5-/7----5-/7----5-/7----|
[-5--5-5-7---7-3---3-----3-/5----3-/5----3-/5----|
[-3--3-3-5---5-----------------------------------|


|-------------------------------------------|
|-------------------------------------------|
|-------------------------------------------|
|-9----(9)----\5----(5)----/7----(7)--------|
|-7----(7)----\3----(3)----/5----(5)-----\--|
|-------------------------------------------|

                                             ~~~~~~~
|--------------------------------------------------------------|
|--------------------------------------------------------------|
|----------------------------------------2-fb--------r2p0------|
|--------------------------------------------------------------|
|-2---2-2-2-2-2-2-2-2-2-2--2--2--2--2--2-------(2)--------2----|
|-0---0-0-0-0-0-0-0-0-0-0--0--0--0--0--0-------(0)--------0----|




END

comments
print report bad tab
1 comment total.
0 reply
AncientMariner wrote on January 13 2008, 10:35 am

This tab is dead-on perfect. Nice!

I want to post or [tab]
guest
You may want to rate the tab now too:
select rating
Please do not post tabs as comments. Select "correction" instead!