Oops, an error
Loading. Please wait.

Flash Rocking Man Bass Tab

ver1
ver1

Whole song

Interactive

More versions @911Tabs.com
180 views 1 this week
no commentswrite comment
1 2 3 4 5
please rate
Autoscroll
+/-
esc
set tempo
stop
Contributor
Hey! There's an official Ultimate Guitar app which is ideal
for learning songs when you're away from computer. Get the app
WARNING: You are trying to view
                                    content from Ultimate-Guitar.com
                                    in an unauthorized application,
                                    which is prohibited.

                                    Please use an official Ultimate
                                    Guitar Tabs application for iPhone,
                                    iPad or Android to access legitimate
                                    chords, guitar, bass, and drum tabs
                                    from Ultimate-Guitar.com database.

                                    Type "ultimate guitar tabs" in Apple
                                    App Store's or Android Market's
                                    search to find the application.
                              Flash Rocking Man                                 


                                                                          Accept
Bass
Transcribed by emad


     W                   W                   W                 
G||-------------------|-------------------|-------------------|
D||-------------------|-------------------|-------------------|
A||-------------------|-------------------|-------------------|
E||-------------------|-------------------|-------------------|


  H.           E  E     W                   H.           E  E   
---------------------|-------------------|---------------------|
---------------------|-------------------|---------------------|
---------------3--2--|--0----------------|--L------------3--2--|
---------------------|-------------------|---------------------|


  W                   H        Q    E  E   
-------------------|----------------------|
-------------------|----------------------|
--0----------------|--L--------L----------|
-------------------|----------------3--3--|


  S. T S. T S. T S. T S. T S. T S. T S. T  
------------------------------------------|
------------------------------------------|
--0----0----0----0----0----0----0----0----|
------------------------------------------|


  S. T S. T S. T S. T S. T S. T E  E   
--------------------------------------|
--------------------------------------|
--0----0----0----0----0----0----2--3--|
--------------------------------------|


  S. T S. T S. T S. T S. T S. T S. T S. T  
------------------------------------------|
------------------------------------------|
--0----0----0----0----0----0----0----0----|
------------------------------------------|


  S. T S. T S. T S. T S. T S. T E  E   
--------------------------------------|
--------------------------------------|
--0----0----0----0----0----0----2--3--|
--------------------------------------|


  S. T S. T S. T S. T S. T S. T S. T S. T  
------------------------------------------|
------------------------------------------|
--0----0----0----0----0----0----0----0----|
------------------------------------------|


  S. T S. T S. T S. T S. T S. T E  E   
--------------------------------------|
--------------------------------------|
--0----0----0----0----0----0----2--3--|
--------------------------------------|


  S. T S. T S. T S. T S. T S. T S. T S. T  
------------------------------------------|
------------------------------------------|
--0----0----0----0----0----0----0----0----|
------------------------------------------|


  S. T S. T S. T S. T S. T S. T E  E     E  E  E  E  E  E  E  E   
--------------------------------------|--------------------------|
--------------------------------------|--------------------------|
--0----0----0----0----0----0----0--5--|--L--5--5--5--5--5--5--5--|
--------------------------------------|--------------------------|


  E  E  E  E  Q    E  E     E  E  E  E  E  E  E  E     E  E  E  E  E  E  E  E   
-------------------------|--------------------------|--------------------------|
-------------------------|--------------------------|--------------------------|
--5--5--5--5--2----2--3--|--3--3--3--3--3--3--3--3--|--3--3--3--3--3--2--0--5--|
-------------------------|--------------------------|--------------------------|


  E  E  E  E  E  E  E  E     E  E  E  E  Q    E  E     E  E  E  E  E  E  E  E   
--------------------------|-------------------------|--------------------------|
--------------------------|-------------------------|--------------------------|
--L--5--5--5--5--5--5--5--|--5--5--5--5--2----3--0--|--L--0--0--0--0--0--0--0--|
--------------------------|-------------------------|--------------------------|


  E  E  E  E  E  E  E  E     E  E  E  E  E  E  E  E     E  E  E  E  Q    E  E   
--------------------------|--------------------------|-------------------------|
--------------------------|--------------------------|-------------------------|
--0--0--0--0--0--0--0--5--|--L--5--5--5--5--5--5--5--|--5--5--5--5--2----2--3--|
--------------------------|--------------------------|-------------------------|


  E  E  E  E  E  E  E  E     E  E  E  E  E  E  E  E   
--------------------------|--------------------------|
--------------------------|--------------------------|
--3--3--3--3--3--3--3--3--|--3--3--3--3--3--2--0--5--|
--------------------------|--------------------------|


  E  E  E  E  E  E  E  E     E  E  E  E  Q    E  E     W                 
--------------------------|-------------------------|-------------------|
--------------------------|-------------------------|-------------------|
--L--5--5--5--5--5--5--5--|--5--5--5--5--2----3--5--|--L----------------|
--------------------------|-------------------------|-------------------|


  W                   S. T S. T S. T S. T S. T S. T S. T S. T  
-------------------|------------------------------------------|
-------------------|------------------------------------------|
--L----------------|--0----0----0----0----0----0----0----0----|
-------------------|------------------------------------------|


  S. T S. T S. T S. T S. T S. T E  E   
--------------------------------------|
--------------------------------------|
--0----0----0----0----0----0----2--3--|
--------------------------------------|


  S. T S. T S. T S. T S. T S. T S. T S. T  
------------------------------------------|
------------------------------------------|
--0----0----0----0----0----0----0----0----|
------------------------------------------|


  S. T S. T S. T S. T S. T S. T E  E   
--------------------------------------|
--------------------------------------|
--0----0----0----0----0----0----2--3--|
--------------------------------------|


  S. T S. T S. T S. T S. T S. T S. T S. T  
------------------------------------------|
------------------------------------------|
--0----0----0----0----0----0----0----0----|
------------------------------------------|


  S. T S. T S. T S. T S. T S. T E  E   
--------------------------------------|
--------------------------------------|
--0----0----0----0----0----0----2--3--|
--------------------------------------|


  S. T S. T S. T S. T S. T S. T S. T S. T  
------------------------------------------|
------------------------------------------|
--0----0----0----0----0----0----0----0----|
------------------------------------------|


  S. T S. T S. T S. T S. T S. T E  E     E  E  E  E  E  E  E  E   
--------------------------------------|--------------------------|
--------------------------------------|--------------------------|
--0----0----0----0----0----0----0--5--|--L--5--5--5--5--5--5--5--|
--------------------------------------|--------------------------|


  E  E  E  E  Q    E  E     E  E  E  E  E  E  E  E     E  E  E  E  E  E  E  E   
-------------------------|--------------------------|--------------------------|
-------------------------|--------------------------|--------------------------|
--5--5--5--5--2----2--3--|--3--3--3--3--3--3--3--3--|--3--3--3--3--3--2--0--5--|
-------------------------|--------------------------|--------------------------|


  E  E  E  E  E  E  E  E     E  E  E  E  Q    E  E     H        E  E  E  E   
--------------------------|-------------------------|-----------------------|
--------------------------|-------------------------|-----------------------|
--L--5--5--5--5--5--5--5--|--5--5--5--5--2----3--0--|--L--------L--2--3--0--|
--------------------------|-------------------------|-----------------------|


  H        E  E  E  E     E  E  E  E  E  E  E  E     E  E  E  E  Q    E  E   
-----------------------|--------------------------|-------------------------|
-----------------------|--------------------------|-------------------------|
--L--------L--2--3--5--|--L--5--5--5--5--5--5--5--|--5--5--5--5--2----2--3--|
-----------------------|--------------------------|-------------------------|


  E  E  E  E  E  E  E  E     E  E  E  E  E  E  E  E   
--------------------------|--------------------------|
--------------------------|--------------------------|
--3--3--3--3--3--3--3--3--|--3--3--3--3--3--2--0--5--|
--------------------------|--------------------------|


  E  E  E  E  E  E  E  E     E  E  E  E  Q    E  E     W                 
--------------------------|-------------------------|-------------------|
--------------------------|-------------------------|-------------------|
--L--5--5--5--5--5--5--5--|--5--5--5--5--2----3--5--|--L----------------|
--------------------------|-------------------------|-------------------|


  W                   E  E  E  E  E  E  E  E     E  E  E  E  E  E  E  E   
-------------------|--------------------------|--------------------------|
-------------------|--------------------------|--------------------------|
--L----------------|--3--3--3--3--3--3--3--3--|--5--5--5--5--5--5--5--5--|
-------------------|--------------------------|--------------------------|


  E  E  E  E  E  E  E  E     E  E  E  E  E  E  E  E   
--------------------------|--------------------------|
--------------------------|--------------------------|
--0--0--0--0--0--0--------|--------------------------|
--------------------0--3--|--3--3--3--3--3--3--3--3--|


  E  E  E  E  E  E  E  E     E  E  E  E  E  E  E  E   
--------------------------|--------------------------|
--------------------------|--------------------------|
--3--3--3--3--3--3--3--3--|--5--5--5--5--5--5--5--5--|
--------------------------|--------------------------|


  E  E  E  E  E  E  E  E     E  E  E  E  E  E  E  E   
--------------------------|--------------------------|
--------------------------|--------------------------|
--7--7--7--7--7--7--7--7--|--7--7--7--7--7--7--7--7--|
--------------------------|--------------------------|


  E  E  E  E  E  E  E  E     E  E  H.            
--------------------------|---------------------|
--------------------------|---------------------|
--7--7--7--7--7--7--7-----|--7------------------|
--------------------------|---------------------|


  S. T S. T S. T S. T S. T S. T S. T S. T  
------------------------------------------|
------------------------------------------|
--0----0----0----0----0----0----0----0----|
------------------------------------------|


  S. T S. T S. T S. T S. T S. T E  E   
--------------------------------------|
--------------------------------------|
--0----0----0----0----0----0----2--3--|
--------------------------------------|


  S. T S. T S. T S. T S. T S. T S. T S. T    S. T S. T E  Q    E  E  E   
------------------------------------------|-----------------------------|
------------------------------------------|-----------------------------|
--0----0----0----0----0----0----0----0----|--0----0----0--1----0--1--0--|
------------------------------------------|-----------------------------|


  S. T S. T S. T S. T S. T S. T S. T S. T  
------------------------------------------|
------------------------------------------|
--0----0----0----0----0----0----0----0----|
------------------------------------------|


  S. T S. T S. T S. T S. T S. T E  E   
--------------------------------------|
--------------------------------------|
--0----0----0----0----0----0----2--3--|
--------------------------------------|


  S. T S. T S. T S. T S. T S. T S. T S. T  
------------------------------------------|
------------------------------------------|
--0----0----0----0----0----0----0----0----|
------------------------------------------|


  S. T S. T S. T S. T S. T S. T E  E     E  E  E  E  E  E  E  E   
--------------------------------------|--------------------------|
--------------------------------------|--------------------------|
--0----0----0----0----0----0----0--5--|--L--5--5--5--5--5--5--5--|
--------------------------------------|--------------------------|


  E  E  E  E  Q    E  E     E  E  E  E  E  E  E  E     E  E  E  E  E  E  E  E   
-------------------------|--------------------------|--------------------------|
-------------------------|--------------------------|--------------------------|
--5--5--5--5--2----2--3--|--3--3--3--3--3--3--3--3--|--3--3--3--3--3--2--0--5--|
-------------------------|--------------------------|--------------------------|


  E  E  E  E  E  E  E  E     E  E  E  E  Q    E  E     H        E  E  E  E   
--------------------------|-------------------------|-----------------------|
--------------------------|-------------------------|-----------------------|
--L--5--5--5--5--5--5--5--|--5--5--5--5--2----3--0--|--L--------L--2--3--0--|
--------------------------|-------------------------|-----------------------|


  H        E  E  E  E     E  E  E  E  E  E  E  E     E  E  E  E  Q    E  E   
-----------------------|--------------------------|-------------------------|
-----------------------|--------------------------|-------------------------|
--L--------L--2--3--5--|--L--5--5--5--5--5--5--5--|--5--5--5--5--2----2--3--|
-----------------------|--------------------------|-------------------------|


  E  E  E  E  E  E  E  E     E  E  E  E  E  E  E  E   
--------------------------|--------------------------|
--------------------------|--------------------------|
--3--3--3--3--3--3--3--3--|--3--3--3--3--3--2--0--5--|
--------------------------|--------------------------|


  E  E  E  E  E  E  E  E     E  E  E  E  Q    E  E     W                 
--------------------------|-------------------------|-------------------|
--------------------------|-------------------------|-------------------|
--L--5--5--5--5--5--5--5--|--5--5--5--5--2----3--5--|--L----------------|
--------------------------|-------------------------|-------------------|


  W                   E  E  E  E  E  E  E  E     E  E  E  E  E  E  E  E   
-------------------|--------------------------|--------------------------|
-------------------|--------------------------|--------------------------|
--L----------------|--3--3--3--3--3--3--3--3--|--5--5--5--5--5--5--5--5--|
-------------------|--------------------------|--------------------------|


  E  E  E  E  E  E  E  E     E  E  E  E  E  E  E  E   
--------------------------|--------------------------|
--------------------------|--------------------------|
--0--0--0--0--0--0--------|--------------------------|
--------------------0--3--|--3--3--3--3--3--3--3--3--|


  E  E  E  E  E  E  E  E     E  E  E  E  E  E  E  E   
--------------------------|--------------------------|
--------------------------|--------------------------|
--3--3--3--3--3--3--3--3--|--5--5--5--5--5--5--5--5--|
--------------------------|--------------------------|


  E  E  E  E  E  E  E  E     E  E  E  E  E  E  E  E   
--------------------------|--------------------------|
--------------------------|--------------------------|
--7--7--7--7--7--7--7--7--|--7--7--7--7--7--7--7--7--|
--------------------------|--------------------------|


  E  E  E  E  E  E  E  E     E  E  H.            
--------------------------|---------------------|
--------------------------|---------------------|
--7--7--7--7--7--7--7-----|--7------------------|
--------------------------|---------------------|


  S. T S. T S. T S. T S. T S. T S. T S. T  
------------------------------------------|
------------------------------------------|
--0----0----0----0----0----0----0----0----|
------------------------------------------|


  S. T S. T S. T S. T S. T S. T E  E   
--------------------------------------|
--------------------------------------|
--0----0----0----0----0----0----2--3--|
--------------------------------------|


  S. T S. T S. T S. T S. T S. T S. T S. T    S. T S. T E  Q    E  E  E   
------------------------------------------|-----------------------------|
------------------------------------------|-----------------------------|
--0----0----0----0----0----0----0----0----|--0----0----0--1----0--1--0--|
------------------------------------------|-----------------------------|


  S. T S. T S. T S. T S. T S. T S. T S. T  
------------------------------------------|
------------------------------------------|
--0----0----0----0----0----0----0----0----|
------------------------------------------|


  S. T S. T S. T S. T S. T S. T E  E   
--------------------------------------|
--------------------------------------|
--0----0----0----0----0----0----2--3--|
--------------------------------------|


  S. T S. T S. T S. T S. T S. T S. T S. T    S. T S. T E  E  H         
------------------------------------------|---------------------------|
------------------------------------------|---------------------------|
--0----0----0----0----0----0----0----0----|--0----0----0--------------|
------------------------------------------|---------------4--L--------|


  Q.     S S H           W                   W                   H         
----------------------|-------------------|-------------------|-----------|
----------------------|-------------------|-------------------|-----------|
----------------------|-------------------|-------------------|-----------|
--L------L-4-L--------|--L----------------|--L----------------|--L--------|


    E  E  E  E  E  E  E  E     E  E  E  E  E  E  E  E   
|---------------------------|--------------------------|
|*--------------------------|--------------------------|
|*--------------------------|--------------------------|
|---2--2--2--2--2--2--2--2--|--3--2--2--2--2--2--2--2--|


  E  E  E  E  E  E  E  E     W                   E  E  E  E  E  E  E  E   
--------------------------|-------------------|--------------------------|
--------------------------|-------------------|--------------------------|
--------------------5--2--|--L----------------|--------------------------|
--2--2--2--2--2--2--------|-------------------|--2--2--2--2--2--2--2--2--|


  E  E  E  E  E  E  E  E     E  E  E  E  E  E  E  E     H        H           
--------------------------|--------------------------|---------------------||
--------------------------|--------------------------|--------------------*||
--------------------------|--------------------5--2--|--L--------5--------*||
--3--2--2--2--2--2--2--2--|--2--2--2--2--2--2--------|---------------------||


   E  E  E  E  E  E  E  E     E  E  E  E  E  E  E  E   
---------------------------|--------------------------|
*--------------------------|--------------------------|
*--------------------------|--------------------------|
---2--2--2--2--2--2--2--2--|--3--2--2--2--2--2--2--2--|


  E  E  E  E  E  E  E  E     W                   E  E  E  E  E  E  E  E   
--------------------------|-------------------|--------------------------|
--------------------------|-------------------|--------------------------|
--------------------5--2--|--L----------------|--------------------------|
--2--2--2--2--2--2--------|-------------------|--2--2--2--2--2--2--2--2--|


  E  E  E  E  E  E  E  E     E  E  E  E  E  E  E  E     H        H           
--------------------------|--------------------------|---------------------||
--------------------------|--------------------------|--------------------*||
--------------------------|--------------------5--2--|--L--------5--------*||
--3--2--2--2--2--2--2--2--|--2--2--2--2--2--2--------|---------------------||


  E  E  E  E  E  E  E  E     E  E  E  E  E  E  E  E   
--------------------------|--------------------------|
--------------------------|--------------------------|
--0--0--0--0--0--0--0--0--|--0--0--0--0--0--0--0--0--|
--------------------------|--------------------------|


  E  E  E  E  E  E  E  E     E  E  E  E  E  E  E  E   
--------------------------|--------------------------|
--------------------------|--------------------------|
--0--0--0--0--0--0--0--0--|--0--0--0--0--0--0--0--0--|
--------------------------|--------------------------|


  E  E  E  E  E  E  E  E     E  E  E  E  E  E  E  E   
--------------------------|--------------------------|
--------------------------|--------------------------|
--0--0--0--0--0--0--0--0--|--0--0--0--0--0--0--0--0--|
--------------------------|--------------------------|


  E  E  E  E  E  E  E  E     E  E  E  H        E     E  E  E  E  E  E  E  E   
--------------------------|-----------------------|--------------------------|
--------------------------|-----------------------|--------------------------|
--0--0--0--0--0--0--0--0--|--0--0--0--------------|--------------------------|
--------------------------|-----------3--------L--|--1--1--1--1--1--1--1--1--|


  E  E  E  E  E  E  E  E     E  E  E  E  E  E  E  E   
--------------------------|--------------------------|
--------------------------|--------------------------|
--3--3--3--3--3--3--3--3--|--5--5--5--5--5--5--5--5--|
--------------------------|--------------------------|


  E  E  E  E  E  E  E  E     H.           E  E     E  E  E  E  E  E  E  E   
--------------------------|---------------------|--------------------------|
--------------------------|---------------------|--------------------------|
--------------------------|------------------3--|--L--3--3--3--3--3--3--3--|
--3--3--3--3--3--3--3--3--|---------------------|--------------------------|


  E  E  E  E  E  E  E  E     E  E  E  E  E  E  E  E   
--------------------------|--------------------------|
--------------------------|--------------------------|
--5--5--5--5--5--5--5--5--|--0--0--0--0--0--0--------|
--------------------------|--------------------0--3--|


  E  E  E  E  E  E  E  E     E  E  E  E  E  E  E  E   
--------------------------|--------------------------|
--------------------------|--------------------------|
--------------------------|--3--3--3--3--3--3--3--3--|
--3--3--3--3--3--3--3--3--|--------------------------|


  E  E  E  E  E  E  E  E     E  E  E  E  E  E  E  E   
--------------------------|--------------------------|
--------------------------|--------------------------|
--5--5--5--5--5--5--5--5--|--7--7--7--7--7--7--7--7--|
--------------------------|--------------------------|


  E  E  E  E  E  E  E  E     E  E  E  E  E  E  E  E     E  E  H.            
--------------------------|--------------------------|---------------------|
--------------------------|--------------------------|---------------------|
--7--7--7--7--7--7--7--7--|--7--7--7--7--7--7--7-----|--7------------------|
--------------------------|--------------------------|---------------------|


  S. T S. T S. T S. T S. T S. T S. T S. T  
------------------------------------------|
------------------------------------------|
--0----0----0----0----0----0----0----0----|
------------------------------------------|


  S. T S. T S. T S. T S. T S. T E  E   
--------------------------------------|
--------------------------------------|
--0----0----0----0----0----0----2--3--|
--------------------------------------|


  S. T S. T S. T S. T S. T S. T S. T S. T    E  E  E  E  H         
------------------------------------------|-----------------------|
------------------------------------------|-----------------------|
--0----0----0----0----0----0----0----0----|-----------------------|
------------------------------------------|--3--0--0--0-----------|


  S. T S. T S. T S. T S. T S. T S. T S. T  
------------------------------------------|
------------------------------------------|
--0----0----0----0----0----0----0----0----|
------------------------------------------|


  S. T S. T S. T S. T S. T S. T E  E   
--------------------------------------|
--------------------------------------|
--0----0----0----0----0----0----2--3--|
--------------------------------------|


  S. T S. T S. T S. T S. T S. T S. T S. T    E  E  E  E  H         
------------------------------------------|-----------------------|
------------------------------------------|-----------------------|
--0----0----0----0----0----0----0----0----|-----------------------|
------------------------------------------|--3--0--0--0-----------|


  S. T S. T S. T S. T S. T S. T S. T S. T  
------------------------------------------|
------------------------------------------|
--0----0----0----0----0----0----0----0----|
------------------------------------------|


  S. T S. T S. T S. T S. T S. T E  E   
--------------------------------------|
--------------------------------------|
--0----0----0----0----0----0----2--3--|
--------------------------------------|


  S. T S. T S. T S. T S. T S. T S. T S. T    E  E  E  E  H         
------------------------------------------|-----------------------|
------------------------------------------|-----------------------|
--0----0----0----0----0----0----0----0----|-----------------------|
------------------------------------------|--3--0--0--0-----------|


  S. T S. T S. T S. T S. T S. T S. T S. T  
------------------------------------------|
------------------------------------------|
--0----0----0----0----0----0----0----0----|
------------------------------------------|


  S. T S. T S. T S. T S. T S. T E  E   
--------------------------------------|
--------------------------------------|
--0----0----0----0----0----0----2--3--|
--------------------------------------|


  S. T S. T S. T S. T S. T S. T S. T S. T    E  E  E  E  E     E  E  E  E  E   
------------------------------------------|-----------------|-----------------|
------------------------------------------|-----------------|-----------------|
--0----0----0----0----0----0----0----0----|-----------------|-----------------|
------------------------------------------|--3--0--0--0-----|--3--0--0--0-----|


  E  E  E  E  H           W                   W                 
-----------------------|-------------------|-------------------|
-----------------------|-------------------|-------------------|
-----------------------|--0----------------|--L----------------|
--3--0--0--0-----------|-------------------|-------------------|


  W                   W                   W                   W                 
-------------------|-------------------|-------------------|-------------------|
-------------------|-------------------|-------------------|-------------------|
--L----------------|--L----------------|--L----------------|--L----------------|
-------------------|-------------------|-------------------|-------------------|


  W                   W                  
-------------------|-------------------||
-------------------|-------------------||
--L----------------|--2----------------||
-------------------|-------------------||




Duration Legend
---------------
W - whole
H - half
Q - quarter
E - 8th
S - 16th
T - 32nd
X - 64th
. - note dotted
|-n-|  - n-tuplets


Tablature Legend
----------------
L - tied note
x - dead note
g - grace note
(n) - ghost note
> - accentuded note
NH - natural harmonic
AH - artificial harmonic
TH - tapped harmonic
SH - semi harmonic
PH - pitch harmonic
h - hammer on
p - pull off
b - bend
br - bendRelease
pb - preBend
pbr - preBendRelease
brb - bendReleaseBend
\n/ - tremolo bar dip
\n - tremolo bar dive
-/n - tremolo bar Release up
/n\ - tremolo bar inverted dip
/n - tremolo bar return
-\n - tremolo bar Release down
S - shift slide
s - legato slide
/ -  slide into from below or out of upwards
\ -  slide into from above or out of downwards
~ - vibrato
W - wide vibrato
tr - trill
TP - tremolo picking
T - tapping
S - slap
P - pop
< - fade in
^ - brush up
v - brush down
comments
We did not receive enough feedback on this tab! Please rate:
print report bad tab
1 2 3 4 5
I want to post or [tab]
guest
You may want to rate the tab now too:
select rating
Please do not post tabs as comments. Select "correction" instead!