Oops, an error
Loading. Please wait.

Head Over Heels Tab

ver3
ver3

Whole song

More versions @911Tabs.com
917 views 1 this week
no commentswrite comment
1 2 3 4 5
please rate
Autoscroll
+/-
esc
set tempo
stop
Contributor
WARNING: You are trying to view
                                    content from Ultimate-Guitar.com
                                    in an unauthorized application,
                                    which is prohibited.

                                    Please use an official Ultimate
                                    Guitar Tabs application for iPhone,
                                    iPad or Android to access legitimate
                                    chords, guitar, bass, and drum tabs
                                    from Ultimate-Guitar.com database.

                                    Type "ultimate guitar tabs" in Apple
                                    App Store's or Android Market's
                                    search to find the application.
                                Head Over Heels                                 


                                                                          Accept
Bass
Tabbed by Shendrik Evgeny



     E  E  Q    E  E  Q       E  E  Q    E  S S E   S S  
G||------------------------|----------------------------|
D||------------------------|----------------------------|
A||------------------------|--------------------7S------|
E||--0----------0----------|--0----------0--0-0-----0-0-|


  E  E  Q    E  E  Q       E  E  Q    E  E  Q       E  E  Q    E  E  Q     
------------------------|------------------------|------------------------|
------------------------|------------------------|------------------------|
------------------------|------------------------|------------------------|
--0----------0----------|--0----------0----------|--0----------0----------|


  E  E  Q    E  S S E   S S    E  E  Q    E  E  Q       E  E  Q    E  E  Q     
----------------------------|------------------------|------------------------|
----------------------------|------------------------|------------------------|
--------------------7S------|------------------------|------------------------|
--0----------0--0-0-----0-0-|--0----------0----------|--0----------0----------|


  E  E  Q    E  E  Q       E  Q    H        E     E  S S E  S S E  S S E  S S  
------------------------|----------------------|------------------------------|
------------------------|----------------------|------------------------------|
------------------------|----------------------|--4--4-4-4--4-4-4--4-4-4--4-4-|
--0----------0----------|--0-------5--------L--|------------------------------|


  E  S S E  S S E  S S E  S S    E  S S E  S S E  S S E  S S  
------------------------------|------------------------------|
------------------------------|------------------------------|
--4--4-4-4--4-4-4--4-4-4--4-4-|--0--0-0-0--0-0-2--2-2-2--2-2-|
------------------------------|------------------------------|


  E  S S E  S S E  E  S S S S    E  S S E  S S E  S S E  S S  
------------------------------|------------------------------|
----------------------6-4-----|------------------------------|
--4--4-4-4--4-4-4---------7-6-|--4--4-4-4--4-4-4--4-4-4--4-4-|
-------------------4----------|------------------------------|


  E  S S E  S S E  S S E  S S    E  S S E  S S E  S S E  S S  
------------------------------|------------------------------|
------------------------------|------------------------------|
--4--4-4-4--4-4-4--4-4-4--4-4-|--2--2-2-2--2-2-2--2-2-2--2-2-|
------------------------------|------------------------------|


  E  S S E  S S E  E  S S S S    E  S S E  S S E  S S E  S S  
------------------------------|------------------------------|
----------------------6-4-----|------------------------------|
--4--4-4-4--4-4-4---------7-6-|--4--4-4-4--4-4-4--4-4-4--4-4-|
-------------------4----------|------------------------------|


  E  S S E  S S E  S S E  S S    E  S S E  S S E  S S E  S S  
------------------------------|------------------------------|
------------------------------|------------------------------|
--4--4-4-4--4-4-4--4-4-4--4-4-|--2--2-2-2--2-2-2--2-2-2--2-2-|
------------------------------|------------------------------|


  E  S S E  S S E  E  E  E     Q    E  Q    E    E   E   
----------------------------|---------------------------|
----------------------------|---------------------------|
--4--4-4-4--4-4-4-----------|---------------------------|
-------------------0--2--5--|--7-------7----7S--12S--0--|


  E  E  E  Q    E  E  E     Q    E  Q    E  E  E   
-------------------------|------------------------|
-------------------------|------------------------|
-----4--2--4----------4--|--2-------2----L--2--0--|
----------------0--4-----|------------------------|


  E  S S E  S S E  S S E  S S    Q    E  Q    E    E   E   
------------------------------|---------------------------|
------------------------------|---------------------------|
--4--4-4-4--4-4-4--4-4-4--4-4-|---------------------------|
------------------------------|--7-------7----7S--12S--0--|


  E  E  E  Q.     Q       E  E  E  E  E  E  E  E     E  E  E  S S E  E  Q     
-----------------------|--------------------------|--------------------------|
-----------------------|--------------------------|--------------------------|
-----4--2--4------2----|--0--0--0--0--0--0--0--0--|--2--2--2--2-2-2----------|
-----------------------|--------------------------|--------------------------|


  E  E  E  E  E  E  E  E     E  E  E  E  E  E  E  E   
--------------------------|--------------------------|
--------6-----------------|--------6-----------------|
--4-----------7-----4--2--|--0-----------7-----0--2--|
--------------------------|--------------------------|


  E  S S E  S S E  S S E  S S    E  S S E  S S E  S S E  S S  
------------------------------|------------------------------|
---------2-------------2------|---------6-------------6------|
--2--2-2----2-2-2--2-2----2-2-|--4--4-4----4-4-4--4-4----4-4-|
------------------------------|------------------------------|


  E  E  E  E  E  E  E  E     E  E  E  E  E  E  E  E   
--------------------------|--------------------------|
--------6-----------------|--------6-----------------|
--4-----------7-----4--2--|--0-----------7-----0--2--|
--------------------------|--------------------------|


  E  S S E  S S E  Q.        E  S S E  S S E  E  S S S S  
--------------------------|------------------------------|
---------2----------------|------------------------------|
--2--2-2----2-2-2---------|--4--4-4-4--4-4-4-----2-0-----|
--------------------------|-------------------4------3-2-|


  Q     E  E  E  E  E  E     Q     E  E  E  E  E  E   
--------------------------|--------------------------|
--------------------------|--------------------------|
--5\-------7--------------|--5\-------7--------------|
--------0-----0-----0-----|--------0-----0-----0-----|


  Q     E  E  E  E  E  E     Q     E  Q    S  S E  E   
--------------------------|---------------------9-----|
--------------------------|----------------5S-7----7--|
--5\-------7--------------|--5\-----------------------|
--------0-----0-----0-----|-----------5---------------|


  Q     E  E  E  E  E  E     Q     E  E  E  E  E  E   
--------------------------|--------------------------|
--------------------------|--------------------------|
--5\-------7--------------|--5\-------7--------------|
--------0-----0-----0-----|--------0-----0-----0-----|


  Q     E  E  E  E  E  E     Q     E  H        E   
--------------------------|-----------------------|
--------------------------|-----------------------|
--5\-------7--------------|--5\-------------------|
--------0-----0-----0-----|-----------5--------L--|


  E  S S E  S S E  S S E  S S    E  S S E  S S E  S S E  S S  
------------------------------|------------------------------|
------------------------------|------------------------------|
--4--4-4-4--4-4-4--4-4-4--4-4-|--4--4-4-4--4-4-4--4-4-4--4-4-|
------------------------------|------------------------------|


  E  S S E  S S E  S S E  S S    E  S S E  S S E  E  S S S S  
------------------------------|------------------------------|
------------------------------|----------------------6-4-----|
--2--2-2-2--2-2-2--2-2-2--2-2-|--4--4-4-4--4-4-4---------7-6-|
------------------------------|-------------------4----------|


  E  S S E  S S E  S S E  S S    E  S S E  S S E  S S E  S S  
------------------------------|------------------------------|
------------------------------|------------------------------|
--4--4-4-4--4-4-4--4-4-4--4-4-|--4--4-4-4--4-4-4--4-4-4--4-4-|
------------------------------|------------------------------|


  E  S S E  S S E  S S E  S S    E  S S E  S S E  S S E  S S  
------------------------------|------------------------------|
------------------------------|------------------------------|
--2--2-2-2--2-2-2--2-2-2--2-2-|--4--4-4-4--4-4-4--4-4-4--4-4-|
------------------------------|------------------------------|


  Q    E  Q.      E   E     E  E  E  Q    E  E  E     E  E  E  E  S S E  E  E   
-------------------------|-------------------------|---------------------------|
-------------------------|-------------------------|---------------------------|
--0-------0--------------|-----4--2--4----------2--|--0--0--0--0--0-0-0--0--0--|
-----------------12\--0--|----------------0--4-----|---------------------------|


  E  E  E  S S E  E  Q       E  E  E  E  E  E  E  E   
--------------------------|--------------------------|
--------------------------|--------6-----------------|
--2--2--2--2-2-2----------|--4-----------7-----4--2--|
--------------------------|--------------------------|


  E  E  E  E  E  E  E  E     E  S S E  S S E  S S E  S S  
--------------------------|------------------------------|
--------6-----------------|---------2-------------2------|
--0-----------7-----0--2--|--2--2-2----2-2-2--2-2----2-2-|
--------------------------|------------------------------|


  E  S S E  S S E  S S E  S S    E  E  E  E  E  E  E  E   
------------------------------|--------------------------|
---------6-------------6------|--------6-----------------|
--4--4-4----4-4-4--4-4----4-4-|--4-----------7-----4--2--|
------------------------------|--------------------------|


  E  E  E  E  E  E  E  E     E  S S E  S S E  Q.      
--------------------------|--------------------------|
--------6-----------------|---------2----------------|
--0-----------7-----0--2--|--2--2-2----2-2-2---------|
--------------------------|--------------------------|


  E  S S E  S S E  S S E  S S    E  S S E  S S E  S S E  S S  
------------------------------|------------------------------|
------------------------------|------------------------------|
------------------------------|------------------------------|
--4--4-4-4--4-4-4--4-4-4--4-4-|--4--4-4-4--4-4-4--4-4-4--4-4-|


  E  S S E  S S E  S S E  S S    Q     Q    Q     Q       Q     E  E   
------------------------------|------------------------|--------------|
------------------------------|------------------------|--------------|
------------------------------|--7\---------7\---------|--7\----------|
--4--4-4-4--4-4-4--4-4-4--4-4-|--------4----------5----|--------5--4--|


  E  S S E  S S E  S S E  E     E  S S E  S S E  S S E  S S  
-----------------------------|------------------------------|
-----------------------------|------------------------------|
--------------------------4--|--4--4-4-4--4-4-4--4-4-4--4-4-|
--2--2-2-2--2-2-2--2-2-2-----|------------------------------|


  E  S S E  S S E  S S E  S S    E  S S E  S S E  S. T S. T S. T  
------------------------------|----------------------------------|
------------------------------|----------------------------------|
--7--7-7-7--7-7-7--7-7-7--7-7-|------------------------0----2----|
------------------------------|--2--2-2-2--2-2-2--4--------------|


  E  S S E  S S E  E  E  E     E  S S E  S S E  S S E  S S  
----------------------------|------------------------------|
----------------------------|------------------------------|
--5--5-5-5--5-5-5--5--7--5--|--4--4-4-4--4-4-4--4-4-4--4-4-|
----------------------------|------------------------------|


  E  S S E  S S E  S S E  S S    E  S S E  S S S S E  S S E   
------------------------------|------------------------------|
------------------------------|------------------------------|
--4--4-4-4--4-4-4--4-4-4--4-4-|--4--4-4-4--4-4-0-0-0---------|
------------------------------|-----------------------4-4-4--|


  E  S S E  S S E  S S E  S S    E  S S E  S S E  S S E  S S  
------------------------------|------------------------------|
------------------------------|------------------------------|
------------------------------|--7--7-7-7--7-7-7--7-7-7--7-7-|
--2--2-2-2--2-2-2--2-2-2--2-2-|------------------------------|


  E  S S E  S S E  S S E  S S    E  S S E  S S E  S S E  S S  
------------------------------|------------------------------|
------------------------------|------------------------------|
--5--5-5-5--5-5-5--5-5-5--5-5-|--4--4-4-4--4-4-4--4-4-4--4-4-|
------------------------------|------------------------------|


  E  S S E  S S E  S S E  S S    E  S S E  S S E  S S E  S S  
------------------------------|------------------------------|
------------------------------|------------------------------|
--4--4-4-4--4-4-4--4-4-4--4-4-|--4--4-4-4--4-4-4--4-4-4--4-4-|
------------------------------|------------------------------|


  E  S S E  S S E  S S E  S S    Q    E  H        E     E  E  E  Q    E  E  E   
------------------------------|----------------------|-------------------------|
------------------------------|----------------------|-------------------------|
--4--4-4-4--4-4-4--4-4-4--4-4-|--2-------2-----------|-----4--2--4----------4--|
------------------------------|----------------------|----------------0--2-----|


  Q    E  H        E     E  S S E  S S E  S S E  S S  
----------------------|------------------------------|
----------------------|------------------------------|
--2-------2-----------|--4--4-4-4--4-4-4--4-4-4--4-4-|
----------------------|------------------------------|


  Q    E  Q    E    E   E     E  E  E  Q    E  Q     
---------------------------|------------------------|
----------9----------------|------------------------|
---------------------------|-----4--2--4----L--2----|
--7-------7----7S--12S--0--|------------------------|


   S  S  S  S  S  S  S  S S S S S S S S S    S S S S S S S S S S Q.      
------------------------------------------|-----------------------------|
------------------------------------------|-----------------------------|
--12-12-12-12-11-11-11-11-9-9-9-9-7-7-7-7-|--6-6-6-6-4-4-4-2-4----------|
------------------------------------------|-----------------------------|


  E  E  E  E  E  E  E  E     E  E  E  E  E  E  E  E   
--------------------------|--------------------------|
--------6-----------------|--------6-----------------|
--4-----------7-----4--2--|--0-----------7-----4--2--|
--------------------------|--------------------------|


  E  S S E  S S E  S S E  S S    E  S S E  S S E  S S E  S S  
------------------------------|------------------------------|
---------2-------------2------|---------6-------------6------|
--2--2-2----2-2-2--2-2----2-2-|--4--4-4----4-4-4--4-4----4-4-|
------------------------------|------------------------------|


  E  E  E  E  E  E  E  E     E  E  E  E  E  E  E  E   
--------------------------|--------------------------|
--------6-----------------|--------6-----------------|
--4-----------7-----4--2--|--0-----------7-----4--2--|
--------------------------|--------------------------|


                                                           Fade Out   
  E  S S E  S S E  S S E  S S    E  S S E  S S E  S S E  S S          
------------------------------|-------------------------------------||
---------2-------------2------|---------6-------------6-------------||
--2--2-2----2-2-2--2-2----2-2-|--4--4-4----4-4-4--4-4----4-4--------||
------------------------------|-------------------------------------||




Duration Legend
---------------
W - whole
H - half
Q - quarter
E - 8th
S - 16th
T - 32nd
X - 64th
. - note dotted
|-n-|  - n-tuplets


Tablature Legend
----------------
L - tied note
x - dead note
g - grace note
(n) - ghost note
> - accentuded note
NH - natural harmonic
AH - artificial harmonic
TH - tapped harmonic
SH - semi harmonic
PH - pitch harmonic
h - hammer on
p - pull off
b - bend
br - bendRelease
pb - preBend
pbr - preBendRelease
brb - bendReleaseBend
\n/ - tremolo bar dip
\n - tremolo bar dive
-/n - tremolo bar Release up
/n\ - tremolo bar inverted dip
/n - tremolo bar return
-\n - tremolo bar Release down
S - shift slide
s - legato slide
/ -  slide into from below or out of upwards
\ -  slide into from above or out of downwards
~ - vibrato
W - wide vibrato
tr - trill
TP - tremolo picking
T - tapping
S - slap
P - pop
< - fade in
^ - brush up
v - brush down
comments
We did not receive enough feedback on this tab! Please rate:
print report bad tab
1 2 3 4 5
I want to post or [tab]
guest
You may want to rate the tab now too:
select rating
Please do not post tabs as comments. Select "correction" instead!