Oops, an error
Loading. Please wait.

Hellhammer Tab

675 views 3 this week
no commentswrite comment
1 2 3 4 5
excellent!
x 2
Autoscroll
+/-
esc
set tempo
stop
Contributor
Difficulty
intermediate
WARNING: You are trying to view
                                    content from Ultimate-Guitar.com
                                    in an unauthorized application,
                                    which is prohibited.

                                    Please use an official Ultimate
                                    Guitar Tabs application for iPhone,
                                    iPad or Android to access legitimate
                                    chords, guitar, bass, and drum tabs
                                    from Ultimate-Guitar.com database.

                                    Type "ultimate guitar tabs" in Apple
                                    App Store's or Android Market's
                                    search to find the application.
                                  Hellhammer                                    


                                                                          Accept
Guitar I



                                              PM PM PM PM PM PM PM     
      W                   W                   E  E  E  E  E  E  E  E   
D#||-------------------|-------------------|--------------------------|
A#||-------------------|-------------------|--------------------------|
F#||-------------------|-------------------|--------------------------|
C#||-------------------|-------------------|-----------------------7--|
G#||-------------------|-------------------|--5--5--5--5--5--5--5--5--|
D#||-------------------|-------------------|--------------------------|


  Q    E  E  E  E  E  E     Q    E  E  E  E  E  E     W                 
-------------------------|-------------------------|-------------------|
-------------------------|-------------------------|-------------------|
----------5-----7--------|----------5-----7--------|-------------------|
--7-------3-----5-----7--|--L-------3-----5-----7--|--7----------------|
--5-------------------5--|--L-------------------5--|--5----------------|
-------------------------|-------------------------|-------------------|


  H.           E  E     Q    E  E  E  E  E  E     Q    E  E  E  E  E  E   
---------------------|-------------------------|-------------------------|
---------------------|-------------------------|-------------------------|
---------------------|----------5-----5--------|----------5-----5--------|
--L------------L--3--|--L-------2-----3-----3--|--L-------2-----3-----5--|
--L------------L--1--|--L-------------------1--|--L-------------------3--|
---------------------|-------------------------|-------------------------|


  W                   H.           E  E     Q    E  E  E  E  E  E   
-------------------|---------------------|-------------------------|
-------------------|---------------------|-------------------------|
-------------------|---------------------|----------5-----7--------|
--5----------------|--L------------L--7--|--L-------3-----5-----7--|
--3----------------|--L------------L--5--|--L-------------------5--|
-------------------|---------------------|-------------------------|


                      PM       PM PM         PM PM    PM    PM               
  Q    E  E  E  E  E  E     E  E  E  E  Q    E  E     E  E  E  E  Q.     E   
-------------------------|-------------------------|------------------------|
-------------------------|-------------------------|------------------------|
----------5-----7--------|-------------------------|------------------------|
--7-------3-----5--------|--5--------5--L----------|-----5-----5--5------3--|
--5-------------------3--|--3--3--3--3--L----3--3--|--3--3--3--3--3------1--|
-------------------------|-------------------------|------------------------|


                                                PM       PM PM         PM PM  
  Q    E  E  E  E  E  E     Q    E  E  E  E  E  E     E  E  E  E  Q    E  E   
-------------------------|-------------------------|-------------------------|
-------------------------|-------------------------|-------------------------|
----------5-----5--------|----------5-----5--------|-------------------------|
--L-------2-----3-----3--|--L-------2-----3--------|--7--------7--L----------|
--L-------------------1--|--L-------------------5--|--5--5--5--5--L----5--5--|
-------------------------|-------------------------|-------------------------|


  PM    PM    PM          PM PM PM PM PM PM PM PM    PM PM PM PM PM PM PM PM  
  E  E  E  E  H           E  E  E  E  E  E  E  E     E  E  E  E  E  E  E  E   
-----------------------|--------------------------|--------------------------|
-----------------------|--------------------------|--------------------------|
-----------------------|--------------------------|--------------------------|
-----7-----7--7--------|--------------------------|--------------------------|
--5--5--5--5--5--------|--5--5--5--5--5--5--5--5--|--5--5--5--5--5--5--5--5--|
-----------------------|--------------------------|--------------------------|


  PM PM PM PM PM PM PM PM    PM PM PM PM PM PM         
  E  E  E  E  E  E  E  E     E  E  E  E  E  E   Q      
--------------------------|---------------------------|
--------------------------|---------------------------|
--------------------------|---------------------------|
--------------------------|--------------------10\----|
--7--7--7--7--7--7--7--7--|--8--8--8--8--8--8---8\----|
--------------------------|---------------------------|


  PM PM PM PM PM PM PM                                    PM PM PM           
  E  E  E  E  E  E  E  E     Q    E  Q.     E  E     Q    E  E  E  E  E  E   
--------------------------|-----------------------|-------------------------|
--------------------------|-----------------------|-------------------------|
--------------------------|-----------------------|-------------------------|
-----------------------7--|--L-------5---------7--|--L-------------5-----7--|
--1--1--1--1--1--1--1--5--|--L-------3---------5--|--L----5--5--5--3-----5--|
--------------------------|-----------------------|-------------------------|


       PM PM PM PM PM          PM PM PM PM PM PM PM    PM PM PM PM PM PM PM PM  
  Q    E  E  E  E  E  E     E  E  E  E  E  E  E  E     E  E  E  E  E  E  E  E   
-------------------------|--------------------------|--------------------------|
-------------------------|--------------------------|--------------------------|
-------------------------|--------------------------|--------------------------|
--L-------------------7--|--L-----------------------|--------------------------|
--L-------------5--3--5--|--L--5--5--5--5--5--5--5--|--5--5--5--5--5--5--5--5--|
-------3--5--6-----------|--------------------------|--------------------------|


  PM PM PM PM PM PM PM PM    PM PM PM PM PM PM         
  E  E  E  E  E  E  E  E     E  E  E  E  E  E   Q      
--------------------------|---------------------------|
--------------------------|---------------------------|
--------------------------|---------------------------|
--------------------------|--------------------10\----|
--7--7--7--7--7--7--7--7--|--8--8--8--8--8--8---8\----|
--------------------------|---------------------------|


  PM PM PM PM PM PM PM                                    PM PM PM PM    PM  
  E  E  E  E  E  E  E  E     Q    E  Q.     E  E     Q    E  E  E  E  E  E   
--------------------------|-----------------------|-------------------------|
--------------------------|-----------------------|-------------------------|
--------------------------|-----------------------|-------------------------|
-----------------------7--|--L-------5---------7--|--L----------------7-----|
--1--1--1--1--1--1--1--5--|--L-------3---------5--|--L----5--5--5--5--5--5--|
--------------------------|-----------------------|-------------------------|


        PM          PM            PM PM PM PM PM PM    PM PM PM PM PM PM PM PM  
  E  E  E  E  E  E  E  E     Q    E  E  E  E  E  E     E  E  E  E  E  E  E  E   
--------------------------|-------------------------|--------------------------|
--------------------------|-------------------------|--------------------------|
--------------------------|-------------------------|--------------------------|
--7--7-----7--7--7-----7--|--7----------------------|--------------------------|
--5--5--5--5--5--5--5--5--|--5----5--5--5--5--5--5--|--5--5--5--5--5--5--5--5--|
--------------------------|-------------------------|--------------------------|


  PM PM PM PM PM PM PM PM    PM PM PM PM PM PM         
  E  E  E  E  E  E  E  E     E  E  E  E  E  E   Q      
--------------------------|---------------------------|
--------------------------|---------------------------|
--------------------------|---------------------------|
--------------------------|--------------------10\----|
--7--7--7--7--7--7--7--7--|--8--8--8--8--8--8---8\----|
--------------------------|---------------------------|


  PM PM PM PM PM PM PM PM    PM PM PM PM PM PM PM PM  
  E  E  E  E  E  E  E  E     E  E  E  E  E  E  E  E   
--------------------------|--------------------------|
--------------------------|--------------------------|
--------------------------|--------------------------|
--------------------------|--3--3--3--3--3--3--3--3--|
--1--1--1--1--1--1--1--1--|--0--0--0--0--0--0--0--0--|
--------------------------|--------------------------|


  E  E  E  E  E  E  E  E     E  E  E  E  E  E  E  E     Q    E  E  E  E  E  E   
--------------------------|--------------------------|-------------------------|
--------------------------|--------------------------|-------------------------|
--------------------------|--------------------------|----------5-----7--------|
--2--2--2--2--2--2--2--2--|--2--2--2--2--2--2--2--2--|--7-------3-----5-----7--|
--0--0--0--0--0--0--0--0--|--0--0--0--0--0--0--0--0--|--5-------------------5--|
--------------------------|--------------------------|-------------------------|


  Q    E  E  E  E  E  E     W                   H.           E  E   
-------------------------|-------------------|---------------------|
-------------------------|-------------------|---------------------|
----------5-----7--------|-------------------|---------------------|
--L-------3-----5-----5--|--L----------------|--L------------L--3--|
--L-------------------3--|--L----------------|--L------------L--1--|
-------------------------|-------------------|---------------------|


                                                PM       PM PM         PM PM  
  Q    E  E  E  E  E  E     Q    E  E  E  E  E  E     E  E  E  E  Q    E  E   
-------------------------|-------------------------|-------------------------|
-------------------------|-------------------------|-------------------------|
----------5-----5--------|----------5-----5--------|-------------------------|
--L-------2-----3-----3--|--L-------2-----3--------|--7--------7--L----------|
--L-------------------1--|--L-------------------5--|--5--5--5--5--L----5--5--|
-------------------------|-------------------------|-------------------------|


  PM    PM    PM   PM PM    PM    PM PM                                      
  E  E  E  E  Q    E  E     E  E  E  E  H           E  E  E  E  E  E  E  E   
-------------------------|-----------------------|--------------------------|
-------------------------|-----------------------|--------------------------|
-------------------------|-----------------------|--------------------------|
-----7-----7--7----------|-----7--------7--------|--------------------------|
--5--5--5--5--5----5--5--|--5--5--5--5--5--------|--0--------------0--------|
-------------------------|-----------------------|-----3--1--3--L-----3--1--|


  PM PM PM PM PM PM PM PM         PM PM PM PM PM PM          PM PM PM PM PM PM  
  E  E  E  E  E  E  E  E     Q    E  E  E  E  E  E      Q    E  E  E  E  E  E   
--------------------------|-------------------------|--------------------------|
--------------------------|-------------------------|--------------------------|
--------------------------|-------------------------|--------------------------|
--------------------------|--8----------------------|--10----------------------|
--5--5--5--5--5--5--5--5--|--5----5--5--5--5--5--5--|---7----7--7--7--7--7--7--|
--------------------------|-------------------------|--------------------------|


        PM PM PM PM     PM    PM                                            
   Q    E  E  E  E   E  E     E  E  H        E  E     Q    E  Q.     E  E   
---------------------------|-----------------------|-----------------------|
---------------------------|-----------------------|-----------------------|
---------------------------|-----------------------|-----------------------|
--10----------------10-----|-----3--L--------L--7--|--L-------5---------7--|
---8----8--8--8--8---8--8--|--1--1--L--------L--5--|--L-------3---------5--|
---------------------------|-----------------------|-----------------------|


                                              PM PM PM PM PM PM PM PM  
  H        E  E  E  E     W                   E  E  E  E  E  E  E  E   
-----------------------|-------------------|--------------------------|
-----------------------|-------------------|--------------------------|
-----------------------|-------------------|--------------------------|
--L--------L--5-----7--|--L----------------|--------------------------|
--L--------L--3-----5--|--L----------------|--5--5--5--5--5--5--5--5--|
-----------------------|-------------------|--------------------------|


       PM PM PM PM PM PM          PM PM PM PM PM PM  
  Q    E  E  E  E  E  E      Q    E  E  E  E  E  E   
-------------------------|--------------------------|
-------------------------|--------------------------|
-------------------------|--------------------------|
--8----------------------|--10----------------------|
--5----5--5--5--5--5--5--|---7----7--7--7--7--7--7--|
-------------------------|--------------------------|


        PM PM    PM                                                 
   Q    E  E  E  E   Q        W                   W                 
---------------------------|-------------------|-------------------|
---------------------------|-------------------|-------------------|
---------------------------|-------------------|-------------------|
--10----------9-----10\----|--3----------------|--3----------------|
---8----8--8--8--8---8\----|--1----------------|--0----------------|
---------------------------|-------------------|-------------------|


                      PM         PM PM                                      
  W                   E    E  E  E  E    E  Q       Q    E  E  E  E  E  E   
-------------------|-----------------------------|-------------------------|
-------------------|-----------------------------|-------------------------|
-------------------|-----------------------------|----------5-----7--------|
--2----------------|-----<>7-----------<>7--L----|--7-------3-----5-----7--|
--0----------------|-----------------------------|--5-------------------5--|
-------------------|--5----------5--5------------|-------------------------|


  Q    E  E  E  E  E  E     W                   H.           E  E   
-------------------------|-------------------|---------------------|
-------------------------|-------------------|---------------------|
----------5-----7--------|-------------------|---------------------|
--L-------3-----5-----5--|--L----------------|--L------------L--3--|
--L-------------------3--|--L----------------|--L------------L--1--|
-------------------------|-------------------|---------------------|


                                                PM       PM PM         PM     
  Q    E  E  E  E  E  E     Q    E  E  E  E  E  E     E  E  E  E  Q    E  E   
-------------------------|-------------------------|-------------------------|
-------------------------|-------------------------|-------------------------|
----------5-----5--------|----------5-----5--------|-------------------------|
--L-------2-----3-----3--|--L-------2-----3--------|--7--------7--L-------7--|
--L-------------------1--|--L-------------------5--|--5--5--5--5--L----5-----|
-------------------------|-------------------------|-------------------------|


  E  E  E  E  E  E  E  E     E  E  E  E  E  E  E  E     Q    E  E  E  E  E  E   
--------------------------|--------------------------|-------------------------|
--------------------------|--------------------------|-------------------------|
--------------------------|--------------------------|----------5-----7--------|
--L--5-----5--L-----------|-----------------5--------|--7-------3-----5-----5--|
--------8--------8--7-----|--5-----5--8-----------5--|--5-------------------3--|
-----------------------8--|-----8--------------------|-------------------------|


  W                   H        E  E  E  E     Q    E  E  E  E  E  E   
-------------------|-----------------------|-------------------------|
-------------------|-----------------------|-------------------------|
-------------------|-----------------------|----------5-----5--------|
--L----------------|--L--------L--5-----5--|--3-------2-----3-----3--|
--L----------------|--L--------L--3-----3--|--1-------------------1--|
-------------------|-----------------------|-------------------------|


                      PM                                            
  Q    E  E  E  E  E  E     E  E  H.              W                 
-------------------------|---------------------|-------------------|
-------------------------|---------------------|-------------------|
----------5-----5--------|---------------------|-------------------|
--L-------2-----3--------|--7------------------|-------------------|
--L-------------------5--|--5------------------|-------------------|
-------------------------|---------------------|-------------------|


   E  E  E   E  Q    E  E      Q.      Q.     E  E      E  E  E   E  H         
---------------------------|------------------------|-------------------------|
---------------------------|------------------------|-------------------------|
---------------------------|------------------------|-------------------------|
--12--x--x--10--L----x--x--|--12------10------x--x--|--12--x--x--10--L--------|
--10--x--x---8--L----x--x--|--10-------8------x--x--|--10--x--x---8--L--------|
---------------------------|------------------------|-------------------------|


  W                    E  E  E   E  Q    E  E      Q.      Q.     E  E   
-------------------|---------------------------|------------------------|
-------------------|---------------------------|------------------------|
-------------------|---------------------------|------------------------|
--L----------------|--12--x--x--10--L----x--x--|--12------10------x--x--|
--L----------------|--10--x--x---8--L----x--x--|--10-------8------x--x--|
-------------------|---------------------------|------------------------|


   E  E  E   E  H           W                    E  E  E   E  Q    E  E   
-------------------------|-------------------|---------------------------|
-------------------------|-------------------|---------------------------|
-------------------------|-------------------|---------------------------|
--12--x--x--10--L--------|--L----------------|--12--x--x--10--L----x--x--|
--10--x--x---8--L--------|--L----------------|--10--x--x---8--L----x--x--|
-------------------------|-------------------|---------------------------|


   Q.      Q.     E  E      E  E  E   E  H           W                 
------------------------|-------------------------|-------------------|
------------------------|-------------------------|-------------------|
------------------------|-------------------------|-------------------|
--12------10------x--x--|--12--x--x--10--L--------|--L----------------|
--10-------8------x--x--|--10--x--x---8--L--------|--L----------------|
------------------------|-------------------------|-------------------|


   E  E  E   E  Q    E  E      Q.      Q.     E  E      E  E  E   E  H         
---------------------------|------------------------|-------------------------|
---------------------------|------------------------|-------------------------|
---------------------------|------------------------|-------------------------|
--12--x--x--10--L----x--x--|--12------10------x--x--|--12--x--x--10--L--------|
--10--x--x---8--L----x--x--|--10-------8------x--x--|--10--x--x---8--L--------|
---------------------------|------------------------|-------------------------|


  W                    E  E  E   E  Q    E  E      Q.      Q.     E  E   
-------------------|---------------------------|------------------------|
-------------------|---------------------------|------------------------|
-------------------|---------------------------|------------------------|
--L----------------|--12--x--x--10--L----x--x--|--12------10------x--x--|
--L----------------|--10--x--x---8--L----x--x--|--10-------8------x--x--|
-------------------|---------------------------|------------------------|


   E  E  E   E  H           W                    E  E  E   E  Q    E  E   
-------------------------|-------------------|---------------------------|
-------------------------|-------------------|---------------------------|
-------------------------|-------------------|---------------------------|
--12--x--x--10--L--------|--L----------------|--12--x--x--10--L----x--x--|
--10--x--x---8--L--------|--L----------------|--10--x--x---8--L----x--x--|
-------------------------|-------------------|---------------------------|


   Q.      Q.     E  E     E  E  E  E  E  E  Q       E  E  Q.     E  E  E   
------------------------|-------------------------|------------------------|
------------------------|-------------------------|------------------------|
------------------------|-------------------------|------------------------|
--12------10------x--x--|--5--5-----5-----5-------|-----5---------5-----5--|
--10-------8------x--x--|--3--3-----3-----3-------|-----3---------3-----3--|
------------------------|-------------------------|------------------------|


  H        H            W                   W                 
---------------------|-------------------|-------------------|
---------------------|-------------------|-------------------|
---------------------|-------------------|-------------------|
-----------5\--------|-------------------|-------------------|
-----------3\--------|-------------------|-------------------|
---------------------|-------------------|-------------------|


                                                        PM PM  
  W                   W                   Q.     Q.     E  E   
-------------------|-------------------|----------------------|
-------------------|-------------------|----------------------|
-------------------|-------------------|----------------------|
-------------------|-------------------|--3-------------------|
-------------------|-------------------|--1------3------------|
-------------------|-------------------|---------1------1--1--|


       PM PM                            PM PM         PM PM            
  Q    E  E  Q    Q       Q.     Q.     E  E     Q    E  E  Q    Q     
-----------------------|----------------------|-----------------------|
-----------------------|----------------------|-----------------------|
-----------------------|----------------------|-----------------------|
-----------------------|--5------7------------|--7----------7---------|
--3----------3---------|--3------5------5--5--|-------5--5-------5----|
-------1--1-------1----|----------------------|-----------------------|


                PM PM         PM PM                            PM PM  
  Q.     Q.     E  E     Q    E  E  Q    Q       Q.     Q.     E  E   
----------------------|-----------------------|----------------------|
----------------------|-----------------------|----------------------|
----------------------|-----------------------|----------------------|
--3------3------------|--3----------3---------|---------5------------|
--0------1------1--1--|-------1--1-------1----|--5------3------3--3--|
----------------------|-----------------------|--3-------------------|


       PM PM                            PM PM         PM PM            
  Q    E  E  Q    Q       Q.     Q.     E  E     Q    E  E  Q    Q     
-----------------------|----------------------|-----------------------|
-----------------------|----------------------|-----------------------|
-----------------------|----------------------|-----------------------|
--5----------5---------|--3-------------------|-----------------------|
-------3--3-------3----|--1------3------------|--3----------3---------|
-----------------------|---------1------1--1--|-------1--1-------1----|


                PM PM         PM PM                            PM PM  
  Q.     Q.     E  E     Q    E  E  Q    Q       Q.     Q.     E  E   
----------------------|-----------------------|----------------------|
----------------------|-----------------------|----------------------|
----------------------|-----------------------|----------------------|
--5------7------------|--7----------7---------|--3------3------------|
--3------5------5--5--|-------5--5-------5----|--0------1------1--1--|
----------------------|-----------------------|----------------------|


       PM PM                            PM PM         PM PM            
  Q    E  E  Q    Q       Q.     Q.     E  E     Q    E  E  Q    Q     
-----------------------|----------------------|-----------------------|
-----------------------|----------------------|-----------------------|
-----------------------|----------------------|-----------------------|
--3----------3---------|---------5------------|--5----------5---------|
-------1--1-------1----|--5------3------3--3--|-------3--3-------3----|
-----------------------|--3-------------------|-----------------------|


                PM PM         PM PM                            PM PM  
  Q.     Q.     E  E     Q    E  E  Q    Q       Q.     Q.     E  E   
----------------------|-----------------------|----------------------|
----------------------|-----------------------|----------------------|
----------------------|-----------------------|----------------------|
--3-------------------|-----------------------|--5------7------------|
--1------3------------|--3----------3---------|--3------5------5--5--|
---------1------1--1--|-------1--1-------1----|----------------------|


       PM PM                            PM PM         PM PM            
  Q    E  E  Q    Q       Q.     Q.     E  E     Q    E  E  Q    Q     
-----------------------|----------------------|-----------------------|
-----------------------|----------------------|-----------------------|
-----------------------|----------------------|-----------------------|
--7----------7---------|--3------3------------|--3----------3---------|
-------5--5-------5----|--0------1------1--1--|-------1--1-------1----|
-----------------------|----------------------|-----------------------|


                PM PM         PM PM                            PM PM  
  Q.     Q.     E  E     Q    E  E  Q    Q       Q.     Q.     E  E   
----------------------|-----------------------|----------------------|
----------------------|-----------------------|----------------------|
----------------------|-----------------------|----------------------|
---------5------------|--5----------5---------|--3-------------------|
--5------3------3--3--|-------3--3-------3----|--1------3------------|
--3-------------------|-----------------------|---------1------1--1--|


       PM PM                            PM PM         PM PM            
  Q    E  E  Q    Q       Q.     Q.     E  E     Q    E  E  Q    Q     
-----------------------|----------------------|-----------------------|
-----------------------|----------------------|-----------------------|
-----------------------|----------------------|-----------------------|
-----------------------|--5------7------------|--7----------7---------|
--3----------3---------|--3------5------5--5--|-------5--5-------5----|
-------1--1-------1----|----------------------|-----------------------|


                PM PM         PM PM                                      
  Q.     Q.     E  E     Q    E  E  Q    Q    E  E     W                 
----------------------|-----------------------------|-------------------|
----------------------|-----------------------------|-------------------|
----------------------|-----------------------------|-------------------|
--3------3------------|--3----------3---------5--5--|--L----------------|
--0------1------1--1--|-------1--1-------1----3--3--|--L----------------|
----------------------|-----------------------------|-------------------|


  W                   W                   W                 
-------------------|-------------------|-------------------|
-------------------|-------------------|-------------------|
-------------------|-------------------|-------------------|
--L----------------|--L----------------|--L----------------|
--L----------------|--L----------------|--L----------------|
-------------------|-------------------|-------------------|


  Q    E  E  E  E  E  E     Q    E  E  E  E  E  E     W                 
-------------------------|-------------------------|-------------------|
-------------------------|-------------------------|-------------------|
----------5-----7--------|----------5-----7--------|-------------------|
--7-------3-----5-----7--|--L-------3-----5-----5--|--L----------------|
--5-------------------5--|--L-------------------3--|--L----------------|
-------------------------|-------------------------|-------------------|


                                                                      PM  
  H.           E  E     Q    E  E  E  E  E  E     Q    E  E  E  E  E  E   
---------------------|-------------------------|-------------------------|
---------------------|-------------------------|-------------------------|
---------------------|----------5-----5--------|----------5-----5--------|
--L------------L--3--|--L-------2-----3-----3--|--L-------2-----3--------|
--L------------L--1--|--L-------------------1--|--L-------------------5--|
---------------------|-------------------------|-------------------------|


     PM PM         PM PM    PM    PM    PM        
  E  E  E  E  Q    E  E     E  E  E  E  H         
-------------------------|-----------------------|
-------------------------|-----------------------|
-------------------------|-----------------------|
--7--------7--L----------|-----7-----7--7--------|
--5--5--5--5--L----5--5--|--5--5--5--5--5--------|
-------------------------|-----------------------|


  Repeat To End: Bar 157-171                                              
  Q                          E  E  E  E  E  E     Q    E  E  E  E  E  E   
-----------------------------------------------|-------------------------|
-----------------------------------------------|-------------------------|
--------------------------------5-----7--------|----------5-----7--------|
--7-----------------------------3-----5-----7--|--L-------3-----5-----5--|
--5-----------------------------------------5--|--L-------------------3--|
-----------------------------------------------|-------------------------|


  W                   H.           E  E     Q    E  E  E  E  E  E   
-------------------|---------------------|-------------------------|
-------------------|---------------------|-------------------------|
-------------------|---------------------|----------5-----5--------|
--L----------------|--L------------L--3--|--L-------2-----3-----3--|
--L----------------|--L------------L--1--|--L-------------------1--|
-------------------|---------------------|-------------------------|


                      PM       PM PM         PM                                 
  Q    E  E  E  E  E  E     E  E  E  E  Q    E  E     E  E  E  E  E  E   E  E   
-------------------------|-------------------------|---------------------------|
-------------------------|-------------------------|---------------------------|
----------5-----5--------|-------------------------|---------------------------|
--L-------2-----3--------|--7--------7--L-------7--|--L--5-----5--L------------|
--L-------------------5--|--5--5--5--5--L----5-----|--------8--------8p--7-----|
-------------------------|-------------------------|------------------------8--|


  E  E  E  E  E  E  E  E     E  E  E  E  E  E  E  E  E  E  Q     
--------------------------|-------------------------------------|
--------------------------|-------------------------------------|
--------------------------|-----------5-----7-----5-------------|
-----------------5--------|-----7-----3-----5-----3-----7--5----|
--5-----5--8-----------5--|-----5-----------------------5--3----|
-----8--------------------|-------------------------------------|


  W                E  E  E  E     Q    E  E  E  E  E  E   
-------------------------------|-------------------------|
-------------------------------|-------------------------|
-------------------------------|----------5-----5--------|
--L----------------L--5-----5--|--3-------2-----3-----3--|
--L----------------L--3-----3--|--1-------------------1--|
-------------------------------|-------------------------|


                      PM       PM PM         PM PM    PM    PM         PM PM  
  Q    E  E  E  E  E  E     E  E  E  E  Q    E  E     E  E  E  E  Q    E  E   
-------------------------|-------------------------|-------------------------|
-------------------------|-------------------------|-------------------------|
----------5-----5--------|-------------------------|-------------------------|
--L-------2-----3--------|--7--------7--L----------|-----7-----7--7----------|
--L-------------------5--|--5--5--5--5--L----5--5--|--5--5--5--5--5----5--5--|
-------------------------|-------------------------|-------------------------|


  Q    E  E  E  E  E  E     Q    E  E  E  E  E  E     W                 
-------------------------|-------------------------|-------------------|
-------------------------|-------------------------|-------------------|
----------5-----7--------|----------5-----7--------|-------------------|
--7-------3-----5-----7--|--L-------3-----5-----5--|--L----------------|
--5-------------------5--|--L-------------------3--|--L----------------|
-------------------------|-------------------------|-------------------|


                                                                      PM  
  H.           E  E     Q    E  E  E  E  E  E     Q    E  E  E  E  E  E   
---------------------|-------------------------|-------------------------|
---------------------|-------------------------|-------------------------|
---------------------|----------5-----5--------|----------5-----5--------|
--L------------L--3--|--L-------2-----3-----3--|--L-------2-----3--------|
--L------------L--1--|--L-------------------1--|--L-------------------5--|
---------------------|-------------------------|-------------------------|


     PM PM         PM                                 
  E  E  E  E  Q    E  E     E  E  E  E  E  E   E  E   
-------------------------|---------------------------|
-------------------------|---------------------------|
-------------------------|---------------------------|
--7--------7--L-------7--|--L--5-----5--L------------|
--5--5--5--5--L----5-----|--------8--------8p--7-----|
-------------------------|------------------------8--|


  E  E  E  E  E  E  E  E     E  E  E  E  E  E  E  E  E  E  Q     
--------------------------|-------------------------------------|
--------------------------|-------------------------------------|
--------------------------|-----------5-----7-----5-------------|
-----------------5--------|-----7-----3-----5-----3-----7--5----|
--5-----5--8-----------5--|-----5-----------------------5--3----|
-----8--------------------|-------------------------------------|


  W                E  E  E  E     Q    E  E  E  E  E  E   
-------------------------------|-------------------------|
-------------------------------|-------------------------|
-------------------------------|----------5-----5--------|
--L----------------L--5-----5--|--3-------2-----3-----3--|
--L----------------L--3-----3--|--1-------------------1--|
-------------------------------|-------------------------|


                      PM       PM PM         PM PM    PM    PM         PM PM  
  Q    E  E  E  E  E  E     E  E  E  E  Q    E  E     E  E  E  E  Q    E  E   
-------------------------|-------------------------|-------------------------|
-------------------------|-------------------------|-------------------------|
----------5-----5--------|-------------------------|-------------------------|
--L-------2-----3--------|--7--------7--L----------|-----7-----7--7----------|
--L-------------------5--|--5--5--5--5--L----5--5--|--5--5--5--5--5----5--5--|
-------------------------|-------------------------|-------------------------|


  Q    E  E  E  E  E  E     Q    E  E  E  E  E  E     W                 
-------------------------|-------------------------|-------------------|
-------------------------|-------------------------|-------------------|
----------5-----7--------|----------5-----7--------|-------------------|
--7-------3-----5-----7--|--L-------3-----5-----5--|--L----------------|
--5-------------------5--|--L-------------------3--|--L----------------|
-------------------------|-------------------------|-------------------|


                                                                      PM  
  H.           E  E     Q    E  E  E  E  E  E     Q    E  E  E  E  E  E   
---------------------|-------------------------|-------------------------|
---------------------|-------------------------|-------------------------|
---------------------|----------5-----5--------|----------5-----5--------|
--L------------L--3--|--L-------2-----3-----3--|--L-------2-----3--------|
--L------------L--1--|--L-------------------1--|--L-------------------5--|
---------------------|-------------------------|-------------------------|


     PM PM         PM                                 
  E  E  E  E  Q    E  E     E  E  E  E  E  E   E  E   
-------------------------|---------------------------|
-------------------------|---------------------------|
-------------------------|---------------------------|
--7--------7--L-------7--|--L--5-----5--L------------|
--5--5--5--5--L----5-----|--------8--------8p--7-----|
-------------------------|------------------------8--|


  E  E  E  E  E  E  E  E     E  E  E  E  E  E  E  E  E  E  Q     
--------------------------|-------------------------------------|
--------------------------|-------------------------------------|
--------------------------|-----------5-----7-----5-------------|
-----------------5--------|-----7-----3-----5-----3-----7--5----|
--5-----5--8-----------5--|-----5-----------------------5--3----|
-----8--------------------|-------------------------------------|


  W                E  E  E  E     Q    E  E  E  E  E  E   
-------------------------------|-------------------------|
-------------------------------|-------------------------|
-------------------------------|----------5-----5--------|
--L----------------L--5-----5--|--3-------2-----3-----3--|
--L----------------L--3-----3--|--1-------------------1--|
-------------------------------|-------------------------|


                      PM       PM PM         PM PM    PM    PM         PM PM  
  Q    E  E  E  E  E  E     E  E  E  E  Q    E  E     E  E  E  E  Q    E  E   
-------------------------|-------------------------|-------------------------|
-------------------------|-------------------------|-------------------------|
----------5-----5--------|-------------------------|-------------------------|
--L-------2-----3--------|--7--------7--L----------|-----7-----7--7----------|
--L-------------------5--|--5--5--5--5--L----5--5--|--5--5--5--5--5----5--5--|
-------------------------|-------------------------|-------------------------|


  Q    E  E  E  E  E  E     Q    E  E  E  E  E  E     W                 
-------------------------|-------------------------|-------------------|
-------------------------|-------------------------|-------------------|
----------5-----7--------|----------5-----7--------|-------------------|
--7-------3-----5-----7--|--L-------3-----5-----5--|--L----------------|
--5-------------------5--|--L-------------------3--|--L----------------|
-------------------------|-------------------------|-------------------|


                                                                      PM  
  H.           E  E     Q    E  E  E  E  E  E     Q    E  E  E  E  E  E   
---------------------|-------------------------|-------------------------|
---------------------|-------------------------|-------------------------|
---------------------|----------5-----5--------|----------5-----5--------|
--L------------L--3--|--L-------2-----3-----3--|--L-------2-----3--------|
--L------------L--1--|--L-------------------1--|--L-------------------5--|
---------------------|-------------------------|-------------------------|


     PM PM         PM                                 
  E  E  E  E  Q    E  E     E  E  E  E  E  E   E  E   
-------------------------|---------------------------|
-------------------------|---------------------------|
-------------------------|---------------------------|
--7--------7--L-------7--|--L--5-----5--L------------|
--5--5--5--5--L----5-----|--------8--------8p--7-----|
-------------------------|------------------------8--|


  E  E  E  E  E  E  E  E     E  E  E  E  E  E  E  E  E  E  Q     
--------------------------|-------------------------------------|
--------------------------|-------------------------------------|
--------------------------|-----------5-----7-----5-------------|
-----------------5--------|-----7-----3-----5-----3-----7--5----|
--5-----5--8-----------5--|-----5-----------------------5--3----|
-----8--------------------|-------------------------------------|


                                  Fade Out...                    
  W                E  E  E  E     Q           E  E  E  E  E  E   
-------------------------------|--------------------------------|
-------------------------------|--------------------------------|
-------------------------------|-----------------5-----5--------|
--L----------------L--5-----5--|--3--------------2-----3-----3--|
--L----------------L--3-----3--|--1--------------------------1--|
-------------------------------|--------------------------------|


                      PM       PM PM         PM PM    PM    PM         PM PM   
  Q    E  E  E  E  E  E     E  E  E  E  Q    E  E     E  E  E  E  Q    E  E    
-------------------------|-------------------------|-------------------------||
-------------------------|-------------------------|-------------------------||
----------5-----5--------|-------------------------|-------------------------||
--L-------2-----3--------|--7--------7--L----------|-----7-----7--7----------||
--L-------------------5--|--5--5--5--5--L----5--5--|--5--5--5--5--5----5--5--||
-------------------------|-------------------------|-------------------------||


______________________________________________________________________________
______________________________________________________________________________
                                                                    


                                                                          
Guitar II



      PM PM PM PM PM PM PM PM    PM PM PM PM PM PM PM PM  
      E  E  E  E  E  E  E  E     E  E  E  E  E  E  E  E   
D#||--------------------------|--------------------------|
A#||--------------------------|--------------------------|
F#||--------------------------|--------------------------|
C#||--------------------------|--------------------------|
G#||--5--5--5--5--5--5--5--5--|--5--5--5--5--5--5--5--5--|
D#||--------------------------|--------------------------|


  PM PM PM PM PM PM PM PM    PM PM PM PM PM PM PM PM  
  E  E  E  E  E  E  E  E     E  E  E  E  E  E  E  E   
--------------------------|--------------------------|
--------------------------|--------------------------|
--------------------------|--------------------------|
--------------------------|--------------------------|
--5--5--5--5--5--5--5--5--|--5--5--5--5--5--5--5--5--|
--------------------------|--------------------------|


  PM PM PM PM PM PM PM PM    PM PM PM PM PM PM PM PM  
  E  E  E  E  E  E  E  E     E  E  E  E  E  E  E  E   
--------------------------|--------------------------|
--------------------------|--------------------------|
--------------------------|--------------------------|
--------------------------|--------------------------|
--5--5--5--5--5--5--5--5--|--5--5--5--5--5--5--5--5--|
--------------------------|--------------------------|


  PM PM PM PM PM PM PM PM    PM PM PM PM PM PM PM PM  
  E  E  E  E  E  E  E  E     E  E  E  E  E  E  E  E   
--------------------------|--------------------------|
--------------------------|--------------------------|
--------------------------|--------------------------|
--------------------------|--------------------------|
--5--5--5--5--5--5--5--5--|--5--5--5--5--5--5--5--5--|
--------------------------|--------------------------|


  PM PM PM PM PM PM PM PM    PM PM PM PM PM PM PM PM  
  E  E  E  E  E  E  E  E     E  E  E  E  E  E  E  E   
--------------------------|--------------------------|
--------------------------|--------------------------|
--------------------------|--------------------------|
--------------------------|--------------------------|
--5--5--5--5--5--5--5--5--|--5--5--5--5--5--5--5--5--|
--------------------------|--------------------------|


  PM PM PM PM PM PM PM                                                     PM  
  E  E  E  E  E  E  E  E     Q    E  E  E  E  E  E     Q    E  E  E  E  E  E   
--------------------------|-------------------------|-------------------------|
--------------------------|-------------------------|-------------------------|
--------------------------|----------5-----7--------|----------5-----7--------|
-----------------------7--|--L-------3-----5-----7--|--7-------3-----5--------|
--5--5--5--5--5--5--5--5--|--L-------------------5--|--5-------------------3--|
--------------------------|-------------------------|-------------------------|


     PM PM         PM PM    PM    PM                                         
  E  E  E  E  Q    E  E     E  E  E  E  Q.     E     Q    E  E  E  E  E  E   
-------------------------|------------------------|-------------------------|
-------------------------|------------------------|-------------------------|
-------------------------|------------------------|----------5-----5--------|
--5--------5--L----------|-----5-----5--5------3--|--L-------2-----3-----3--|
--3--3--3--3--L----3--3--|--3--3--3--3--3------1--|--L-------------------1--|
-------------------------|------------------------|-------------------------|


                      PM       PM PM         PM PM    PM    PM    PM        
  Q    E  E  E  E  E  E     E  E  E  E  Q    E  E     E  E  E  E  H         
-------------------------|-------------------------|-----------------------|
-------------------------|-------------------------|-----------------------|
----------5-----5--------|-------------------------|-----------------------|
--L-------2-----3--------|--7--------7--L----------|-----7-----7--7--------|
--L-------------------5--|--5--5--5--5--L----5--5--|--5--5--5--5--5--------|
-------------------------|-------------------------|-----------------------|


  PM PM PM PM PM PM PM PM    PM PM PM PM PM PM PM PM  
  E  E  E  E  E  E  E  E     E  E  E  E  E  E  E  E   
--------------------------|--------------------------|
--------------------------|--------------------------|
--------------------------|--------------------------|
--------------------------|--------------------------|
--5--5--5--5--5--5--5--5--|--5--5--5--5--5--5--5--5--|
--------------------------|--------------------------|


  PM PM PM PM PM PM PM PM    PM PM PM PM PM PM         
  E  E  E  E  E  E  E  E     E  E  E  E  E  E   Q      
--------------------------|---------------------------|
--------------------------|---------------------------|
--------------------------|---------------------------|
--------------------------|--------------------10\----|
--7--7--7--7--7--7--7--7--|--8--8--8--8--8--8---8\----|
--------------------------|---------------------------|


  PM PM PM PM PM PM PM                                    PM PM PM           
  E  E  E  E  E  E  E  E     Q    E  Q.     E  E     Q    E  E  E  E  E  E   
--------------------------|-----------------------|-------------------------|
--------------------------|-----------------------|-------------------------|
--------------------------|-----------------------|-------------------------|
-----------------------7--|--L-------5---------7--|--L-------------5-----7--|
--1--1--1--1--1--1--1--5--|--L-------3---------5--|--L----5--5--5--3-----5--|
--------------------------|-----------------------|-------------------------|


       PM PM PM PM PM          PM PM PM PM PM PM PM    PM PM PM PM PM PM PM PM  
  Q    E  E  E  E  E  E     E  E  E  E  E  E  E  E     E  E  E  E  E  E  E  E   
-------------------------|--------------------------|--------------------------|
-------------------------|--------------------------|--------------------------|
-------------------------|--------------------------|--------------------------|
--L-------------------7--|--L-----------------------|--------------------------|
--L-------------5--3--5--|--L--5--5--5--5--5--5--5--|--5--5--5--5--5--5--5--5--|
-------3--5--6-----------|--------------------------|--------------------------|


  PM PM PM PM PM PM PM PM    PM PM PM PM PM PM         
  E  E  E  E  E  E  E  E     E  E  E  E  E  E   Q      
--------------------------|---------------------------|
--------------------------|---------------------------|
--------------------------|---------------------------|
--------------------------|--------------------10\----|
--7--7--7--7--7--7--7--7--|--8--8--8--8--8--8---8\----|
--------------------------|---------------------------|


  PM PM PM PM PM PM PM                                    PM PM PM PM    PM  
  E  E  E  E  E  E  E  E     Q    E  Q.     E  E     Q    E  E  E  E  E  E   
--------------------------|-----------------------|-------------------------|
--------------------------|-----------------------|-------------------------|
--------------------------|-----------------------|-------------------------|
-----------------------7--|--L-------5---------7--|--L----------------7-----|
--1--1--1--1--1--1--1--5--|--L-------3---------5--|--L----5--5--5--5--5--5--|
--------------------------|-----------------------|-------------------------|


        PM          PM            PM PM PM PM PM PM    PM PM PM PM PM PM PM PM  
  E  E  E  E  E  E  E  E     Q    E  E  E  E  E  E     E  E  E  E  E  E  E  E   
--------------------------|-------------------------|--------------------------|
--------------------------|-------------------------|--------------------------|
--------------------------|-------------------------|--------------------------|
--7--7-----7--7--7-----7--|--7----------------------|--------------------------|
--5--5--5--5--5--5--5--5--|--5----5--5--5--5--5--5--|--5--5--5--5--5--5--5--5--|
--------------------------|-------------------------|--------------------------|


  PM PM PM PM PM PM PM PM    PM PM PM PM PM PM         
  E  E  E  E  E  E  E  E     E  E  E  E  E  E   Q      
--------------------------|---------------------------|
--------------------------|---------------------------|
--------------------------|---------------------------|
--------------------------|--------------------10\----|
--7--7--7--7--7--7--7--7--|--8--8--8--8--8--8---8\----|
--------------------------|---------------------------|


  PM PM PM PM PM PM PM PM    PM PM PM PM PM PM PM PM  
  E  E  E  E  E  E  E  E     E  E  E  E  E  E  E  E   
--------------------------|--------------------------|
--------------------------|--------------------------|
--------------------------|--------------------------|
--------------------------|--3--3--3--3--3--3--3--3--|
--1--1--1--1--1--1--1--1--|--0--0--0--0--0--0--0--0--|
--------------------------|--------------------------|


  E  E  E  E  E  E  E  E     E  E  E  E  E  E  E  E     Q    E  E  E  E  E  E   
--------------------------|--------------------------|-------------------------|
--------------------------|--------------------------|-------------------------|
--------------------------|--------------------------|----------5-----7--------|
--2--2--2--2--2--2--2--2--|--2--2--2--2--2--2--2--2--|--7-------3-----5-----7--|
--0--0--0--0--0--0--0--0--|--0--0--0--0--0--0--0--0--|--5-------------------5--|
--------------------------|--------------------------|-------------------------|


  Q    E  E  E  E  E  E     W                   H.           E  E   
-------------------------|-------------------|---------------------|
-------------------------|-------------------|---------------------|
----------5-----7--------|-------------------|---------------------|
--L-------3-----5-----5--|--L----------------|--L------------L--3--|
--L-------------------3--|--L----------------|--L------------L--1--|
-------------------------|-------------------|---------------------|


                                                PM       PM PM         PM PM  
  Q    E  E  E  E  E  E     Q    E  E  E  E  E  E     E  E  E  E  Q    E  E   
-------------------------|-------------------------|-------------------------|
-------------------------|-------------------------|-------------------------|
----------5-----5--------|----------5-----5--------|-------------------------|
--L-------2-----3-----3--|--L-------2-----3--------|--7--------7--L----------|
--L-------------------1--|--L-------------------5--|--5--5--5--5--L----5--5--|
-------------------------|-------------------------|-------------------------|


  PM    PM    PM   PM PM    PM    PM PM                                      
  E  E  E  E  Q    E  E     E  E  E  E  H           E  E  E  E  E  E  E  E   
-------------------------|-----------------------|--------------------------|
-------------------------|-----------------------|--------------------------|
-------------------------|-----------------------|--------------------------|
-----7-----7--7----------|-----7--------7--------|--------------------------|
--5--5--5--5--5----5--5--|--5--5--5--5--5--------|--0--------------0--------|
-------------------------|-----------------------|-----3--1--3--L-----3--1--|


  PM PM PM PM PM PM PM PM         PM PM PM PM PM PM          PM PM PM PM PM PM  
  E  E  E  E  E  E  E  E     Q    E  E  E  E  E  E      Q    E  E  E  E  E  E   
--------------------------|-------------------------|--------------------------|
--------------------------|-------------------------|--------------------------|
--------------------------|-------------------------|--------------------------|
--------------------------|--8----------------------|--10----------------------|
--5--5--5--5--5--5--5--5--|--5----5--5--5--5--5--5--|---7----7--7--7--7--7--7--|
--------------------------|-------------------------|--------------------------|


        PM PM PM PM     PM    PM                                            
   Q    E  E  E  E   E  E     E  E  H        E  E     Q    E  Q.     E  E   
---------------------------|-----------------------|-----------------------|
---------------------------|-----------------------|-----------------------|
---------------------------|-----------------------|-----------------------|
--10----------------10-----|-----3--L--------L--7--|--L-------5---------7--|
---8----8--8--8--8---8--8--|--1--1--L--------L--5--|--L-------3---------5--|
---------------------------|-----------------------|-----------------------|


                                              PM PM PM PM PM PM PM PM  
  H        E  E  E  E     W                   E  E  E  E  E  E  E  E   
-----------------------|-------------------|--------------------------|
-----------------------|-------------------|--------------------------|
-----------------------|-------------------|--------------------------|
--L--------L--5-----7--|--L----------------|--------------------------|
--L--------L--3-----5--|--L----------------|--5--5--5--5--5--5--5--5--|
-----------------------|-------------------|--------------------------|


       PM PM PM PM PM PM          PM PM PM PM PM PM  
  Q    E  E  E  E  E  E      Q    E  E  E  E  E  E   
-------------------------|--------------------------|
-------------------------|--------------------------|
-------------------------|--------------------------|
--8----------------------|--10----------------------|
--5----5--5--5--5--5--5--|---7----7--7--7--7--7--7--|
-------------------------|--------------------------|


        PM PM    PM                                                 
   Q    E  E  E  E   Q        W                   W                 
---------------------------|-------------------|-------------------|
---------------------------|-------------------|-------------------|
---------------------------|-------------------|-------------------|
--10----------9-----10\----|--3----------------|--3----------------|
---8----8--8--8--8---8\----|--1----------------|--0----------------|
---------------------------|-------------------|-------------------|


                      PM         PM PM                                      
  W                   E    E  E  E  E    E  Q       Q    E  E  E  E  E  E   
-------------------|-----------------------------|-------------------------|
-------------------|-----------------------------|-------------------------|
-------------------|-----------------------------|----------5-----7--------|
--2----------------|-----<>7-----------<>7--L----|--7-------3-----5-----7--|
--0----------------|-----------------------------|--5-------------------5--|
-------------------|--5----------5--5------------|-------------------------|


  Q    E  E  E  E  E  E     W                   H.           E  E   
-------------------------|-------------------|---------------------|
-------------------------|-------------------|---------------------|
----------5-----7--------|-------------------|---------------------|
--L-------3-----5-----5--|--L----------------|--L------------L--3--|
--L-------------------3--|--L----------------|--L------------L--1--|
-------------------------|-------------------|---------------------|


                                                PM       PM PM         PM     
  Q    E  E  E  E  E  E     Q    E  E  E  E  E  E     E  E  E  E  Q    E  E   
-------------------------|-------------------------|-------------------------|
-------------------------|-------------------------|-------------------------|
----------5-----5--------|----------5-----5--------|-------------------------|
--L-------2-----3-----3--|--L-------2-----3--------|--7--------7--L-------7--|
--L-------------------1--|--L-------------------5--|--5--5--5--5--L----5-----|
-------------------------|-------------------------|-------------------------|


  E  E  E  E  E  E  E  E     E  E  E  E  E  E  E  E     Q    E  E  E  E  E  E   
--------------------------|--------------------------|-------------------------|
--------------------------|--------------------------|-------------------------|
--------------------------|--------------------------|----------5-----7--------|
--L--5-----5--L-----------|-----------------5--------|--7-------3-----5-----5--|
--------8--------8--7-----|--5-----5--8-----------5--|--5-------------------3--|
-----------------------8--|-----8--------------------|-------------------------|


  W                   H        E  E  E  E     Q    E  E  E  E  E  E   
-------------------|-----------------------|-------------------------|
-------------------|-----------------------|-------------------------|
-------------------|-----------------------|----------5-----5--------|
--L----------------|--L--------L--5-----5--|--3-------2-----3-----3--|
--L----------------|--L--------L--3-----3--|--1-------------------1--|
-------------------|-----------------------|-------------------------|


                      PM                                            
  Q    E  E  E  E  E  E     E  E  H.              W                 
-------------------------|---------------------|-------------------|
-------------------------|---------------------|-------------------|
----------5-----5--------|---------------------|-------------------|
--L-------2-----3--------|--7------------------|-------------------|
--L-------------------5--|--5------------------|-------------------|
-------------------------|---------------------|-------------------|


  W                   W                   W                   W                 
-------------------|-------------------|-------------------|-------------------|
-------------------|-------------------|-------------------|-------------------|
-------------------|-------------------|-------------------|-------------------|
-------------------|-------------------|-------------------|-------------------|
-------------------|-------------------|-------------------|-------------------|
-------------------|-------------------|-------------------|-------------------|


  W                   W                   W                   W                 
-------------------|-------------------|-------------------|-------------------|
-------------------|-------------------|-------------------|-------------------|
-------------------|-------------------|-------------------|-------------------|
-------------------|-------------------|-------------------|-------------------|
-------------------|-------------------|-------------------|-------------------|
-------------------|-------------------|-------------------|-------------------|


  W                   W                   W                   W                 
-------------------|-------------------|-------------------|-------------------|
-------------------|-------------------|-------------------|-------------------|
-------------------|-------------------|-------------------|-------------------|
-------------------|-------------------|-------------------|-------------------|
-------------------|-------------------|-------------------|-------------------|
-------------------|-------------------|-------------------|-------------------|


  W                   W                   W                   W                 
-------------------|-------------------|-------------------|-------------------|
-------------------|-------------------|-------------------|-------------------|
-------------------|-------------------|-------------------|-------------------|
-------------------|-------------------|-------------------|-------------------|
-------------------|-------------------|-------------------|-------------------|
-------------------|-------------------|-------------------|-------------------|


  W                   W                   W                   W                 
-------------------|-------------------|-------------------|-------------------|
-------------------|-------------------|-------------------|-------------------|
-------------------|-------------------|-------------------|-------------------|
-------------------|-------------------|-------------------|-------------------|
-------------------|-------------------|-------------------|-------------------|
-------------------|-------------------|-------------------|-------------------|


  W                   W                   W                   W                 
-------------------|-------------------|-------------------|-------------------|
-------------------|-------------------|-------------------|-------------------|
-------------------|-------------------|-------------------|-------------------|
-------------------|-------------------|-------------------|-------------------|
-------------------|-------------------|-------------------|-------------------|
-------------------|-------------------|-------------------|-------------------|


  W                   W                   W                   W                 
-------------------|-------------------|-------------------|-------------------|
-------------------|-------------------|-------------------|-------------------|
-------------------|-------------------|-------------------|-------------------|
-------------------|-------------------|-------------------|-------------------|
-------------------|-------------------|-------------------|-------------------|
-------------------|-------------------|-------------------|-------------------|


  W                   Q.     Q.     Q       W                 
-------------------|---------------------|---------------
comments
We did not receive enough feedback on this tab! Please rate:
1 2 3 4 5
I want to post or [tab]
guest
You may want to rate the tab now too:
select rating
Please do not post tabs as comments. Select "correction" instead!