Oops, an error
Loading. Please wait.

Hellhammer Tab

ver1
ver1

Whole song

Interactive

More versions @911Tabs.com
723 views 3 this week
no commentswrite comment
1 2 3 4 5
excellent!
x 2
Autoscroll
+/-
esc
set tempo
stop
Contributor
Difficulty
intermediate
Hey! There's an official Ultimate Guitar app which is ideal
for learning songs when you're away from computer. Get the app
WARNING: You are trying to view
                                    content from Ultimate-Guitar.com
                                    in an unauthorized application,
                                    which is prohibited.

                                    Please use an official Ultimate
                                    Guitar Tabs application for iPhone,
                                    iPad or Android to access legitimate
                                    chords, guitar, bass, and drum tabs
                                    from Ultimate-Guitar.com database.

                                    Type "ultimate guitar tabs" in Apple
                                    App Store's or Android Market's
                                    search to find the application.
                                  Hellhammer                                    


                                                                          Accept
Guitar I



                                              PM PM PM PM PM PM PM     
      W                   W                   E  E  E  E  E  E  E  E   
D#||-------------------|-------------------|--------------------------|
A#||-------------------|-------------------|--------------------------|
F#||-------------------|-------------------|--------------------------|
C#||-------------------|-------------------|-----------------------7--|
G#||-------------------|-------------------|--5--5--5--5--5--5--5--5--|
D#||-------------------|-------------------|--------------------------|


  Q    E  E  E  E  E  E     Q    E  E  E  E  E  E     W                 
-------------------------|-------------------------|-------------------|
-------------------------|-------------------------|-------------------|
----------5-----7--------|----------5-----7--------|-------------------|
--7-------3-----5-----7--|--L-------3-----5-----7--|--7----------------|
--5-------------------5--|--L-------------------5--|--5----------------|
-------------------------|-------------------------|-------------------|


  H.           E  E     Q    E  E  E  E  E  E     Q    E  E  E  E  E  E   
---------------------|-------------------------|-------------------------|
---------------------|-------------------------|-------------------------|
---------------------|----------5-----5--------|----------5-----5--------|
--L------------L--3--|--L-------2-----3-----3--|--L-------2-----3-----5--|
--L------------L--1--|--L-------------------1--|--L-------------------3--|
---------------------|-------------------------|-------------------------|


  W                   H.           E  E     Q    E  E  E  E  E  E   
-------------------|---------------------|-------------------------|
-------------------|---------------------|-------------------------|
-------------------|---------------------|----------5-----7--------|
--5----------------|--L------------L--7--|--L-------3-----5-----7--|
--3----------------|--L------------L--5--|--L-------------------5--|
-------------------|---------------------|-------------------------|


                      PM       PM PM         PM PM    PM    PM               
  Q    E  E  E  E  E  E     E  E  E  E  Q    E  E     E  E  E  E  Q.     E   
-------------------------|-------------------------|------------------------|
-------------------------|-------------------------|------------------------|
----------5-----7--------|-------------------------|------------------------|
--7-------3-----5--------|--5--------5--L----------|-----5-----5--5------3--|
--5-------------------3--|--3--3--3--3--L----3--3--|--3--3--3--3--3------1--|
-------------------------|-------------------------|------------------------|


                                                PM       PM PM         PM PM  
  Q    E  E  E  E  E  E     Q    E  E  E  E  E  E     E  E  E  E  Q    E  E   
-------------------------|-------------------------|-------------------------|
-------------------------|-------------------------|-------------------------|
----------5-----5--------|----------5-----5--------|-------------------------|
--L-------2-----3-----3--|--L-------2-----3--------|--7--------7--L----------|
--L-------------------1--|--L-------------------5--|--5--5--5--5--L----5--5--|
-------------------------|-------------------------|-------------------------|


  PM    PM    PM          PM PM PM PM PM PM PM PM    PM PM PM PM PM PM PM PM  
  E  E  E  E  H           E  E  E  E  E  E  E  E     E  E  E  E  E  E  E  E   
-----------------------|--------------------------|--------------------------|
-----------------------|--------------------------|--------------------------|
-----------------------|--------------------------|--------------------------|
-----7-----7--7--------|--------------------------|--------------------------|
--5--5--5--5--5--------|--5--5--5--5--5--5--5--5--|--5--5--5--5--5--5--5--5--|
-----------------------|--------------------------|--------------------------|


  PM PM PM PM PM PM PM PM    PM PM PM PM PM PM         
  E  E  E  E  E  E  E  E     E  E  E  E  E  E   Q      
--------------------------|---------------------------|
--------------------------|---------------------------|
--------------------------|---------------------------|
--------------------------|--------------------10\----|
--7--7--7--7--7--7--7--7--|--8--8--8--8--8--8---8\----|
--------------------------|---------------------------|


  PM PM PM PM PM PM PM                                    PM PM PM           
  E  E  E  E  E  E  E  E     Q    E  Q.     E  E     Q    E  E  E  E  E  E   
--------------------------|-----------------------|-------------------------|
--------------------------|-----------------------|-------------------------|
--------------------------|-----------------------|-------------------------|
-----------------------7--|--L-------5---------7--|--L-------------5-----7--|
--1--1--1--1--1--1--1--5--|--L-------3---------5--|--L----5--5--5--3-----5--|
--------------------------|-----------------------|-------------------------|


       PM PM PM PM PM          PM PM PM PM PM PM PM    PM PM PM PM PM PM PM PM  
  Q    E  E  E  E  E  E     E  E  E  E  E  E  E  E     E  E  E  E  E  E  E  E   
-------------------------|--------------------------|--------------------------|
-------------------------|--------------------------|--------------------------|
-------------------------|--------------------------|--------------------------|
--L-------------------7--|--L-----------------------|--------------------------|
--L-------------5--3--5--|--L--5--5--5--5--5--5--5--|--5--5--5--5--5--5--5--5--|
-------3--5--6-----------|--------------------------|--------------------------|


  PM PM PM PM PM PM PM PM    PM PM PM PM PM PM         
  E  E  E  E  E  E  E  E     E  E  E  E  E  E   Q      
--------------------------|---------------------------|
--------------------------|---------------------------|
--------------------------|---------------------------|
--------------------------|--------------------10\----|
--7--7--7--7--7--7--7--7--|--8--8--8--8--8--8---8\----|
--------------------------|---------------------------|


  PM PM PM PM PM PM PM                                    PM PM PM PM    PM  
  E  E  E  E  E  E  E  E     Q    E  Q.     E  E     Q    E  E  E  E  E  E   
--------------------------|-----------------------|-------------------------|
--------------------------|-----------------------|-------------------------|
--------------------------|-----------------------|-------------------------|
-----------------------7--|--L-------5---------7--|--L----------------7-----|
--1--1--1--1--1--1--1--5--|--L-------3---------5--|--L----5--5--5--5--5--5--|
--------------------------|-----------------------|-------------------------|


        PM          PM            PM PM PM PM PM PM    PM PM PM PM PM PM PM PM  
  E  E  E  E  E  E  E  E     Q    E  E  E  E  E  E     E  E  E  E  E  E  E  E   
--------------------------|-------------------------|--------------------------|
--------------------------|-------------------------|--------------------------|
--------------------------|-------------------------|--------------------------|
--7--7-----7--7--7-----7--|--7----------------------|--------------------------|
--5--5--5--5--5--5--5--5--|--5----5--5--5--5--5--5--|--5--5--5--5--5--5--5--5--|
--------------------------|-------------------------|--------------------------|


  PM PM PM PM PM PM PM PM    PM PM PM PM PM PM         
  E  E  E  E  E  E  E  E     E  E  E  E  E  E   Q      
--------------------------|---------------------------|
--------------------------|---------------------------|
--------------------------|---------------------------|
--------------------------|--------------------10\----|
--7--7--7--7--7--7--7--7--|--8--8--8--8--8--8---8\----|
--------------------------|---------------------------|


  PM PM PM PM PM PM PM PM    PM PM PM PM PM PM PM PM  
  E  E  E  E  E  E  E  E     E  E  E  E  E  E  E  E   
--------------------------|--------------------------|
--------------------------|--------------------------|
--------------------------|--------------------------|
--------------------------|--3--3--3--3--3--3--3--3--|
--1--1--1--1--1--1--1--1--|--0--0--0--0--0--0--0--0--|
--------------------------|--------------------------|


  E  E  E  E  E  E  E  E     E  E  E  E  E  E  E  E     Q    E  E  E  E  E  E   
--------------------------|--------------------------|-------------------------|
--------------------------|--------------------------|-------------------------|
--------------------------|--------------------------|----------5-----7--------|
--2--2--2--2--2--2--2--2--|--2--2--2--2--2--2--2--2--|--7-------3-----5-----7--|
--0--0--0--0--0--0--0--0--|--0--0--0--0--0--0--0--0--|--5-------------------5--|
--------------------------|--------------------------|-------------------------|


  Q    E  E  E  E  E  E     W                   H.           E  E   
-------------------------|-------------------|---------------------|
-------------------------|-------------------|---------------------|
----------5-----7--------|-------------------|---------------------|
--L-------3-----5-----5--|--L----------------|--L------------L--3--|
--L-------------------3--|--L----------------|--L------------L--1--|
-------------------------|-------------------|---------------------|


                                                PM       PM PM         PM PM  
  Q    E  E  E  E  E  E     Q    E  E  E  E  E  E     E  E  E  E  Q    E  E   
-------------------------|-------------------------|-------------------------|
-------------------------|-------------------------|-------------------------|
----------5-----5--------|----------5-----5--------|-------------------------|
--L-------2-----3-----3--|--L-------2-----3--------|--7--------7--L----------|
--L-------------------1--|--L-------------------5--|--5--5--5--5--L----5--5--|
-------------------------|-------------------------|-------------------------|


  PM    PM    PM   PM PM    PM    PM PM                                      
  E  E  E  E  Q    E  E     E  E  E  E  H           E  E  E  E  E  E  E  E   
-------------------------|-----------------------|--------------------------|
-------------------------|-----------------------|--------------------------|
-------------------------|-----------------------|--------------------------|
-----7-----7--7----------|-----7--------7--------|--------------------------|
--5--5--5--5--5----5--5--|--5--5--5--5--5--------|--0--------------0--------|
-------------------------|-----------------------|-----3--1--3--L-----3--1--|


  PM PM PM PM PM PM PM PM         PM PM PM PM PM PM          PM PM PM PM PM PM  
  E  E  E  E  E  E  E  E     Q    E  E  E  E  E  E      Q    E  E  E  E  E  E   
--------------------------|-------------------------|--------------------------|
--------------------------|-------------------------|--------------------------|
--------------------------|-------------------------|--------------------------|
--------------------------|--8----------------------|--10----------------------|
--5--5--5--5--5--5--5--5--|--5----5--5--5--5--5--5--|---7----7--7--7--7--7--7--|
--------------------------|-------------------------|--------------------------|


        PM PM PM PM     PM    PM                                            
   Q    E  E  E  E   E  E     E  E  H        E  E     Q    E  Q.     E  E   
---------------------------|-----------------------|-----------------------|
---------------------------|-----------------------|-----------------------|
---------------------------|-----------------------|-----------------------|
--10----------------10-----|-----3--L--------L--7--|--L-------5---------7--|
---8----8--8--8--8---8--8--|--1--1--L--------L--5--|--L-------3---------5--|
---------------------------|-----------------------|-----------------------|


                                              PM PM PM PM PM PM PM PM  
  H        E  E  E  E     W                   E  E  E  E  E  E  E  E   
-----------------------|-------------------|--------------------------|
-----------------------|-------------------|--------------------------|
-----------------------|-------------------|--------------------------|
--L--------L--5-----7--|--L----------------|--------------------------|
--L--------L--3-----5--|--L----------------|--5--5--5--5--5--5--5--5--|
-----------------------|-------------------|--------------------------|


       PM PM PM PM PM PM          PM PM PM PM PM PM  
  Q    E  E  E  E  E  E      Q    E  E  E  E  E  E   
-------------------------|--------------------------|
-------------------------|--------------------------|
-------------------------|--------------------------|
--8----------------------|--10----------------------|
--5----5--5--5--5--5--5--|---7----7--7--7--7--7--7--|
-------------------------|--------------------------|


        PM PM    PM                                                 
   Q    E  E  E  E   Q        W                   W                 
---------------------------|-------------------|-------------------|
---------------------------|-------------------|-------------------|
---------------------------|-------------------|-------------------|
--10----------9-----10\----|--3----------------|--3----------------|
---8----8--8--8--8---8\----|--1----------------|--0----------------|
---------------------------|-------------------|-------------------|


                      PM         PM PM                                      
  W                   E    E  E  E  E    E  Q       Q    E  E  E  E  E  E   
-------------------|-----------------------------|-------------------------|
-------------------|-----------------------------|-------------------------|
-------------------|-----------------------------|----------5-----7--------|
--2----------------|-----<>7-----------<>7--L----|--7-------3-----5-----7--|
--0----------------|-----------------------------|--5-------------------5--|
-------------------|--5----------5--5------------|-------------------------|


  Q    E  E  E  E  E  E     W                   H.           E  E   
-------------------------|-------------------|---------------------|
-------------------------|-------------------|---------------------|
----------5-----7--------|-------------------|---------------------|
--L-------3-----5-----5--|--L----------------|--L------------L--3--|
--L-------------------3--|--L----------------|--L------------L--1--|
-------------------------|-------------------|---------------------|


                                                PM       PM PM         PM     
  Q    E  E  E  E  E  E     Q    E  E  E  E  E  E     E  E  E  E  Q    E  E   
-------------------------|-------------------------|-------------------------|
-------------------------|-------------------------|-------------------------|
----------5-----5--------|----------5-----5--------|-------------------------|
--L-------2-----3-----3--|--L-------2-----3--------|--7--------7--L-------7--|
--L-------------------1--|--L-------------------5--|--5--5--5--5--L----5-----|
-------------------------|-------------------------|-------------------------|


  E  E  E  E  E  E  E  E     E  E  E  E  E  E  E  E     Q    E  E  E  E  E  E   
--------------------------|--------------------------|-------------------------|
--------------------------|--------------------------|-------------------------|
--------------------------|--------------------------|----------5-----7--------|
--L--5-----5--L-----------|-----------------5--------|--7-------3-----5-----5--|
--------8--------8--7-----|--5-----5--8-----------5--|--5-------------------3--|
-----------------------8--|-----8--------------------|-------------------------|


  W                   H        E  E  E  E     Q    E  E  E  E  E  E   
-------------------|-----------------------|-------------------------|
-------------------|-----------------------|-------------------------|
-------------------|-----------------------|----------5-----5--------|
--L----------------|--L--------L--5-----5--|--3-------2-----3-----3--|
--L----------------|--L--------L--3-----3--|--1-------------------1--|
-------------------|-----------------------|-------------------------|


                      PM                                            
  Q    E  E  E  E  E  E     E  E  H.              W                 
-------------------------|---------------------|-------------------|
-------------------------|---------------------|-------------------|
----------5-----5--------|---------------------|-------------------|
--L-------2-----3--------|--7------------------|-------------------|
--L-------------------5--|--5------------------|-------------------|
-------------------------|---------------------|-------------------|


   E  E  E   E  Q    E  E      Q.      Q.     E  E      E  E  E   E  H         
---------------------------|------------------------|-------------------------|
---------------------------|------------------------|-------------------------|
---------------------------|------------------------|-------------------------|
--12--x--x--10--L----x--x--|--12------10------x--x--|--12--x--x--10--L--------|
--10--x--x---8--L----x--x--|--10-------8------x--x--|--10--x--x---8--L--------|
---------------------------|------------------------|-------------------------|


  W                    E  E  E   E  Q    E  E      Q.      Q.     E  E   
-------------------|---------------------------|------------------------|
-------------------|---------------------------|------------------------|
-------------------|---------------------------|------------------------|
--L----------------|--12--x--x--10--L----x--x--|--12------10------x--x--|
--L----------------|--10--x--x---8--L----x--x--|--10-------8------x--x--|
-------------------|---------------------------|------------------------|


   E  E  E   E  H           W                    E  E  E   E  Q    E  E   
-------------------------|-------------------|---------------------------|
-------------------------|-------------------|---------------------------|
-------------------------|-------------------|---------------------------|
--12--x--x--10--L--------|--L----------------|--12--x--x--10--L----x--x--|
--10--x--x---8--L--------|--L----------------|--10--x--x---8--L----x--x--|
-------------------------|-------------------|---------------------------|


   Q.      Q.     E  E      E  E  E   E  H           W                 
------------------------|-------------------------|-------------------|
------------------------|-------------------------|-------------------|
------------------------|-------------------------|-------------------|
--12------10------x--x--|--12--x--x--10--L--------|--L----------------|
--10-------8------x--x--|--10--x--x---8--L--------|--L----------------|
------------------------|-------------------------|-------------------|


   E  E  E   E  Q    E  E      Q.      Q.     E  E      E  E  E   E  H         
---------------------------|------------------------|-------------------------|
---------------------------|------------------------|-------------------------|
---------------------------|------------------------|-------------------------|
--12--x--x--10--L----x--x--|--12------10------x--x--|--12--x--x--10--L--------|
--10--x--x---8--L----x--x--|--10-------8------x--x--|--10--x--x---8--L--------|
---------------------------|------------------------|-------------------------|


  W                    E  E  E   E  Q    E  E      Q.      Q.     E  E   
-------------------|---------------------------|------------------------|
-------------------|---------------------------|------------------------|
-------------------|---------------------------|------------------------|
--L----------------|--12--x--x--10--L----x--x--|--12------10------x--x--|
--L----------------|--10--x--x---8--L----x--x--|--10-------8------x--x--|
-------------------|---------------------------|------------------------|


   E  E  E   E  H           W                    E  E  E   E  Q    E  E   
-------------------------|-------------------|---------------------------|
-------------------------|-------------------|---------------------------|
-------------------------|-------------------|---------------------------|
--12--x--x--10--L--------|--L----------------|--12--x--x--10--L----x--x--|
--10--x--x---8--L--------|--L----------------|--10--x--x---8--L----x--x--|
-------------------------|-------------------|---------------------------|


   Q.      Q.     E  E     E  E  E  E  E  E  Q       E  E  Q.     E  E  E   
------------------------|-------------------------|------------------------|
------------------------|-------------------------|------------------------|
------------------------|-------------------------|------------------------|
--12------10------x--x--|--5--5-----5-----5-------|-----5---------5-----5--|
--10-------8------x--x--|--3--3-----3-----3-------|-----3---------3-----3--|
------------------------|-------------------------|------------------------|


  H        H            W                   W                 
---------------------|-------------------|-------------------|
---------------------|-------------------|-------------------|
---------------------|-------------------|-------------------|
-----------5\--------|-------------------|-------------------|
-----------3\--------|-------------------|-------------------|
---------------------|-------------------|-------------------|


                                                        PM PM  
  W                   W                   Q.     Q.     E  E   
-------------------|-------------------|----------------------|
-------------------|-------------------|----------------------|
-------------------|-------------------|----------------------|
-------------------|-------------------|--3-------------------|
-------------------|-------------------|--1------3------------|
-------------------|-------------------|---------1------1--1--|


       PM PM                            PM PM         PM PM            
  Q    E  E  Q    Q       Q.     Q.     E  E     Q    E  E  Q    Q     
-----------------------|----------------------|-----------------------|
-----------------------|----------------------|-----------------------|
-----------------------|----------------------|-----------------------|
-----------------------|--5------7------------|--7----------7---------|
--3----------3---------|--3------5------5--5--|-------5--5-------5----|
-------1--1-------1----|----------------------|-----------------------|


                PM PM         PM PM                            PM PM  
  Q.     Q.     E  E     Q    E  E  Q    Q       Q.     Q.     E  E   
----------------------|-----------------------|----------------------|
----------------------|-----------------------|----------------------|
----------------------|-----------------------|----------------------|
--3------3------------|--3----------3---------|---------5------------|
--0------1------1--1--|-------1--1-------1----|--5------3------3--3--|
----------------------|-----------------------|--3-------------------|


       PM PM                            PM PM         PM PM            
  Q    E  E  Q    Q       Q.     Q.     E  E     Q    E  E  Q    Q     
-----------------------|----------------------|-----------------------|
-----------------------|----------------------|-----------------------|
-----------------------|----------------------|-----------------------|
--5----------5---------|--3-------------------|-----------------------|
-------3--3-------3----|--1------3------------|--3----------3---------|
-----------------------|---------1------1--1--|-------1--1-------1----|


                PM PM         PM PM                            PM PM  
  Q.     Q.     E  E     Q    E  E  Q    Q       Q.     Q.     E  E   
----------------------|-----------------------|----------------------|
----------------------|-----------------------|----------------------|
----------------------|-----------------------|----------------------|
--5------7------------|--7----------7---------|--3------3------------|
--3------5------5--5--|-------5--5-------5----|--0------1------1--1--|
----------------------|-----------------------|----------------------|


       PM PM                            PM PM         PM PM            
  Q    E  E  Q    Q       Q.     Q.     E  E     Q    E  E  Q    Q     
-----------------------|----------------------|-----------------------|
-----------------------|----------------------|-----------------------|
-----------------------|----------------------|-----------------------|
--3----------3---------|---------5------------|--5----------5---------|
-------1--1-------1----|--5------3------3--3--|-------3--3-------3----|
-----------------------|--3-------------------|-----------------------|


                PM PM         PM PM                            PM PM  
  Q.     Q.     E  E     Q    E  E  Q    Q       Q.     Q.     E  E   
----------------------|-----------------------|----------------------|
----------------------|-----------------------|----------------------|
----------------------|-----------------------|----------------------|
--3-------------------|-----------------------|--5------7------------|
--1------3------------|--3----------3---------|--3------5------5--5--|
---------1------1--1--|-------1--1-------1----|----------------------|


       PM PM                            PM PM         PM PM            
  Q    E  E  Q    Q       Q.     Q.     E  E     Q    E  E  Q    Q     
-----------------------|----------------------|-----------------------|
-----------------------|----------------------|-----------------------|
-----------------------|----------------------|-----------------------|
--7----------7---------|--3------3------------|--3----------3---------|
-------5--5-------5----|--0------1------1--1--|-------1--1-------1----|
-----------------------|----------------------|-----------------------|


                PM PM         PM PM                            PM PM  
  Q.     Q.     E  E     Q    E  E  Q    Q       Q.     Q.     E  E   
----------------------|-----------------------|----------------------|
----------------------|-----------------------|----------------------|
----------------------|-----------------------|----------------------|
---------5------------|--5----------5---------|--3-------------------|
--5------3------3--3--|-------3--3-------3----|--1------3------------|
--3-------------------|-----------------------|---------1------1--1--|


       PM PM                            PM PM         PM PM            
  Q    E  E  Q    Q       Q.     Q.     E  E     Q    E  E  Q    Q     
-----------------------|----------------------|-----------------------|
-----------------------|----------------------|-----------------------|
-----------------------|----------------------|-----------------------|
-----------------------|--5------7------------|--7----------7---------|
--3----------3---------|--3------5------5--5--|-------5--5-------5----|
-------1--1-------1----|----------------------|-----------------------|


                PM PM         PM PM                                      
  Q.     Q.     E  E     Q    E  E  Q    Q    E  E     W                 
----------------------|-----------------------------|-------------------|
----------------------|-----------------------------|-------------------|
----------------------|-----------------------------|-------------------|
--3------3------------|--3----------3---------5--5--|--L----------------|
--0------1------1--1--|-------1--1-------1----3--3--|--L----------------|
----------------------|-----------------------------|-------------------|


  W                   W                   W                 
-------------------|-------------------|-------------------|
-------------------|-------------------|-------------------|
-------------------|-------------------|-------------------|
--L----------------|--L----------------|--L----------------|
--L----------------|--L----------------|--L----------------|
-------------------|-------------------|-------------------|


  Q    E  E  E  E  E  E     Q    E  E  E  E  E  E     W                 
-------------------------|-------------------------|-------------------|
-------------------------|-------------------------|-------------------|
----------5-----7--------|----------5-----7--------|-------------------|
--7-------3-----5-----7--|--L-------3-----5-----5--|--L----------------|
--5-------------------5--|--L-------------------3--|--L----------------|
-------------------------|-------------------------|-------------------|


                                                                      PM  
  H.           E  E     Q    E  E  E  E  E  E     Q    E  E  E  E  E  E   
---------------------|-------------------------|-------------------------|
---------------------|-------------------------|-------------------------|
---------------------|----------5-----5--------|----------5-----5--------|
--L------------L--3--|--L-------2-----3-----3--|--L-------2-----3--------|
--L------------L--1--|--L-------------------1--|--L-------------------5--|
---------------------|-------------------------|-------------------------|


     PM PM         PM PM    PM    PM    PM        
  E  E  E  E  Q    E  E     E  E  E  E  H         
-------------------------|-----------------------|
-------------------------|-----------------------|
-------------------------|-----------------------|
--7--------7--L----------|-----7-----7--7--------|
--5--5--5--5--L----5--5--|--5--5--5--5--5--------|
-------------------------|-----------------------|


  Repeat To End: Bar 157-171                                              
  Q                          E  E  E  E  E  E     Q    E  E  E  E  E  E   
-----------------------------------------------|-------------------------|
-----------------------------------------------|-------------------------|
--------------------------------5-----7--------|----------5-----7--------|
--7-----------------------------3-----5-----7--|--L-------3-----5-----5--|
--5-----------------------------------------5--|--L-------------------3--|
-----------------------------------------------|-------------------------|


  W                   H.           E  E     Q    E  E  E  E  E  E   
-------------------|---------------------|-------------------------|
-------------------|---------------------|-------------------------|
-------------------|---------------------|----------5-----5--------|
--L----------------|--L------------L--3--|--L-------2-----3-----3--|
--L----------------|--L------------L--1--|--L-------------------1--|
-------------------|---------------------|-------------------------|


                      PM       PM PM         PM                                 
  Q    E  E  E  E  E  E     E  E  E  E  Q    E  E     E  E  E  E  E  E   E  E   
-------------------------|-------------------------|---------------------------|
-------------------------|-------------------------|---------------------------|
----------5-----5--------|-------------------------|---------------------------|
--L-------2-----3--------|--7--------7--L-------7--|--L--5-----5--L------------|
--L-------------------5--|--5--5--5--5--L----5-----|--------8--------8p--7-----|
-------------------------|-------------------------|------------------------8--|


  E  E  E  E  E  E  E  E     E  E  E  E  E  E  E  E  E  E  Q     
--------------------------|-------------------------------------|
--------------------------|-------------------------------------|
--------------------------|-----------5-----7-----5-------------|
-----------------5--------|-----7-----3-----5-----3-----7--5----|
--5-----5--8-----------5--|-----5-----------------------5--3----|
-----8--------------------|-------------------------------------|


  W                E  E  E  E     Q    E  E  E  E  E  E   
-------------------------------|-------------------------|
-------------------------------|-------------------------|
-------------------------------|----------5-----5--------|
--L----------------L--5-----5--|--3-------2-----3-----3--|
--L----------------L--3-----3--|--1-------------------1--|
-------------------------------|-------------------------|


                      PM       PM PM         PM PM    PM    PM         PM PM  
  Q    E  E  E  E  E  E     E  E  E  E  Q    E  E     E  E  E  E  Q    E  E   
-------------------------|-------------------------|-------------------------|
-------------------------|-------------------------|-------------------------|
----------5-----5--------|-------------------------|-------------------------|
--L-------2-----3--------|--7--------7--L----------|-----7-----7--7----------|
--L-------------------5--|--5--5--5--5--L----5--5--|--5--5--5--5--5----5--5--|
-------------------------|-------------------------|-------------------------|


  Q    E  E  E  E  E  E     Q    E  E  E  E  E  E     W                 
-------------------------|-------------------------|-------------------|
-------------------------|-------------------------|-------------------|
----------5-----7--------|----------5-----7--------|-------------------|
--7-------3-----5-----7--|--L-------3-----5-----5--|--L----------------|
--5-------------------5--|--L-------------------3--|--L----------------|
-------------------------|-------------------------|-------------------|


                                                                      PM  
  H.           E  E     Q    E  E  E  E  E  E     Q    E  E  E  E  E  E   
---------------------|-------------------------|-------------------------|
---------------------|-------------------------|-------------------------|
---------------------|----------5-----5--------|----------5-----5--------|
--L------------L--3--|--L-------2-----3-----3--|--L-------2-----3--------|
--L------------L--1--|--L-------------------1--|--L-------------------5--|
---------------------|-------------------------|-------------------------|


     PM PM         PM                                 
  E  E  E  E  Q    E  E     E  E  E  E  E  E   E  E   
-------------------------|---------------------------|
-------------------------|---------------------------|
-------------------------|---------------------------|
--7--------7--L-------7--|--L--5-----5--L------------|
--5--5--5--5--L----5-----|--------8--------8p--7-----|
-------------------------|------------------------8--|


  E  E  E  E  E  E  E  E     E  E  E  E  E  E  E  E  E  E  Q     
--------------------------|-------------------------------------|
--------------------------|-------------------------------------|
--------------------------|-----------5-----7-----5-------------|
-----------------5--------|-----7-----3-----5-----3-----7--5----|
--5-----5--8-----------5--|-----5-----------------------5--3----|
-----8--------------------|-------------------------------------|


  W                E  E  E  E     Q    E  E  E  E  E  E   
-------------------------------|-------------------------|
-------------------------------|-------------------------|
-------------------------------|----------5-----5--------|
--L----------------L--5-----5--|--3-------2-----3-----3--|
--L----------------L--3-----3--|--1-------------------1--|
-------------------------------|-------------------------|


                      PM       PM PM         PM PM    PM    PM         PM PM  
  Q    E  E  E  E  E  E     E  E  E  E  Q    E  E     E  E  E  E  Q    E  E   
-------------------------|-------------------------|-------------------------|
-------------------------|-------------------------|-------------------------|
----------5-----5--------|-------------------------|-------------------------|
--L-------2-----3--------|--7--------7--L----------|-----7-----7--7----------|
--L-------------------5--|--5--5--5--5--L----5--5--|--5--5--5--5--5----5--5--|
-------------------------|-------------------------|-------------------------|


  Q    E  E  E  E  E  E     Q    E  E  E  E  E  E     W                 
-------------------------|-------------------------|-------------------|
-------------------------|-------------------------|-------------------|
----------5-----7--------|----------5-----7--------|-------------------|
--7-------3-----5-----7--|--L-------3-----5-----5--|--L----------------|
--5-------------------5--|--L-------------------3--|--L----------------|
-------------------------|-------------------------|-------------------|


                                                                      PM  
  H.           E  E     Q    E  E  E  E  E  E     Q    E  E  E  E  E  E   
---------------------|-------------------------|-------------------------|
---------------------|-------------------------|-------------------------|
---------------------|----------5-----5--------|----------5-----5--------|
--L------------L--3--|--L-------2-----3-----3--|--L-------2-----3--------|
--L------------L--1--|--L-------------------1--|--L-------------------5--|
---------------------|-------------------------|-------------------------|


     PM PM         PM                                 
  E  E  E  E  Q    E  E     E  E  E  E  E  E   E  E   
-------------------------|---------------------------|
-------------------------|---------------------------|
-------------------------|---------------------------|
--7--------7--L-------7--|--L--5-----5--L------------|
--5--5--5--5--L----5-----|--------8--------8p--7-----|
-------------------------|------------------------8--|


  E  E  E  E  E  E  E  E     E  E  E  E  E  E  E  E  E  E  Q     
--------------------------|-------------------------------------|
--------------------------|-------------------------------------|
--------------------------|-----------5-----7-----5-------------|
-----------------5--------|-----7-----3-----5-----3-----7--5----|
--5-----5--8-----------5--|-----5-----------------------5--3----|
-----8--------------------|-------------------------------------|


  W                E  E  E  E     Q    E  E  E  E  E  E   
-------------------------------|-------------------------|
-------------------------------|-------------------------|
-------------------------------|----------5-----5--------|
--L----------------L--5-----5--|--3-------2-----3-----3--|
--L----------------L--3-----3--|--1-------------------1--|
-------------------------------|-------------------------|


                      PM       PM PM         PM PM    PM    PM         PM PM  
  Q    E  E  E  E  E  E     E  E  E  E  Q    E  E     E  E  E  E  Q    E  E   
-------------------------|-------------------------|-------------------------|
-------------------------|-------------------------|-------------------------|
----------5-----5--------|-------------------------|-------------------------|
--L-------2-----3--------|--7--------7--L----------|-----7-----7--7----------|
--L-------------------5--|--5--5--5--5--L----5--5--|--5--5--5--5--5----5--5--|
-------------------------|-------------------------|-------------------------|


  Q    E  E  E  E  E  E     Q    E  E  E  E  E  E     W                 
-------------------------|-------------------------|-------------------|
-------------------------|-------------------------|-------------------|
----------5-----7--------|----------5-----7--------|-------------------|
--7-------3-----5-----7--|--L-------3-----5-----5--|--L----------------|
--5-------------------5--|--L-------------------3--|--L----------------|
-------------------------|-------------------------|-------------------|


                                                                      PM  
  H.           E  E     Q    E  E  E  E  E  E     Q    E  E  E  E  E  E   
---------------------|-------------------------|-------------------------|
---------------------|-------------------------|-------------------------|
---------------------|----------5-----5--------|----------5-----5--------|
--L------------L--3--|--L-------2-----3-----3--|--L-------2-----3--------|
--L------------L--1--|--L-------------------1--|--L-------------------5--|
---------------------|-------------------------|-------------------------|


     PM PM         PM                                 
  E  E  E  E  Q    E  E     E  E  E  E  E  E   E  E   
-------------------------|---------------------------|
-------------------------|---------------------------|
-------------------------|---------------------------|
--7--------7--L-------7--|--L--5-----5--L------------|
--5--5--5--5--L----5-----|--------8--------8p--7-----|
-------------------------|------------------------8--|


  E  E  E  E  E  E  E  E     E  E  E  E  E  E  E  E  E  E  Q     
--------------------------|-------------------------------------|
--------------------------|-------------------------------------|
--------------------------|-----------5-----7-----5-------------|
-----------------5--------|-----7-----3-----5-----3-----7--5----|
--5-----5--8-----------5--|-----5-----------------------5--3----|
-----8--------------------|-------------------------------------|


                                  Fade Out...                    
  W                E  E  E  E     Q           E  E  E  E  E  E   
-------------------------------|--------------------------------|
-------------------------------|--------------------------------|
-------------------------------|-----------------5-----5--------|
--L----------------L--5-----5--|--3--------------2-----3-----3--|
--L----------------L--3-----3--|--1--------------------------1--|
-------------------------------|--------------------------------|


                      PM       PM PM         PM PM    PM    PM         PM PM   
  Q    E  E  E  E  E  E     E  E  E  E  Q    E  E     E  E  E  E  Q    E  E    
-------------------------|-------------------------|-------------------------||
-------------------------|-------------------------|-------------------------||
----------5-----5--------|-------------------------|-------------------------||
--L-------2-----3--------|--7--------7--L----------|-----7-----7--7----------||
--L-------------------5--|--5--5--5--5--L----5--5--|--5--5--5--5--5----5--5--||
-------------------------|-------------------------|-------------------------||


______________________________________________________________________________
______________________________________________________________________________
                                                                    


                                                                          
Guitar II



      PM PM PM PM PM PM PM PM    PM PM PM PM PM PM PM PM  
      E  E  E  E  E  E  E  E     E  E  E  E  E  E  E  E   
D#||--------------------------|--------------------------|
A#||--------------------------|--------------------------|
F#||--------------------------|--------------------------|
C#||--------------------------|--------------------------|
G#||--5--5--5--5--5--5--5--5--|--5--5--5--5--5--5--5--5--|
D#||--------------------------|--------------------------|


  PM PM PM PM PM PM PM PM    PM PM PM PM PM PM PM PM  
  E  E  E  E  E  E  E  E     E  E  E  E  E  E  E  E   
--------------------------|--------------------------|
--------------------------|--------------------------|
--------------------------|--------------------------|
--------------------------|--------------------------|
--5--5--5--5--5--5--5--5--|--5--5--5--5--5--5--5--5--|
--------------------------|--------------------------|


  PM PM PM PM PM PM PM PM    PM PM PM PM PM PM PM PM  
  E  E  E  E  E  E  E  E     E  E  E  E  E  E  E  E   
--------------------------|--------------------------|
--------------------------|--------------------------|
--------------------------|--------------------------|
--------------------------|--------------------------|
--5--5--5--5--5--5--5--5--|--5--5--5--5--5--5--5--5--|
--------------------------|--------------------------|


  PM PM PM PM PM PM PM PM    PM PM PM PM PM PM PM PM  
  E  E  E  E  E  E  E  E     E  E  E  E  E  E  E  E   
--------------------------|--------------------------|
--------------------------|--------------------------|
--------------------------|--------------------------|
--------------------------|--------------------------|
--5--5--5--5--5--5--5--5--|--5--5--5--5--5--5--5--5--|
--------------------------|--------------------------|


  PM PM PM PM PM PM PM PM    PM PM PM PM PM PM PM PM  
  E  E  E  E  E  E  E  E     E  E  E  E  E  E  E  E   
--------------------------|--------------------------|
--------------------------|--------------------------|
--------------------------|--------------------------|
--------------------------|--------------------------|
--5--5--5--5--5--5--5--5--|--5--5--5--5--5--5--5--5--|
--------------------------|--------------------------|


  PM PM PM PM PM PM PM                                                     PM  
  E  E  E  E  E  E  E  E     Q    E  E  E  E  E  E     Q    E  E  E  E  E  E   
--------------------------|-------------------------|-------------------------|
--------------------------|-------------------------|-------------------------|
--------------------------|----------5-----7--------|----------5-----7--------|
-----------------------7--|--L-------3-----5-----7--|--7-------3-----5--------|
--5--5--5--5--5--5--5--5--|--L-------------------5--|--5-------------------3--|
--------------------------|-------------------------|-------------------------|


     PM PM         PM PM    PM    PM                                         
  E  E  E  E  Q    E  E     E  E  E  E  Q.     E     Q    E  E  E  E  E  E   
-------------------------|------------------------|-------------------------|
-------------------------|------------------------|-------------------------|
-------------------------|------------------------|----------5-----5--------|
--5--------5--L----------|-----5-----5--5------3--|--L-------2-----3-----3--|
--3--3--3--3--L----3--3--|--3--3--3--3--3------1--|--L-------------------1--|
-------------------------|------------------------|-------------------------|


                      PM       PM PM         PM PM    PM    PM    PM        
  Q    E  E  E  E  E  E     E  E  E  E  Q    E  E     E  E  E  E  H         
-------------------------|-------------------------|-----------------------|
-------------------------|-------------------------|-----------------------|
----------5-----5--------|-------------------------|-----------------------|
--L-------2-----3--------|--7--------7--L----------|-----7-----7--7--------|
--L-------------------5--|--5--5--5--5--L----5--5--|--5--5--5--5--5--------|
-------------------------|-------------------------|-----------------------|


  PM PM PM PM PM PM PM PM    PM PM PM PM PM PM PM PM  
  E  E  E  E  E  E  E  E     E  E  E  E  E  E  E  E   
--------------------------|--------------------------|
--------------------------|--------------------------|
--------------------------|--------------------------|
--------------------------|--------------------------|
--5--5--5--5--5--5--5--5--|--5--5--5--5--5--5--5--5--|
--------------------------|--------------------------|


  PM PM PM PM PM PM PM PM    PM PM PM PM PM PM         
  E  E  E  E  E  E  E  E     E  E  E  E  E  E   Q      
--------------------------|---------------------------|
--------------------------|---------------------------|
--------------------------|---------------------------|
--------------------------|--------------------10\----|
--7--7--7--7--7--7--7--7--|--8--8--8--8--8--8---8\----|
--------------------------|---------------------------|


  PM PM PM PM PM PM PM                                    PM PM PM           
  E  E  E  E  E  E  E  E     Q    E  Q.     E  E     Q    E  E  E  E  E  E   
--------------------------|-----------------------|-------------------------|
--------------------------|-----------------------|-------------------------|
--------------------------|-----------------------|-------------------------|
-----------------------7--|--L-------5---------7--|--L-------------5-----7--|
--1--1--1--1--1--1--1--5--|--L-------3---------5--|--L----5--5--5--3-----5--|
--------------------------|-----------------------|-------------------------|


       PM PM PM PM PM          PM PM PM PM PM PM PM    PM PM PM PM PM PM PM PM  
  Q    E  E  E  E  E  E     E  E  E  E  E  E  E  E     E  E  E  E  E  E  E  E   
-------------------------|--------------------------|--------------------------|
-------------------------|--------------------------|--------------------------|
-------------------------|--------------------------|--------------------------|
--L-------------------7--|--L-----------------------|--------------------------|
--L-------------5--3--5--|--L--5--5--5--5--5--5--5--|--5--5--5--5--5--5--5--5--|
-------3--5--6-----------|--------------------------|--------------------------|


  PM PM PM PM PM PM PM PM    PM PM PM PM PM PM         
  E  E  E  E  E  E  E  E     E  E  E  E  E  E   Q      
--------------------------|---------------------------|
--------------------------|---------------------------|
--------------------------|---------------------------|
--------------------------|--------------------10\----|
--7--7--7--7--7--7--7--7--|--8--8--8--8--8--8---8\----|
--------------------------|---------------------------|


  PM PM PM PM PM PM PM                                    PM PM PM PM    PM  
  E  E  E  E  E  E  E  E     Q    E  Q.     E  E     Q    E  E  E  E  E  E   
--------------------------|-----------------------|-------------------------|
--------------------------|-----------------------|-------------------------|
--------------------------|-----------------------|-------------------------|
-----------------------7--|--L-------5---------7--|--L----------------7-----|
--1--1--1--1--1--1--1--5--|--L-------3---------5--|--L----5--5--5--5--5--5--|
--------------------------|-----------------------|-------------------------|


        PM          PM            PM PM PM PM PM PM    PM PM PM PM PM PM PM PM  
  E  E  E  E  E  E  E  E     Q    E  E  E  E  E  E     E  E  E  E  E  E  E  E   
--------------------------|-------------------------|--------------------------|
--------------------------|-------------------------|--------------------------|
--------------------------|-------------------------|--------------------------|
--7--7-----7--7--7-----7--|--7----------------------|--------------------------|
--5--5--5--5--5--5--5--5--|--5----5--5--5--5--5--5--|--5--5--5--5--5--5--5--5--|
--------------------------|-------------------------|--------------------------|


  PM PM PM PM PM PM PM PM    PM PM PM PM PM PM         
  E  E  E  E  E  E  E  E     E  E  E  E  E  E   Q      
--------------------------|---------------------------|
--------------------------|---------------------------|
--------------------------|---------------------------|
--------------------------|--------------------10\----|
--7--7--7--7--7--7--7--7--|--8--8--8--8--8--8---8\----|
--------------------------|---------------------------|


  PM PM PM PM PM PM PM PM    PM PM PM PM PM PM PM PM  
  E  E  E  E  E  E  E  E     E  E  E  E  E  E  E  E   
--------------------------|--------------------------|
--------------------------|--------------------------|
--------------------------|--------------------------|
--------------------------|--3--3--3--3--3--3--3--3--|
--1--1--1--1--1--1--1--1--|--0--0--0--0--0--0--0--0--|
--------------------------|--------------------------|


  E  E  E  E  E  E  E  E     E  E  E  E  E  E  E  E     Q    E  E  E  E  E  E   
--------------------------|--------------------------|-------------------------|
--------------------------|--------------------------|-------------------------|
--------------------------|--------------------------|----------5-----7--------|
--2--2--2--2--2--2--2--2--|--2--2--2--2--2--2--2--2--|--7-------3-----5-----7--|
--0--0--0--0--0--0--0--0--|--0--0--0--0--0--0--0--0--|--5-------------------5--|
--------------------------|--------------------------|-------------------------|


  Q    E  E  E  E  E  E     W                   H.           E  E   
-------------------------|-------------------|---------------------|
-------------------------|-------------------|---------------------|
----------5-----7--------|-------------------|---------------------|
--L-------3-----5-----5--|--L----------------|--L------------L--3--|
--L-------------------3--|--L----------------|--L------------L--1--|
-------------------------|-------------------|---------------------|


                                                PM       PM PM         PM PM  
  Q    E  E  E  E  E  E     Q    E  E  E  E  E  E     E  E  E  E  Q    E  E   
-------------------------|-------------------------|-------------------------|
-------------------------|-------------------------|-------------------------|
----------5-----5--------|----------5-----5--------|-------------------------|
--L-------2-----3-----3--|--L-------2-----3--------|--7--------7--L----------|
--L-------------------1--|--L-------------------5--|--5--5--5--5--L----5--5--|
-------------------------|-------------------------|-------------------------|


  PM    PM    PM   PM PM    PM    PM PM                                      
  E  E  E  E  Q    E  E     E  E  E  E  H           E  E  E  E  E  E  E  E   
-------------------------|-----------------------|--------------------------|
-------------------------|-----------------------|--------------------------|
-------------------------|-----------------------|--------------------------|
-----7-----7--7----------|-----7--------7--------|--------------------------|
--5--5--5--5--5----5--5--|--5--5--5--5--5--------|--0--------------0--------|
-------------------------|-----------------------|-----3--1--3--L-----3--1--|


  PM PM PM PM PM PM PM PM         PM PM PM PM PM PM          PM PM PM PM PM PM  
  E  E  E  E  E  E  E  E     Q    E  E  E  E  E  E      Q    E  E  E  E  E  E   
--------------------------|-------------------------|--------------------------|
--------------------------|-------------------------|--------------------------|
--------------------------|-------------------------|--------------------------|
--------------------------|--8----------------------|--10----------------------|
--5--5--5--5--5--5--5--5--|--5----5--5--5--5--5--5--|---7----7--7--7--7--7--7--|
--------------------------|-------------------------|--------------------------|


        PM PM PM PM     PM    PM                                            
   Q    E  E  E  E   E  E     E  E  H        E  E     Q    E  Q.     E  E   
---------------------------|-----------------------|-----------------------|
---------------------------|-----------------------|-----------------------|
---------------------------|-----------------------|-----------------------|
--10----------------10-----|-----3--L--------L--7--|--L-------5---------7--|
---8----8--8--8--8---8--8--|--1--1--L--------L--5--|--L-------3---------5--|
---------------------------|-----------------------|-----------------------|


                                              PM PM PM PM PM PM PM PM  
  H        E  E  E  E     W                   E  E  E  E  E  E  E  E   
-----------------------|-------------------|--------------------------|
-----------------------|-------------------|--------------------------|
-----------------------|-------------------|--------------------------|
--L--------L--5-----7--|--L----------------|--------------------------|
--L--------L--3-----5--|--L----------------|--5--5--5--5--5--5--5--5--|
-----------------------|-------------------|--------------------------|


       PM PM PM PM PM PM          PM PM PM PM PM PM  
  Q    E  E  E  E  E  E      Q    E  E  E  E  E  E   
-------------------------|--------------------------|
-------------------------|--------------------------|
-------------------------|--------------------------|
--8----------------------|--10----------------------|
--5----5--5--5--5--5--5--|---7----7--7--7--7--7--7--|
-------------------------|--------------------------|


        PM PM    PM                                                 
   Q    E  E  E  E   Q        W                   W                 
---------------------------|-------------------|-------------------|
---------------------------|-------------------|-------------------|
---------------------------|-------------------|-------------------|
--10----------9-----10\----|--3----------------|--3----------------|
---8----8--8--8--8---8\----|--1----------------|--0----------------|
---------------------------|-------------------|-------------------|


                      PM         PM PM                                      
  W                   E    E  E  E  E    E  Q       Q    E  E  E  E  E  E   
-------------------|-----------------------------|-------------------------|
-------------------|-----------------------------|-------------------------|
-------------------|-----------------------------|----------5-----7--------|
--2----------------|-----<>7-----------<>7--L----|--7-------3-----5-----7--|
--0----------------|-----------------------------|--5-------------------5--|
-------------------|--5----------5--5------------|-------------------------|


  Q    E  E  E  E  E  E     W                   H.           E  E   
-------------------------|-------------------|---------------------|
-------------------------|-------------------|---------------------|
----------5-----7--------|-------------------|---------------------|
--L-------3-----5-----5--|--L----------------|--L------------L--3--|
--L-------------------3--|--L----------------|--L------------L--1--|
-------------------------|-------------------|---------------------|


                                                PM       PM PM         PM     
  Q    E  E  E  E  E  E     Q    E  E  E  E  E  E     E  E  E  E  Q    E  E   
-------------------------|-------------------------|-------------------------|
-------------------------|-------------------------|-------------------------|
----------5-----5--------|----------5-----5--------|-------------------------|
--L-------2-----3-----3--|--L-------2-----3--------|--7--------7--L-------7--|
--L-------------------1--|--L-------------------5--|--5--5--5--5--L----5-----|
-------------------------|-------------------------|-------------------------|


  E  E  E  E  E  E  E  E     E  E  E  E  E  E  E  E     Q    E  E  E  E  E  E   
--------------------------|--------------------------|-------------------------|
--------------------------|--------------------------|-------------------------|
--------------------------|--------------------------|----------5-----7--------|
--L--5-----5--L-----------|-----------------5--------|--7-------3-----5-----5--|
--------8--------8--7-----|--5-----5--8-----------5--|--5-------------------3--|
-----------------------8--|-----8--------------------|-------------------------|


  W                   H        E  E  E  E     Q    E  E  E  E  E  E   
-------------------|-----------------------|-------------------------|
-------------------|-----------------------|-------------------------|
-------------------|-----------------------|----------5-----5--------|
--L----------------|--L--------L--5-----5--|--3-------2-----3-----3--|
--L----------------|--L--------L--3-----3--|--1-------------------1--|
-------------------|-----------------------|-------------------------|


                      PM                                            
  Q    E  E  E  E  E  E     E  E  H.              W                 
-------------------------|---------------------|-------------------|
-------------------------|---------------------|-------------------|
----------5-----5--------|---------------------|-------------------|
--L-------2-----3--------|--7------------------|-------------------|
--L-------------------5--|--5------------------|-------------------|
-------------------------|---------------------|-------------------|


  W                   W                   W                   W                 
-------------------|-------------------|-------------------|-------------------|
-------------------|-------------------|-------------------|-------------------|
-------------------|-------------------|-------------------|-------------------|
-------------------|-------------------|-------------------|-------------------|
-------------------|-------------------|-------------------|-------------------|
-------------------|-------------------|-------------------|-------------------|


  W                   W                   W                   W                 
-------------------|-------------------|-------------------|-------------------|
-------------------|-------------------|-------------------|-------------------|
-------------------|-------------------|-------------------|-------------------|
-------------------|-------------------|-------------------|-------------------|
-------------------|-------------------|-------------------|-------------------|
-------------------|-------------------|-------------------|-------------------|


  W                   W                   W                   W                 
-------------------|-------------------|-------------------|-------------------|
-------------------|-------------------|-------------------|-------------------|
-------------------|-------------------|-------------------|-------------------|
-------------------|-------------------|-------------------|-------------------|
-------------------|-------------------|-------------------|-------------------|
-------------------|-------------------|-------------------|-------------------|


  W                   W                   W                   W                 
-------------------|-------------------|-------------------|-------------------|
-------------------|-------------------|-------------------|-------------------|
-------------------|-------------------|-------------------|-------------------|
-------------------|-------------------|-------------------|-------------------|
-------------------|-------------------|-------------------|-------------------|
-------------------|-------------------|-------------------|-------------------|


  W                   W                   W                   W                 
-------------------|-------------------|-------------------|-------------------|
-------------------|-------------------|-------------------|-------------------|
-------------------|-------------------|-------------------|-------------------|
-------------------|-------------------|-------------------|-------------------|
-------------------|-------------------|-------------------|-------------------|
-------------------|-------------------|-------------------|-------------------|


  W                   W                   W                   W                 
-------------------|-------------------|-------------------|-------------------|
-------------------|-------------------|-------------------|-------------------|
-------------------|-------------------|-------------------|-------------------|
-------------------|-------------------|-------------------|-------------------|
-------------------|-------------------|-------------------|-------------------|
-------------------|-------------------|-------------------|-------------------|


  W                   W                   W                   W                 
-------------------|-------------------|-------------------|-------------------|
-------------------|-------------------|-------------------|-------------------|
-------------------|-------------------|-------------------|-------------------|
-------------------|-------------------|-------------------|-------------------|
-------------------|-------------------|-------------------|-------------------|
-------------------|-------------------|-------------------|-------------------|


  W                   Q.     Q.     Q       W                 
-------------------|---------------------|-------------------|
-------------------|---------------------|-------------------|
-------------------|---------------------|-------------------|
-------------------|--3------------------|-------------------|
-------------------|--1------3------L----|--L----------------|
-------------------|---------1------L----|--L----------------|


  Q.     Q.     Q       W                   Q.     Q.     Q     
---------------------|-------------------|---------------------|
---------------------|-------------------|---------------------|
---------------------|-------------------|---------------------|
--5------7------L----|--L----------------|--3------3------L----|
--3------5------L----|--L----------------|--0------1------L----|
---------------------|-------------------|---------------------|


  W                   Q.     Q.     Q       W                 
-------------------|---------------------|-------------------|
-------------------|---------------------|-------------------|
-------------------|---------------------|-------------------|
--L----------------|---------5------L----|--L----------------|
--L----------------|--5------3------L----|--L----------------|
-------------------|--3------------------|-------------------|


  Q.     Q.     Q       W                   Q.     Q.     Q     
---------------------|-------------------|---------------------|
---------------------|-------------------|---------------------|
---------------------|-------------------|---------------------|
--3------------------|-------------------|--5------7------L----|
--1------3------L----|--L----------------|--3------5------L----|
---------1------L----|--L----------------|---------------------|


  W                   Q.     Q.     Q       W                 
-------------------|---------------------|-------------------|
-------------------|---------------------|-------------------|
-------------------|---------------------|-------------------|
--L----------------|--3------3------L----|--L----------------|
--L----------------|--0------1------L----|--L----------------|
-------------------|---------------------|-------------------|


  Q.     Q.     Q       W                   Q.     Q.     Q     
---------------------|-------------------|---------------------|
---------------------|-------------------|---------------------|
---------------------|-------------------|---------------------|
---------5------L----|--L----------------|--3------------------|
--5------3------L----|--L----------------|--1------3------L----|
--3------------------|-------------------|---------1------L----|


  W                   Q.     Q.     Q       W                 
-------------------|---------------------|-------------------|
-------------------|---------------------|-------------------|
-------------------|---------------------|-------------------|
-------------------|--5------7------L----|--L----------------|
--L----------------|--3------5------L----|--L----------------|
--L----------------|---------------------|-------------------|


  Q.     Q.     Q       W                   Q.     Q.     Q     
---------------------|-------------------|---------------------|
---------------------|-------------------|---------------------|
---------------------|-------------------|---------------------|
--3------3------L----|--L----------------|---------5------L----|
--0------1------L----|--L----------------|--5------3------L----|
---------------------|-------------------|--3------------------|


  W                   Q.     Q.     Q       W                 
-------------------|---------------------|-------------------|
-------------------|---------------------|-------------------|
-------------------|---------------------|-------------------|
--L----------------|--3------------------|-------------------|
--L----------------|--1------3------L----|--L----------------|
-------------------|---------1------L----|--L----------------|


  Q.     Q.     Q       W                   Q.     Q.     Q     
---------------------|-------------------|---------------------|
---------------------|-------------------|---------------------|
---------------------|-------------------|---------------------|
--5------7------L----|--L----------------|--3------3------L----|
--3------5------L----|--L----------------|--0------1------L----|
---------------------|-------------------|---------------------|


  W                E  E     W                   W                 
-------------------------|-------------------|-------------------|
-------------------------|-------------------|-------------------|
-------------------------|-------------------|-------------------|
--L----------------5--5--|--L----------------|--L----------------|
--L----------------3--3--|--L----------------|--L----------------|
-------------------------|-------------------|-------------------|


  W                   W                   Q    E  E  E  E  E  E   
-------------------|-------------------|-------------------------|
-------------------|-------------------|-------------------------|
-------------------|-------------------|----------5-----7--------|
--L----------------|--L----------------|--7-------3-----5-----7--|
--L----------------|--L----------------|--5-------------------5--|
-------------------|-------------------|-------------------------|


  Q    E  E  E  E  E  E     W                   H.           E  E   
-------------------------|-------------------|---------------------|
-------------------------|-------------------|---------------------|
----------5-----7--------|-------------------|---------------------|
--L-------3-----5-----5--|--L----------------|--L------------L--3--|
--L-------------------3--|--L----------------|--L------------L--1--|
-------------------------|-------------------|---------------------|


                                                PM       PM PM         PM PM  
  Q    E  E  E  E  E  E     Q    E  E  E  E  E  E     E  E  E  E  Q    E  E   
-------------------------|-------------------------|-------------------------|
-------------------------|-------------------------|-------------------------|
----------5-----5--------|----------5-----5--------|-------------------------|
--L-------2-----3-----3--|--L-------2-----3--------|--7--------7--L----------|
--L-------------------1--|--L-------------------5--|--5--5--5--5--L----5--5--|
-------------------------|-------------------------|-------------------------|


                          Repeat To End: Bar 157-171                    
  PM    PM    PM                                                        
  E  E  E  E  H           Q                          E  E  E  E  E  E   
-----------------------|-----------------------------------------------|
-----------------------|-----------------------------------------------|
-----------------------|--------------------------------5-----7--------|
-----7-----7--7--------|--7-----------------------------3-----5-----7--|
--5--5--5--5--5--------|--5-----------------------------------------5--|
-----------------------|-----------------------------------------------|


  Q    E  E  E  E  E  E     W                   H.           E  E   
-------------------------|-------------------|---------------------|
-------------------------|-------------------|---------------------|
----------5-----7--------|-------------------|---------------------|
--L-------3-----5-----5--|--L----------------|--L------------L--3--|
--L-------------------3--|--L----------------|--L------------L--1--|
-------------------------|-------------------|---------------------|


                                                PM       PM PM         PM     
  Q    E  E  E  E  E  E     Q    E  E  E  E  E  E     E  E  E  E  Q    E  E   
-------------------------|-------------------------|-------------------------|
-------------------------|-------------------------|-------------------------|
----------5-----5--------|----------5-----5--------|-------------------------|
--L-------2-----3-----3--|--L-------2-----3--------|--7--------7--L-------7--|
--L-------------------1--|--L-------------------5--|--5--5--5--5--L----5-----|
-------------------------|-------------------------|-------------------------|


  E  E  E  E  E  E   E  E     E  E  E  E  E  E  E  E   
---------------------------|--------------------------|
---------------------------|--------------------------|
---------------------------|--------------------------|
--L--5-----5--L------------|-----------------5--------|
--------8--------8p--7-----|--5-----5--8-----------5--|
------------------------8--|-----8--------------------|


  E  E  E  E  E  E  E  E  E  E  Q       W                E  E  E  E   
-------------------------------------|-------------------------------|
-------------------------------------|-------------------------------|
-----------5-----7-----5-------------|-------------------------------|
-----7-----3-----5-----3-----7--5----|--L----------------L--5-----5--|
-----5-----------------------5--3----|--L----------------L--3-----3--|
-------------------------------------|-------------------------------|


                                                PM       PM PM         PM PM  
  Q    E  E  E  E  E  E     Q    E  E  E  E  E  E     E  E  E  E  Q    E  E   
-------------------------|-------------------------|-------------------------|
-------------------------|-------------------------|-------------------------|
----------5-----5--------|----------5-----5--------|-------------------------|
--3-------2-----3-----3--|--L-------2-----3--------|--7--------7--L----------|
--1-------------------1--|--L-------------------5--|--5--5--5--5--L----5--5--|
-------------------------|-------------------------|-------------------------|


  PM    PM         PM PM                                                      
  E  E  E  E  Q    E  E     Q    E  E  E  E  E  E     Q    E  E  E  E  E  E   
-------------------------|-------------------------|-------------------------|
-------------------------|-------------------------|-------------------------|
-------------------------|----------5-----7--------|----------5-----7--------|
-----7-----7--7----------|--7-------3-----5-----7--|--L-------3-----5-----5--|
--5--5--5--5--5----5--5--|--5-------------------5--|--L-------------------3--|
-------------------------|-------------------------|-------------------------|


  W                   H.           E  E     Q    E  E  E  E  E  E   
-------------------|---------------------|-------------------------|
-------------------|---------------------|-------------------------|
-------------------|---------------------|----------5-----5--------|
--L----------------|--L------------L--3--|--L-------2-----3-----3--|
--L----------------|--L------------L--1--|--L-------------------1--|
-------------------|---------------------|-------------------------|


                      PM       PM PM         PM                                 
  Q    E  E  E  E  E  E     E  E  E  E  Q    E  E     E  E  E  E  E  E   E  E   
-------------------------|-------------------------|---------------------------|
-------------------------|-------------------------|---------------------------|
----------5-----5--------|-------------------------|---------------------------|
--L-------2-----3--------|--7--------7--L-------7--|--L--5-----5--L------------|
--L-------------------5--|--5--5--5--5--L----5-----|--------8--------8p--7-----|
-------------------------|-------------------------|------------------------8--|


  E  E  E  E  E  E  E  E     E  E  E  E  E  E  E  E  E  E  Q     
--------------------------|-------------------------------------|
--------------------------|-------------------------------------|
--------------------------|-----------5-----7-----5-------------|
-----------------5--------|-----7-----3-----5-----3-----7--5----|
--5-----5--8-----------5--|-----5-----------------------5--3----|
-----8--------------------|-------------------------------------|


  W                E  E  E  E     Q    E  E  E  E  E  E   
-------------------------------|-------------------------|
-------------------------------|-------------------------|
-------------------------------|----------5-----5--------|
--L----------------L--5-----5--|--3-------2-----3-----3--|
--L----------------L--3-----3--|--1-------------------1--|
-------------------------------|-------------------------|


                      PM       PM PM         PM PM    PM    PM         PM PM  
  Q    E  E  E  E  E  E     E  E  E  E  Q    E  E     E  E  E  E  Q    E  E   
-------------------------|-------------------------|-------------------------|
-------------------------|-------------------------|-------------------------|
----------5-----5--------|-------------------------|-------------------------|
--L-------2-----3--------|--7--------7--L----------|-----7-----7--7----------|
--L-------------------5--|--5--5--5--5--L----5--5--|--5--5--5--5--5----5--5--|
-------------------------|-------------------------|-------------------------|


  Q    E  E  E  E  E  E     Q    E  E  E  E  E  E     W                 
-------------------------|-------------------------|-------------------|
-------------------------|-------------------------|-------------------|
----------5-----7--------|----------5-----7--------|-------------------|
--7-------3-----5-----7--|--L-------3-----5-----5--|--L----------------|
--5-------------------5--|--L-------------------3--|--L----------------|
-------------------------|-------------------------|-------------------|


                                                                      PM  
  H.           E  E     Q    E  E  E  E  E  E     Q    E  E  E  E  E  E   
---------------------|-------------------------|-------------------------|
---------------------|-------------------------|-------------------------|
---------------------|----------5-----5--------|----------5-----5--------|
--L------------L--3--|--L-------2-----3-----3--|--L-------2-----3--------|
--L------------L--1--|--L-------------------1--|--L-------------------5--|
---------------------|-------------------------|-------------------------|


     PM PM         PM                                 
  E  E  E  E  Q    E  E     E  E  E  E  E  E   E  E   
-------------------------|---------------------------|
-------------------------|---------------------------|
-------------------------|---------------------------|
--7--------7--L-------7--|--L--5-----5--L------------|
--5--5--5--5--L----5-----|--------8--------8p--7-----|
-------------------------|------------------------8--|


  E  E  E  E  E  E  E  E     E  E  E  E  E  E  E  E  E  E  Q     
--------------------------|-------------------------------------|
--------------------------|-------------------------------------|
--------------------------|-----------5-----7-----5-------------|
-----------------5--------|-----7-----3-----5-----3-----7--5----|
--5-----5--8-----------5--|-----5-----------------------5--3----|
-----8--------------------|-------------------------------------|


  W                E  E  E  E     Q    E  E  E  E  E  E   
-------------------------------|-------------------------|
-------------------------------|-------------------------|
-------------------------------|----------5-----5--------|
--L----------------L--5-----5--|--3-------2-----3-----3--|
--L----------------L--3-----3--|--1-------------------1--|
-------------------------------|-------------------------|


                      PM       PM PM         PM PM    PM    PM         PM PM  
  Q    E  E  E  E  E  E     E  E  E  E  Q    E  E     E  E  E  E  Q    E  E   
-------------------------|-------------------------|-------------------------|
-------------------------|-------------------------|-------------------------|
----------5-----5--------|-------------------------|-------------------------|
--L-------2-----3--------|--7--------7--L----------|-----7-----7--7----------|
--L-------------------5--|--5--5--5--5--L----5--5--|--5--5--5--5--5----5--5--|
-------------------------|-------------------------|-------------------------|


  Q    E  E  E  E  E  E     Q    E  E  E  E  E  E     W                 
-------------------------|-------------------------|-------------------|
-------------------------|-------------------------|-------------------|
----------5-----7--------|----------5-----7--------|-------------------|
--7-------3-----5-----7--|--L-------3-----5-----5--|--L----------------|
--5-------------------5--|--L-------------------3--|--L----------------|
-------------------------|-------------------------|-------------------|


                                                                      PM  
  H.           E  E     Q    E  E  E  E  E  E     Q    E  E  E  E  E  E   
---------------------|-------------------------|-------------------------|
---------------------|-------------------------|-------------------------|
---------------------|----------5-----5--------|----------5-----5--------|
--L------------L--3--|--L-------2-----3-----3--|--L-------2-----3--------|
--L------------L--1--|--L-------------------1--|--L-------------------5--|
---------------------|-------------------------|-------------------------|


     PM PM         PM                                 
  E  E  E  E  Q    E  E     E  E  E  E  E  E   E  E   
-------------------------|---------------------------|
-------------------------|---------------------------|
-------------------------|---------------------------|
--7--------7--L-------7--|--L--5-----5--L------------|
--5--5--5--5--L----5-----|--------8--------8p--7-----|
-------------------------|------------------------8--|


  E  E  E  E  E  E  E  E     E  E  E  E  E  E  E  E  E  E  Q     
--------------------------|-------------------------------------|
--------------------------|-------------------------------------|
--------------------------|-----------5-----7-----5-------------|
-----------------5--------|-----7-----3-----5-----3-----7--5----|
--5-----5--8-----------5--|-----5-----------------------5--3----|
-----8--------------------|-------------------------------------|


  W                E  E  E  E     Q    E  E  E  E  E  E   
-------------------------------|-------------------------|
-------------------------------|-------------------------|
-------------------------------|----------5-----5--------|
--L----------------L--5-----5--|--3-------2-----3-----3--|
--L----------------L--3-----3--|--1-------------------1--|
-------------------------------|-------------------------|


                      PM       PM PM         PM PM    PM    PM         PM PM   
  Q    E  E  E  E  E  E     E  E  E  E  Q    E  E     E  E  E  E  Q    E  E    
-------------------------|-------------------------|-------------------------||
-------------------------|-------------------------|-------------------------||
----------5-----5--------|-------------------------|-------------------------||
--L-------2-----3--------|--7--------7--L----------|-----7-----7--7----------||
--L-------------------5--|--5--5--5--5--L----5--5--|--5--5--5--5--5----5--5--||
-------------------------|-------------------------|-------------------------||

_______________________________________________________________________________
_______________________________________________________________________________

                                                                 


Lead Guitar



      W                   W                   W                 
D#||-------------------|-------------------|-------------------|
A#||-------------------|-------------------|-------------------|
F#||-------------------|-------------------|-------------------|
C#||-------------------|-------------------|-------------------|
G#||-------------------|-------------------|-------------------|
D#||-------------------|-------------------|-------------------|


  W                   W                   W                   W                 
-------------------|-------------------|-------------------|-------------------|
-------------------|-------------------|-------------------|-------------------|
-------------------|-------------------|-------------------|-------------------|
-------------------|-------------------|-------------------|-------------------|
-------------------|-------------------|-------------------|-------------------|
-------------------|-------------------|-------------------|-------------------|


  W                   W                   W                   W                 
-------------------|-------------------|-------------------|-------------------|
-------------------|-------------------|-------------------|-------------------|
-------------------|-------------------|-------------------|-------------------|
-------------------|-------------------|-------------------|-------------------|
-------------------|-------------------|-------------------|-------------------|
-------------------|-------------------|-------------------|-------------------|


  W                   W                   Q.      Q.     Q     
-------------------|-------------------|---------17------L----|
-------------------|-------------------|---------17------L----|
-------------------|-------------------|----------------------|
-------------------|-------------------|----------------------|
-------------------|-------------------|----------------------|
-------------------|-------------------|----------------------|


                            PM  PM                       
  H.           Q        E   E   E   E   E    E   E   E   
--L-----------------|-----------------------------------|
--L-----------------|--10----------10-------------------|
--------------------|------12--12------12p--10------12--|
--------------------|---------------------------12------|
--------------------|-----------------------------------|
--------------------|-----------------------------------|


       PM  PM                                                 
   E   E   E   E      E   E   E     E      W                  
---------------------------------------|---------------------|
---------------------------------------|---------------------|
--10----------12p--<>10----------<>10--|---------------------|
------12--12-------------12--10--------|--12~----------------|
---------------------------------------|---------------------|
---------------------------------------|---------------------|


     W                   W                   W                 
--<>10----------------|-------------------|-------------------|
----------------------|-------------------|-------------------|
----------------------|-------------------|-------------------|
----------------------|-------------------|-------------------|
----------------------|-------------------|-------------------|
----------------------|-------------------|-------------------|


  W                   W                   W                   W                 
-------------------|-------------------|-------------------|-------------------|
-------------------|-------------------|-------------------|-------------------|
-------------------|-------------------|-------------------|-------------------|
-------------------|-------------------|-------------------|-------------------|
-------------------|-------------------|-------------------|-------------------|
-------------------|-------------------|-------------------|-------------------|


  W                   W                   W                   W                 
-------------------|-------------------|-------------------|-------------------|
-------------------|-------------------|-------------------|-------------------|
-------------------|-------------------|-------------------|-------------------|
-------------------|-------------------|-------------------|-------------------|
-------------------|-------------------|-------------------|-------------------|
-------------------|-------------------|-------------------|-------------------|


  W                   W                   W                   W                 
-------------------|-------------------|-------------------|-------------------|
-------------------|-------------------|-------------------|-------------------|
-------------------|-------------------|-------------------|-------------------|
-------------------|-------------------|-------------------|-------------------|
-------------------|-------------------|-------------------|-------------------|
-------------------|-------------------|-------------------|-------------------|


  W                   W                   W                   W                 
-------------------|-------------------|-------------------|-------------------|
-------------------|-------------------|-------------------|-------------------|
-------------------|-------------------|-------------------|-------------------|
-------------------|-------------------|-------------------|-------------------|
-------------------|-------------------|-------------------|-------------------|
-------------------|-------------------|-------------------|-------------------|


  W                   W                   W                   W                 
-------------------|-------------------|-------------------|-------------------|
-------------------|-------------------|-------------------|-------------------|
-------------------|-------------------|-------------------|-------------------|
-------------------|-------------------|-------------------|-------------------|
-------------------|-------------------|-------------------|-------------------|
-------------------|-------------------|-------------------|-------------------|


                       Solo Fill:                                             
                       PM         PM  PM  PM  PM  PM                          
                       |-------3------|   |---3---|   |---3---|   |---3---|   
  W                    E          E   E   E   E   E   E   E   E   E   E   E   
-------------------|---------------------------------------------------------|
-------------------|---------------------------------------------13--15--18--|
-------------------|---------------------------------10--12--14--------------|
-------------------|-----------------------------12--------------------------|
-------------------|-----------------10--12--15------------------------------|
-------------------|--10---------13------------------------------------------|


                                                                   PM  
   W                    W                   Q.        Q.       E   E   
--15b----------------|-------------------|----------------------------|
---------------------|-------------------|----------------------------|
---------------------|-------------------|---------<>12b------10------|
---------------------|-------------------|------------------------12--|
---------------------|-------------------|----------------------------|
---------------------|-------------------|----------------------------|


            PM                                                                
   E    E   E   E   E    E  E   E      W                    W                 
------------------------------------|--------------------|-------------------|
------------------------------------|--------------------|-------------------|
--12p--10------10--12p--10----------|--------------------|-------------------|
-----------12------------------10\--|--8~----------------|--L----------------|
------------------------------------|--------------------|-------------------|
------------------------------------|--------------------|-------------------|


  W                   W                   W                   W                 
-------------------|-------------------|-------------------|-------------------|
-------------------|-------------------|-------------------|-------------------|
-------------------|-------------------|-------------------|-------------------|
-------------------|-------------------|-------------------|-------------------|
-------------------|-------------------|-------------------|-------------------|
-------------------|-------------------|-------------------|-------------------|


  W                   W                   W                   W                 
-------------------|-------------------|-------------------|-------------------|
-------------------|-------------------|-------------------|-------------------|
-------------------|-------------------|-------------------|-------------------|
-------------------|-------------------|-------------------|-------------------|
-------------------|-------------------|-------------------|-------------------|
-------------------|-------------------|-------------------|-------------------|


  W                   W                   W                   W                 
-------------------|-------------------|-------------------|-------------------|
-------------------|-------------------|-------------------|-------------------|
-------------------|-------------------|-------------------|-------------------|
-------------------|-------------------|-------------------|-------------------|
-------------------|-------------------|-------------------|-------------------|
-------------------|-------------------|-------------------|-------------------|


  W                   W                   W                   W                 
-------------------|-------------------|-------------------|-------------------|
-------------------|-------------------|-------------------|-------------------|
-------------------|-------------------|-------------------|-------------------|
-------------------|-------------------|-------------------|-------------------|
-------------------|-------------------|-------------------|-------------------|
-------------------|-------------------|-------------------|-------------------|


  W                   W                   W                   W                 
-------------------|-------------------|-------------------|-------------------|
-------------------|-------------------|-------------------|-------------------|
-------------------|-------------------|-------------------|-------------------|
-------------------|-------------------|-------------------|-------------------|
-------------------|-------------------|-------------------|-------------------|
-------------------|-------------------|-------------------|-------------------|


                                          Solo Fill:                     
  W                   W                   Q.         E   E   E   E   E   
-------------------|-------------------|----------------10----------10--|
-------------------|-------------------|-------------x--10--13--10--10--|
-------------------|-------------------|-------------x------12--10------|
-------------------|-------------------|--------------------------------|
-------------------|-------------------|--------------------------------|
-------------------|-------------------|--------------------------------|


   PM      PM  PM      PM      PM                 \2           
   E   E   E   E   E   E   E   E      E   E   E   E  H         
------10----------10------10------|--10----------10--L--------|
------10----------10------10------|--10--13--10--10--L--------|
--12------12--12------12------12--|------12--10---------------|
----------------------------------|---------------------------|
----------------------------------|---------------------------|
----------------------------------|---------------------------|


  W                   H.            E   E     E   E   E   E  E   E   E   E   
--L----------------|-----------------------|--------------------------------|
--L----------------|-------------------10--|--L-----------------------------|
-------------------|-----------------------|-----12--10--12--L--10p--9------|
-------------------|---------------12------|----------------------------10--|
-------------------|-----------------------|--------------------------------|
-------------------|-----------------------|--------------------------------|


   E   E   E   E  E   E  E   E      W                   W                 
--------------------------------|--10----------------|--L----------------|
--------------------------------|--------------------|-------------------|
--------------10-----12---------|--------------------|-------------------|
--12--10--12----------------12--|--------------------|-------------------|
--------------------------------|--------------------|-------------------|
--------------------------------|--------------------|-------------------|


  H        E  E   E   E      E   E   E    E   H            H        H         
--L----------------------|------------------------------|--------------------|
-----------x--x---x--18--|--20b-----20p--18--20b--------|--L-----------------|
-----------x--x--19---x--|------------------------------|--------------------|
-------------------------|------------------------------|--------------------|
-------------------------|------------------------------|--------------------|
-------------------------|------------------------------|--------------------|


   \6/                                                           
   W                   H.           E   E      W                 
--------------------|-----------------------|-------------------|
--------------------|------------------13b--|--L----------------|
--------------------|------------------12b--|--L----------------|
--------------------|-----------------------|-------------------|
--------------------|-----------------------|-------------------|
--12----------------|--L------------L-------|-------------------|


  W                    H.            E   S  S     E  E   E   E  H         
-------------------|--------------------------|--------------------------|
--L----------------|--12b------------L--------|--------------------------|
--L----------------|--12b------------L--10----|--12--x--12--10--L--------|
-------------------|-----------------------12-|--12--x--12--10--L--------|
-------------------|--------------------------|--------------------------|
-------------------|--------------------------|--------------------------|


   E  E   E   E  Q     E   E      Q       E   E   Q     E   E    
------------------------------|----------------------------13b--|
--10-----10-------------------|--12br---------------------------|
--10-----10---------------10--|--12br----10------10-------------|
------x------12--L----12------|--------------12--------12-------|
------------------------------|---------------------------------|
------------------------------|---------------------------------|


  Q     E   E   E     S  S  Q        E   E     E   E   H          
--L----13--10--------------------|-------------------------------|
---------------------------------|-------------------------------|
---------------12br--12-10-12----|--10--12br--12--10-------------|
---------------------------------|-------------------------------|
---------------------------------|--------------------10~--------|
---------------------------------|-------------------------------|


                        PM  PM                             PM  PM  
   E  S S S S  E  Q     E   E      E     E   E   E   Q     E   E   
-------------------------------|----------------------------------|
-------------------------------|--12br--12------------------------|
--12--x-x-x-x-10--L------------|--12br--12--10------10------------|
--12--x-x-x-x-10--L----12--10--|----------------12--------12--10--|
-------------------------------|----------------------------------|
-------------------------------|----------------------------------|


   S   S  S  S  S   S  S  S  S   S  S  S  S  S  E    
-----------------------------------------------13b--|
----------------------------------------------------|
--12p-10-10-10-13p-10-10-10-12p-10-10-10-10-10------|
----------------------------------------------------|
----------------------------------------------------|
----------------------------------------------------|


  H           E   E   E    E      E     S   S  E   E  Q     E    E   
--L--------<>10---------------|-------------------------------------|
-----------------10-----------|-------------------10--L----13-------|
---------------------13p--10--|--12br--12p-10-----10--L----12p--10--|
------------------------------|---------------12--------------------|
------------------------------|-------------------------------------|
------------------------------|-------------------------------------|


              PM      PM  PM                         PM               
   E   E  E   E   E   E   E   E     E   E   E    E   E   E   E    E   
---------------------------------|-----------------------------------|
------10--L------10----------10--|--L------12p--10------12--12p--10--|
------10--L------10----------10--|--L------12p--10------12--12p--10--|
--12---------12------12--12------|-----12-----------12---------------|
---------------------------------|-----------------------------------|
---------------------------------|-----------------------------------|


                PM                                                 
   E   E    E   E   Q     E   E       Q     E    E   E   E  E  E   
----------------------------------|-------------------------------|
------12p--10----------------13\--|---L----12p--10------10--L-----|
------12p--10----------------14\--|---L----12p--10------10--L--x--|
--12-----------12--12\----x-------|-----------------12------------|
----------------------------------|-------------------------------|
----------------------------------|-------------------------------|


   Q      E   E   Q      Q         E   E   E   E   E   E   E     E   
--15b----13--------------------|--13--10----------------------------|
-------------15--15b----15b----|--------------------------12br--12--|
-------------------------------|----------13--12--10------12br--12--|
-------------------------------|----------------------12------------|
-------------------------------|------------------------------------|
-------------------------------|------------------------------------|


   E   E   E   E   E   E   Q       E   E    Q     E   E   Q      
--------------------------------|-------------------------------|
--------------------------------|-------------------------------|
--10----------------------------|-------------------------------|
------12------------------------|-------------------------------|
----------12--10----------------|--x--10br--L----10p--8---------|
------------------13--10\--L----|------------------------10\----|


  E   E   E   E   E   E    E   S   S     W                    W                 
-----20b--L--20b--L--20br--L--20p-18-|--20b----------------|-------------------|
-------------------------------------|---------------------|-------------------|
--x----------------------------------|---------------------|-------------------|
-------------------------------------|---------------------|-------------------|
-------------------------------------|---------------------|-------------------|
-------------------------------------|---------------------|-------------------|


  W                   W                   W                   W                 
-------------------|-------------------|-------------------|-------------------|
-------------------|-------------------|-------------------|-------------------|
-------------------|-------------------|-------------------|-------------------|
-------------------|-------------------|-------------------|-------------------|
-------------------|-------------------|-------------------|-------------------|
-------------------|-------------------|-------------------|-------------------|


  W                   W                   W                   W                 
-------------------|-------------------|-------------------|-------------------|
-------------------|-------------------|-------------------|-------------------|
-------------------|-------------------|-------------------|-------------------|
-------------------|-------------------|-------------------|-------------------|
-------------------|-------------------|-------------------|-------------------|
-------------------|-------------------|-------------------|-------------------|


  W                   W                   W                   W                 
-------------------|-------------------|-------------------|-------------------|
-------------------|-------------------|-------------------|-------------------|
-------------------|-------------------|-------------------|-------------------|
-------------------|-------------------|-------------------|-------------------|
-------------------|-------------------|-------------------|-------------------|
-------------------|-------------------|-------------------|-------------------|


  W                   W                   W                   W                 
-------------------|-------------------|-------------------|-------------------|
-------------------|-------------------|-------------------|-------------------|
-------------------|-------------------|-------------------|-------------------|
-------------------|-------------------|-------------------|-------------------|
-------------------|-------------------|-------------------|-------------------|
-------------------|-------------------|-------------------|-------------------|


  W                   W                   W                   W                 
-------------------|-------------------|-------------------|-------------------|
-------------------|-------------------|-------------------|-------------------|
-------------------|-------------------|-------------------|-------------------|
-------------------|-------------------|-------------------|-------------------|
-------------------|-------------------|-------------------|-------------------|
-------------------|-------------------|-------------------|-------------------|


  W                   W                   W                   W                 
-------------------|-------------------|-------------------|-------------------|
-------------------|-------------------|-------------------|-------------------|
-------------------|-------------------|-------------------|-------------------|
-------------------|-------------------|-------------------|-------------------|
-------------------|-------------------|-------------------|-------------------|
-------------------|-------------------|-------------------|-------------------|


  W                   W                   W                   W                 
-------------------|-------------------|-------------------|-------------------|
-------------------|-------------------|-------------------|-------------------|
-------------------|-------------------|-------------------|-------------------|
-------------------|-------------------|-------------------|-------------------|
-------------------|-------------------|-------------------|-------------------|
-------------------|-------------------|-------------------|-------------------|


  W                   W                   W                   W                 
-------------------|-------------------|-------------------|-------------------|
-------------------|-------------------|-------------------|-------------------|
-------------------|-------------------|-------------------|-------------------|
-------------------|-------------------|-------------------|-------------------|
-------------------|-------------------|-------------------|-------------------|
-------------------|-------------------|-------------------|-------------------|


                                                           PM  PM  PM  
                                                           |---3---|   
  W                   W                   W                E   E   E   
-------------------|-------------------|------------------------------|
-------------------|-------------------|------------------------------|
-------------------|-------------------|------------------------------|
-------------------|-------------------|------------------------------|
-------------------|-------------------|------------------------------|
-------------------|-------------------|-------------------8--10--12--|


   Solo Fill:                                         
   PM         PM PM  PM PM  PM PM  PM  PM  PM  PM PM  
   |------3------|   |---3--|  |---3---|   |---3--|   
   E          E  E   E  E   E  E   E   E   E   E  E   
-----------------------------------------------------|
-----------------------------------------------------|
-----------------------------------------------------|
--------------------------------------------------8--|
-----------------8------8--10--8--10--12--10--12-----|
--10---------12-----12-------------------------------|


   |---3--|  |---3---|   |---3--|   |---3--|   
   E  E   E  E   E   E   E   E  E   E  E   E   
----------------------------------------------|
----------------------------------------------|
--------------------------------9------9--10--|
------8--10--8--10--12--10--12-----12---------|
--12------------------------------------------|
----------------------------------------------|


  |---3---|   |---3---|   |---3---|   |---3---|   
  E   E   E   E   E   E   E   E   E   E   E   E   
-------------------------------------------------|
---------------------10------10--11--10--11--13--|
--9--10--12--10--12------12----------------------|
-------------------------------------------------|
-------------------------------------------------|
-------------------------------------------------|


   |---3---|   |---3---|   |---3---|   |---3---|                        
   E   E   E   E   E   E   E   E   E   E   E   E      W                 
----------10------10--12--10--12--13--12--13--15--|--17----------------|
--11--13------13----------------------------------|--------------------|
--------------------------------------------------|--------------------|
--------------------------------------------------|--------------------|
--------------------------------------------------|--------------------|
--------------------------------------------------|--------------------|


  W                   W                   W                   W                 
-------------------|-------------------|-------------------|-------------------|
-------------------|-------------------|-------------------|-------------------|
-------------------|-------------------|-------------------|-------------------|
-------------------|-------------------|-------------------|-------------------|
-------------------|-------------------|-------------------|-------------------|
-------------------|-------------------|-------------------|-------------------|


  W                   W                   W                   W                 
-------------------|-------------------|-------------------|-------------------|
-------------------|-------------------|-------------------|-------------------|
-------------------|-------------------|-------------------|-------------------|
-------------------|-------------------|-------------------|-------------------|
-------------------|-------------------|-------------------|-------------------|
-------------------|-------------------|-------------------|-------------------|


  W                   W                   W                   W                 
-------------------|-------------------|-------------------|-------------------|
-------------------|-------------------|-------------------|-------------------|
-------------------|-------------------|-------------------|-------------------|
-------------------|-------------------|-------------------|-------------------|
-------------------|-------------------|-------------------|-------------------|
-------------------|-------------------|-------------------|-------------------|


  W                   W                   W                   W                 
-------------------|-------------------|-------------------|-------------------|
-------------------|-------------------|-------------------|-------------------|
-------------------|-------------------|-------------------|-------------------|
-------------------|-------------------|-------------------|-------------------|
-------------------|-------------------|-------------------|-------------------|
-------------------|-------------------|-------------------|-------------------|


  W                H           W                H           W                 
----------------------------|----------------------------|-------------------|
----------------------------|----------------------------|-------------------|
----------------------------|----------------------------|-------------------|
----------------------------|----------------------------|-------------------|
----------------------------|----------------------------|-------------------|
----------------------------|----------------------------|-------------------|


  W                   W                   W                   W                 
-------------------|-------------------|-------------------|-------------------|
-------------------|-------------------|-------------------|-------------------|
-------------------|-------------------|-------------------|-------------------|
-------------------|-------------------|-------------------|-------------------|
-------------------|-------------------|-------------------|-------------------|
-------------------|-------------------|-------------------|-------------------|


  W                   W                   W                   W                 
-------------------|-------------------|-------------------|-------------------|
-------------------|-------------------|-------------------|-------------------|
-------------------|-------------------|-------------------|-------------------|
-------------------|-------------------|-------------------|-------------------|
-------------------|-------------------|-------------------|-------------------|
-------------------|-------------------|-------------------|-------------------|


  W                   W                   W                   W                 
-------------------|-------------------|-------------------|-------------------|
-------------------|-------------------|-------------------|-------------------|
-------------------|-------------------|-------------------|-------------------|
-------------------|-------------------|-------------------|-------------------|
-------------------|-------------------|-------------------|-------------------|
-------------------|-------------------|-------------------|-------------------|


  W                H           W                H           W                 
----------------------------|----------------------------|-------------------|
----------------------------|----------------------------|-------------------|
----------------------------|----------------------------|-------------------|
----------------------------|----------------------------|-------------------|
----------------------------|----------------------------|-------------------|
----------------------------|----------------------------|-------------------|


  W                   W                   W                   W                 
-------------------|-------------------|-------------------|-------------------|
-------------------|-------------------|-------------------|-------------------|
-------------------|-------------------|-------------------|-------------------|
-------------------|-------------------|-------------------|-------------------|
-------------------|-------------------|-------------------|-------------------|
-------------------|-------------------|-------------------|-------------------|


  W                   W                   W                   W                 
-------------------|-------------------|-------------------|-------------------|
-------------------|-------------------|-------------------|-------------------|
-------------------|-------------------|-------------------|-------------------|
-------------------|-------------------|-------------------|-------------------|
-------------------|-------------------|-------------------|-------------------|
-------------------|-------------------|-------------------|-------------------|


  W                   W                   W                   W                 
-------------------|-------------------|-------------------|-------------------|
-------------------|-------------------|-------------------|-------------------|
-------------------|-------------------|-------------------|-------------------|
-------------------|-------------------|-------------------|-------------------|
-------------------|-------------------|-------------------|-------------------|
-------------------|-------------------|-------------------|-------------------|


  W                H           W                H           W                 
----------------------------|----------------------------|-------------------|
----------------------------|----------------------------|-------------------|
----------------------------|----------------------------|-------------------|
----------------------------|----------------------------|-------------------|
----------------------------|----------------------------|-------------------|
----------------------------|----------------------------|-------------------|


  W                   W                   W                   W                 
-------------------|-------------------|-------------------|-------------------|
-------------------|-------------------|-------------------|-------------------|
-------------------|-------------------|-------------------|-------------------|
-------------------|-------------------|-------------------|-------------------|
-------------------|-------------------|-------------------|-------------------|
-------------------|-------------------|-------------------|-------------------|


  W                   W                   W                   W                 
-------------------|-------------------|-------------------|-------------------|
-------------------|-------------------|-------------------|-------------------|
-------------------|-------------------|-------------------|-------------------|
-------------------|-------------------|-------------------|-------------------|
-------------------|-------------------|-------------------|-------------------|
-------------------|-------------------|-------------------|-------------------|


  W                   W                   W                   W                 
-------------------|-------------------|-------------------|-------------------|
-------------------|-------------------|-------------------|-------------------|
-------------------|-------------------|-------------------|-------------------|
-------------------|-------------------|-------------------|-------------------|
-------------------|-------------------|-------------------|-------------------|
-------------------|-------------------|-------------------|-------------------|


  W                H           W                H           W                 
----------------------------|----------------------------|-------------------|
----------------------------|----------------------------|-------------------|
----------------------------|----------------------------|-------------------|
----------------------------|----------------------------|-------------------|
----------------------------|----------------------------|-------------------|
----------------------------|----------------------------|-------------------|


  W                   W                   W                  
-------------------|-------------------|-------------------||
-------------------|-------------------|-------------------||
-------------------|-------------------|-------------------||
-------------------|-------------------|-------------------||
-------------------|-------------------|-------------------||
-------------------|-------------------|-------------------||

_____________________________________________________________
_____________________________________________________________
_____________________________________________________________

                                                                  


Bass



      W                   W                   H.           E  E   
F#||-------------------|-------------------|---------------------|
C#||-------------------|-------------------|---------------------|
G#||-------------------|-------------------|---------------------|
C#||-------------------|-------------------|------------------0--|


  E  E  H.              H.           E  E     E  E  H.            
---------------------|---------------------|---------------------|
---------------------|---------------------|---------------------|
---------------------|---------------------|---------------------|
--0------------------|------------------0--|--0------------------|


  H.           E  E     H.            E  E     H.           E  E   
---------------------|----------------------|---------------------|
---------------------|----------------------|---------------------|
---------------------|----------------------|------------------3--|
------------------8--|--8\------------L-----|---------------------|


  W                   H.           E  E     E  E  E  E  E  E  E  E   
-------------------|---------------------|--------------------------|
-------------------|---------------------|--------------------------|
--3----------------|--L------------L--5--|--L--5--5--5--5--5--5--5--|
-------------------|---------------------|--------------------------|


  E  E  E  E  E  E  E  E     E  E  E  E  E  E  E  E   
--------------------------|--------------------------|
--------------------------|--------------------------|
--5--5--5--5--5--5--5--5--|--5--5--5--5--5--5--5--5--|
--------------------------|--------------------------|


  E  E  E  E  E  E  E  E     E  E  E  E  E  E  E  E   
--------------------------|--------------------------|
--------------------------|--------------------------|
--5--5--5--5--5--5--5--1--|--1--1--1--1--1--1--1--1--|
--------------------------|--------------------------|


  E  E  E  E  E  E  E  E     E  E  E  E  E  E  E  E   
--------------------------|--------------------------|
--------------------------|--------------------------|
--1--1--1--1--1--1--1--5--|--5--5--5--5--5--5--5--5--|
--------------------------|--------------------------|


  E  E  E  E  E  E  E  E     E  E  E  E  E  E  E  E   
--------------------------|--------------------------|
--------------------------|--------------------------|
--5--5--5--5--5--5--5--5--|--5--5--5--5--5--5--5--5--|
--------------------------|--------------------------|


  E  E  E  E  E  E  E  E     E  E  E  E  E  E  E  E   
--------------------------|--------------------------|
--------------------------|--------------------------|
--5--5--5--5--5--5--5--5--|--7--7--7--7--7--7--7--7--|
--------------------------|--------------------------|


  E  E  E  E  E  E    Q        E  E  E  E  E  E  E  E   
----------------------------|--------------------------|
----------------------------|--------------------------|
--8--8--8--8--8--8/---------|-----------------------5--|
---------------------15\----|--8--8--8--8--8--8--8-----|


  E  E  E  E  E  E  E  E     E  E  E  E  E  E  E  E   
--------------------------|--------------------------|
--------------------------|--------------------------|
--5--5--5--3--3--3--3--5--|--5--5--5--5--5--5--5--5--|
--------------------------|--------------------------|


  E  E  E  E  E  E  E  E     Q    E  E  E  E  E  E     E  E  E  E  E  E  E  E   
--------------------------|-------------------------|--------------------------|
--------------------------|-------------------------|--------------------------|
--5--5--5--5--5--5--5-----|-------------------------|--------------------------|
-----------------------0--|--0----0--0--0--0--0--0--|--0--0--0--0--0--0--0--0--|


  E  E  E  E  E  E  E  E     E  E  E  E  E  E   Q      
--------------------------|---------------------------|
--------------------------|---------------------------|
--------------------------|---------------------------|
--2--2--2--2--2--2--2--2--|--3--3--3--3--3--3--15\----|


  E  E  E  E  E  E  E  E     E  E  E  E  E  E  E  E   
--------------------------|--------------------------|
--------------------------|--------------------------|
-----------------------5--|--5--5--5--3--3--3--3-----|
--8--8--8--8--8--8--8-----|-----------------------0--|


  E  E  E  E  E  E  E  E     E  E  E  E  E  E  E  E   
--------------------------|--------------------------|
--------------------------|--------------------------|
--------------------------|--------------------5--5--|
--0--0--0--0--0--0--0--0--|--0--0--0--0--0--0--------|


  E  E  E  E  E  E  E  E     E  E  E  E  E  E  E  E   
--------------------------|--------------------------|
--------------------------|--------------------------|
--5--5--5--5--5--5--5--5--|--5--5--5--5--5--5--5--5--|
--------------------------|--------------------------|


  E  E  E  E  E  E  E  E     E  E  E  E  E  E    Q      
--------------------------|----------------------------|
--------------------------|----------------------------|
--7--7--7--7--7--7--7--7--|--8--8--8--8--8--8/---------|
--------------------------|---------------------15\----|


  E  E  E  E  E  E  E  E     E  E  E  E  E  E  E  E   
--------------------------|--------------------------|
--------------------------|--------------------------|
--------------------------|--------------------------|
--8--8--8--8--8--8--8--8--|--8--8--8--8--8--8--8--8--|


  E  E  E  E  E  E  E  E     E  E  E  E  E  E  E  E   
--------------------------|--------------------------|
--------------------------|--------------------------|
--------------------------|--------------------------|
--7--7--7--7--7--7--7--7--|--7--7--7--7--7--7--7--7--|


  E  E  E  E  E  E  E  E     E  E  E  E  E  E  E  E   
--------------------------|--------------------------|
--------------------------|--------------------------|
--5--5--5--5--5--5--5--5--|--5--5--5--5--5--5--5--5--|
--------------------------|--------------------------|


  E  E  E  E  E  E  E  E     E  E  E  E  E  E  E  E   
--------------------------|--------------------------|
--------------------------|--------------------------|
--5--5--5--5--5--5--5--5--|--5--5--5--5--5--5--5--1--|
--------------------------|--------------------------|


  E  E  E  E  E  E  E  E     E  E  E  E  E  E  E  E   
--------------------------|--------------------------|
--------------------------|--------------------------|
--1--1--1--1--1--1--1--1--|--1--1--1--1--1--1--1--5--|
--------------------------|--------------------------|


  E  E  E  E  E  E  E  E     E  E  E  E  E  E  E  E   
--------------------------|--------------------------|
--------------------------|--------------------------|
--5--5--5--5--5--5--5--5--|--5--5--5--5--5--5--5--5--|
--------------------------|--------------------------|


  E  E  E  E  E  E  E  E     E  E  E  E  E  E  E  E   
--------------------------|--------------------------|
--------------------------|--------------------------|
--5--5--5--5--5--5--5--5--|--0--------------0--------|
--------------------------|-----5--3--5--L-----5--3--|


  E  E  E  E  E  E  E  E     E  E  E  E  E  E  E  E   
--------------------------|--------------------------|
--------------------------|--------------------------|
--------------------------|--------------------------|
--0--0--0--0--0--0--0--0--|--0--0--0--0--0--0--0--0--|


  E  E  E  E  E  E  E  E     E  E  E  E  E  E   Q      
--------------------------|---------------------------|
--------------------------|---------------------------|
--------------------------|---------------------------|
--2--2--2--2--2--2--2--2--|--3--3--3--3--3--3--15\----|


  E  E  E  E  E  E  E  E     E  E  E  E  E  E  E  E   
--------------------------|--------------------------|
--------------------------|--------------------------|
-----------------------5--|--5--5--5--3--3--3--3--5--|
--8--8--8--8--8--8--8-----|--------------------------|


  E  E  E  E  E  E  E  E     E  E  E  E  E  E  E  E   
-----------7--------------|--------------------------|
-----------------7--------|--------------------------|
-----------------------5--|--5-----------------------|
--5--3--5-----------------|-----0--2--3--5--7--5--3--|


  E  E  E  E  E  E  E  E     E  E  E  E  E  E  E  E   
--------------------------|--------------------------|
--------------------------|--------------------------|
--------------------------|--------------------------|
--0--0--0--0--0--0--0--0--|--0--0--0--0--0--0--0--0--|


  E  E  E  E  E  E  E  E     E  E  E  E  E  E   Q      
--------------------------|---------------------------|
--------------------------|---------------------------|
--------------------------|---------------------------|
--2--2--2--2--2--2--2--2--|--3--3--3--3--3--3--15\----|


  E  E  E  E  E  E  E  E     E  E  E  E  E  E  E  E   
--------------------------|--------------------------|
--------------------------|--------------------------|
--------------------------|--------------------------|
--8--8--8--8--8--8--8--7--|--7--7--7--7--7--7--7--7--|


  E  E  E  E  E  E  E  E     E  E  E  E  E  E   Q     
--------------------------|--------------------------|
--------------------------|-----7-----------7\--L----|
--------------------------|--------------------------|
--7--7--7--7--7--7--7--7--|--7--------7--7-----------|


  E  E  E  E  E  E  E  E     E  E  E  E  E  E  E  E   
--------------------------|--------------------------|
--------------------------|--------------------------|
--5--5--5--5--5--5--5--5--|--5--5--5--5--5--5--5--5--|
--------------------------|--------------------------|


  E  E  E  E  E  E  E  E     E  E  E  E  E  E  E  E   
--------------------------|--------------------------|
--------------------------|--------------------------|
--5--5--5--5--5--5--5--5--|--5--5--5--5--5--5--5--1--|
--------------------------|--------------------------|


  E  E  E  E  E  E  E  E     E  E  E  E  E  E  E  E   
--------------------------|--------------------------|
--------------------------|--------------------------|
--1--1--1--1--1--1--1--1--|--1--1--1--1--1--1--1--5--|
--------------------------|--------------------------|


  E  E  E  E  E  E  E  E     E  E  E  E  E  E  E   E   
--------------------------|---------------------------|
-----------------------7--|--L--5-----5--L------------|
--5--5--5--5--5--5--5-----|--------8--------8--7------|
--------------------------|-----------------------10--|


  E  E  E  E  E  E  E  E     E  E  E  E  E  E  E  E   
--------------------------|--------------------------|
-----------------5--------|--------------------------|
--5--3--5--8-----------5--|--5--5--5--5--5--5--5--5--|
--------------------------|--------------------------|


  E  E  E  E  E  E  E  E     E  E  E  E  E  E  E  E   
--------------------------|--------------------------|
--------------------------|--------------------------|
--5--5--5--5--5--5--5--5--|--5--5--5--5--5--3-----3--|
--------------------------|--------------------------|


  E  E  E  E  E  E  E  E     E  E  E  E  E  E  E  E     E  E  H.            
--------------------------|--------------------------|---------------------|
--------------------------|--------------------------|---------------------|
--1--1--1--1--1--1--1--1--|--1--1--1--1--1--1--1--1--|--5------------------|
--------------------------|--------------------------|---------------------|


  W                   E  E  E  E  E  E  Q       E  E  E  E  E  E  Q     
-------------------|-------------------------|-------------------------|
-------------------|-------------------------|-------------------------|
-------------------|-------------------------|-------------------------|
-------------------|--5--5--5--3--L--3--3----|--5--5--5--3--L--3--3----|


  E  E  E  E  E  E  Q       E  E  E  E  E  E  Q       E  E  E  E  E  E  Q     
-------------------------|-------------------------|-------------------------|
--5--5--5--3--L--3--3----|--3--3--3--3--L--3--3----|-------------------------|
-------------------------|-------------------------|-------------------------|
-------------------------|-------------------------|--5--5--5--3--L--3--3----|


  E  E  E  E  E  E  Q       E  E  E  E  E  E  Q       E  E  E  E  E  E  Q     
-------------------------|-------------------------|-------------------------|
-------------------------|--5--5--5--3--L--3--3----|--3--3--3--3--L--3--3----|
-------------------------|-------------------------|-------------------------|
--5--5--5--3--L--3--3----|-------------------------|-------------------------|


  E  E  E  E  E  E  Q       E  E  E  E  E  E  Q       E  E  E  E  E  E  Q     
-------------------------|-------------------------|-------------------------|
-------------------------|-------------------------|--5--5--5--3--L--3--3----|
-------------------------|-------------------------|-------------------------|
--5--5--5--3--L--3--3----|--5--5--5--3--L--3--3----|-------------------------|


  E  E  E  E  E  E  Q       E  E  E  E  E  E  Q       E  E  E  E  E  E  Q     
-------------------------|-------------------------|-------------------------|
--3--3--3--3--L--3--3----|-------------------------|-------------------------|
-------------------------|-------------------------|-------------------------|
-------------------------|--5--5--5--3--L--3--3----|--5--5--5--3--L--3--3----|


  E  E  E  E  E  E  Q       E  E  E  E  E  E  Q       E  E  E  E  E  E  Q     
-------------------------|-------------------------|-------------------------|
--5--5--5--3--L--3--3----|--3--3--3--3--L--3--3----|-------------------------|
-------------------------|-------------------------|-------------------------|
-------------------------|-------------------------|--5--5--5--3--L--3--3----|


  E  E  E  E  E  E  Q       E  E  E  E  E  E  Q       E  E  E  E  E  E  Q     
-------------------------|-------------------------|-------------------------|
-------------------------|--5--5--5--3--L--3--3----|--3--3--3--3--L--3--3----|
-------------------------|-------------------------|-------------------------|
--5--5--5--3--L--3--3----|-------------------------|-------------------------|


  E  E  E  E  E  E  Q       E  E  E  E  E  E  Q       E  E  E  E  E  E  E  E   
-------------------------|-------------------------|--------------------------|
-------------------------|-------------------------|--------------------------|
-------------------------|-------------------------|--3--3-----3-----3--------|
--5--5--5--3--L--3--3----|--5--5--5--3--L--3--3----|--------------------------|


  E  E  E  E  E  E  E  E     H         H            W                 
--------------------------|----------------------|-------------------|
--------------------------|----------------------|-------------------|
-----3-----------3-----3--|----------------------|-------------------|
--------------------------|-----------10\--------|-------------------|


  W                   W                   W                 
-------------------|-------------------|-------------------|
-------------------|-------------------|-------------------|
-------------------|-------------------|-------------------|
-------------------|-------------------|-------------------|


  Q.     Q.     Q       W                   Q.     Q.     Q     
---------------------|-------------------|---------------------|
---------------------|-------------------|---------------------|
--1------------------|-------------------|--3------5------L----|
---------3------L----|--L----------------|---------------------|


  W                   Q.     Q.     Q       W                 
-------------------|---------------------|-------------------|
-------------------|---------------------|-------------------|
--L----------------|--0------1------L----|--L----------------|
-------------------|---------------------|-------------------|


  Q.     Q.     Q       W                   Q.     Q.     Q     
---------------------|-------------------|---------------------|
---------------------|-------------------|---------------------|
---------3------L----|--L----------------|--1------------------|
--5------------------|-------------------|---------3------L----|


  W                   Q.     Q.     Q       W                 
-------------------|---------------------|-------------------|
-------------------|---------------------|-------------------|
-------------------|--3------5------L----|--L----------------|
--L----------------|---------------------|-------------------|


  Q.     Q.     Q       W                   Q.     Q.     Q     
---------------------|-------------------|---------------------|
---------------------|-------------------|---------------------|
--0------1------L----|--L----------------|---------3------L----|
---------------------|-------------------|--5------------------|


  W                   Q.     Q.     Q       W                 
-------------------|---------------------|-------------------|
-------------------|---------------------|-------------------|
--L----------------|--1------------------|-------------------|
-------------------|---------3------L----|--L----------------|


  Q.     Q.     Q       W                   Q.     Q.     Q     
---------------------|-------------------|---------------------|
---------------------|-------------------|---------------------|
--3------5------L----|--L----------------|--0------1------L----|
---------------------|-------------------|---------------------|


  W                   Q.     Q.     Q       W                 
-------------------|---------------------|-------------------|
-------------------|---------------------|-------------------|
--L----------------|---------3------L----|--L----------------|
-------------------|--5------------------|-------------------|


  Q.     Q.     Q       W                   Q.     Q.     Q     
---------------------|-------------------|---------------------|
---------------------|-------------------|---------------------|
--1------------------|-------------------|--3------5------L----|
---------3------L----|--L----------------|---------------------|


  W                   Q.     Q.     Q       W                E  E   
-------------------|---------------------|-------------------------|
-------------------|---------------------|-------------------------|
--L----------------|--0------1------L----|--L----------------3--3--|
-------------------|---------------------|-------------------------|


  W                   W                   Q    E  E  E  E  E  E   
-------------------|-------------------|-------------------------|
-------------------|-------------------|-------------------------|
--L----------------|--L----------------|--3----3--3--3--3--3--3--|
-------------------|-------------------|-------------------------|


  E  E  E  E  E  E  E  E     E  E  E  E  E  E  E  E   
--------------------------|--------------------------|
--------------------------|--------------------------|
--3--3--3--3--3--3--3--3--|--5--5--5--5--5--5--5--5--|
--------------------------|--------------------------|


  E  E  E  E  E  E  E  E     E  E  E  E  E  E  E  E   
--------------------------|--------------------------|
--------------------------|--------------------------|
--5--5--5--5--5--5--5--5--|--5--5--5--5--5--5--5--5--|
--------------------------|--------------------------|


  E  E  E  E  E  E  E  E     E  E  E  E  E  E  E  E   
--------------------------|--------------------------|
--------------------------|--------------------------|
--5--5--5--5--5--5--5--1--|--1--1--1--1--1--1--1--1--|
--------------------------|--------------------------|


  E  E  E  E  E  E  E  E     E  E  E  E  E  E  E  E   
--------------------------|--------------------------|
--------------------------|--------------------------|
--1--1--1--1--1--1--1--5--|--5--5--5--5--5--5--5--5--|
--------------------------|--------------------------|


  E  E  E  E  E  E  E  E     E  E  E  E  E  E  E  E   
--------------------------|--------------------------|
--------------------------|--------------------------|
--5--5--5--5--5--5--5--5--|--5--5--5--5--5--5--5--5--|
--------------------------|--------------------------|


  E  E  E  E  E  E  E  E     E  E  E  E  E  E  E  E   
--------------------------|--------------------------|
--------------------------|--------------------------|
--5--5--5--5--5--5--5--5--|--5--5--5--5--5--5--5--5--|
--------------------------|--------------------------|


  E  E  E  E  E  E  E  E     E  E  E  E  E  E  E  E   
--------------------------|--------------------------|
--------------------------|--------------------------|
--5--5--5--5--5--5--5--1--|--1--1--1--1--1--1--1--1--|
--------------------------|--------------------------|


  E  E  E  E  E  E  E  E     E  E  E  E  E  E  E  E   
--------------------------|--------------------------|
--------------------------|-----------------------7--|
--1--1--1--1--1--1--1--5--|--5--5--5--5--5--5--5-----|
--------------------------|--------------------------|


  E  E  E  E  E  E  E   E     E  E  E  E  E  E  E  E   
---------------------------|--------------------------|
--L--5-----5--L------------|-----------3-----5--------|
--------8--------8--7------|--5--3--5--------------5--|
-----------------------10--|--------------------------|


  E  E  E  E  E  E  E  E  E  E  Q       E  E  E  E  E  E  E  E  E  E  E  E   
-------------------------------------|--------------------------------------|
-----------3-----5-----3-------------|--------------------------------------|
-----5-----------------------5--3----|--3--3--3--3--3--3--3--3--3--3-----3--|
-------------------------------------|--------------------------------------|


  E  E  E  E  E  E  E  E     E  E  E  E  E  E  E  E   
--------------------------|--------------------------|
--------------------------|--------------------------|
--1--1--1--1--1--1--1--1--|--1--1--1--1--1--1--1--5--|
--------------------------|--------------------------|


  E  E  E  E  E  E  E  E     E  E  E  E  E  E  E  E   
--------------------------|--------------------------|
--------------------------|--------------------------|
--5--5--5--5--5--5--5--5--|--5--5--5--5--5--5--5--5--|
--------------------------|--------------------------|


  E  E  E  E  E  E  E  E     E  E  E  E  E  E  E  E   
--------------------------|--------------------------|
--------------------------|--------------------------|
--5--5--5--5--5--5--5--5--|--5--5--5--5--5--5--5--5--|
--------------------------|--------------------------|


  E  E  E  E  E  E  E  E     E  E  E  E  E  E  E  E   
--------------------------|--------------------------|
--------------------------|--------------------------|
--5--5--5--5--5--5--5--5--|--5--5--5--5--5--5--5--1--|
--------------------------|--------------------------|


  E  E  E  E  E  E  E  E     E  E  E  E  E  E  E  E   
--------------------------|--------------------------|
--------------------------|--------------------------|
--1--1--1--1--1--1--1--1--|--1--1--1--1--1--1--1--5--|
--------------------------|--------------------------|


  E  E  E  E  E  E  E  E     E  E  E  E  E  E  E   E   
--------------------------|---------------------------|
-----------------------7--|--L--5-----5--L------------|
--5--5--5--5--5--5--5-----|--------8--------8--7------|
--------------------------|-----------------------10--|


  E  E  E  E  E  E  E  E     E  E  E  E  E  E  E  E  E  E  Q     
--------------------------|-------------------------------------|
-----------3-----5--------|-----------3-----5-----3-------------|
--5--3--5--------------5--|-----5-----------------------5--3----|
--------------------------|-------------------------------------|


  E  E  E  E  E  E  E  E  E  E  E  E     E  E  E  E  E  E  E  E   
--------------------------------------|--------------------------|
--------------------------------------|--------------------------|
--3--3--3--3--3--3--3--3--3--3-----3--|--1--1--1--1--1--1--1--1--|
--------------------------------------|--------------------------|


  E  E  E  E  E  E  E  E     E  E  E  E  E  E  E  E   
--------------------------|--------------------------|
--------------------------|--------------------------|
--1--1--1--1--1--1--1--5--|--5--5--5--5--5--5--5--5--|
--------------------------|--------------------------|


  E  E  E  E  E  E  E  E     E  E  E  E  E  E  E  E   
--------------------------|--------------------------|
--------------------------|--------------------------|
--5--5--5--5--5--5--5--5--|--5--5--5--5--5--5--5--5--|
--------------------------|--------------------------|


  E  E  E  E  E  E  E  E     E  E  E  E  E  E  E  E   
--------------------------|--------------------------|
--------------------------|--------------------------|
--5--5--5--5--5--5--5--5--|--5--5--5--5--5--5--5--5--|
--------------------------|--------------------------|


  E  E  E  E  E  E  E  E     E  E  E  E  E  E  E  E   
--------------------------|--------------------------|
--------------------------|--------------------------|
--5--5--5--5--5--5--5--1--|--1--1--1--1--1--1--1--1--|
--------------------------|--------------------------|


  E  E  E  E  E  E  E  E     E  E  E  E  E  E  E  E   
--------------------------|--------------------------|
--------------------------|-----------------------7--|
--1--1--1--1--1--1--1--5--|--5--5--5--5--5--5--5-----|
--------------------------|--------------------------|


  E  E  E  E  E  E  E   E     E  E  E  E  E  E  E  E   
---------------------------|--------------------------|
--L--5-----5--L------------|-----------3-----5--------|
--------8--------8--7------|--5--3--5--------------5--|
-----------------------10--|--------------------------|


  E  E  E  E  E  E  E  E  E  E  Q       E  E  E  E  E  E  E  E  E  E  E  E   
-------------------------------------|--------------------------------------|
-----------3-----5-----3-------------|--------------------------------------|
-----5-----------------------5--3----|--3--3--3--3--3--3--3--3--3--3-----3--|
-------------------------------------|--------------------------------------|


  E  E  E  E  E  E  E  E     E  E  E  E  E  E  E  E   
--------------------------|--------------------------|
--------------------------|--------------------------|
--1--1--1--1--1--1--1--1--|--1--1--1--1--1--1--1--5--|
--------------------------|--------------------------|


  E  E  E  E  E  E  E  E     E  E  E  E  E  E  E  E   
--------------------------|--------------------------|
--------------------------|--------------------------|
--5--5--5--5--5--5--5--5--|--5--5--5--5--5--5--5--5--|
--------------------------|--------------------------|


  E  E  E  E  E  E  E  E     E  E  E  E  E  E  E  E   
--------------------------|--------------------------|
--------------------------|--------------------------|
--5--5--5--5--5--5--5--5--|--5--5--5--5--5--5--5--5--|
--------------------------|--------------------------|


  E  E  E  E  E  E  E  E     E  E  E  E  E  E  E  E   
--------------------------|--------------------------|
--------------------------|--------------------------|
--5--5--5--5--5--5--5--5--|--5--5--5--5--5--5--5--1--|
--------------------------|--------------------------|


  E  E  E  E  E  E  E  E     E  E  E  E  E  E  E  E   
--------------------------|--------------------------|
--------------------------|--------------------------|
--1--1--1--1--1--1--1--1--|--1--1--1--1--1--1--1--5--|
--------------------------|--------------------------|


  E  E  E  E  E  E  E  E     E  E  E  E  E  E  E   E   
--------------------------|---------------------------|
-----------------------7--|--L--5-----5--L------------|
--5--5--5--5--5--5--5-----|--------8--------8--7------|
--------------------------|-----------------------10--|


  E  E  E  E  E  E  E  E     E  E  E  E  E  E  E  E  E  E  Q     
--------------------------|-------------------------------------|
-----------3-----5--------|-----------3-----5-----3-------------|
--5--3--5--------------5--|-----5-----------------------5--3----|
--------------------------|-------------------------------------|


  E  E  E  E  E  E  E  E  E  E  E  E     E  E  E  E  E  E  E  E   
--------------------------------------|--------------------------|
--------------------------------------|--------------------------|
--3--3--3--3--3--3--3--3--3--3-----3--|--1--1--1--1--1--1--1--1--|
--------------------------------------|--------------------------|


  E  E  E  E  E  E  E  E     E  E  E  E  E  E  E  E   
--------------------------|--------------------------|
--------------------------|--------------------------|
--1--1--1--1--1--1--1--5--|--5--5--5--5--5--5--5--5--|
--------------------------|--------------------------|


  E  E  E  E  E  E  E  E    
--------------------------||
--------------------------||
--5--5--5--5--5--5--5--5--||
--------------------------||




Duration Legend
---------------
W - whole
H - half
Q - quarter
E - 8th
S - 16th
T - 32nd
X - 64th
. - note dotted
|-n-|  - n-tuplets


Tablature Legend
----------------
L - tied note
x - dead note
g - grace note
(n) - ghost note
> - accentuded note
NH - natural harmonic
AH - artificial harmonic
TH - tapped harmonic
SH - semi harmonic
PH - pitch harmonic
h - hammer on
p - pull off
b - bend
br - bendRelease
pb - preBend
pbr - preBendRelease
brb - bendReleaseBend
\n/ - tremolo bar dip
\n - tremolo bar dive
-/n - tremolo bar Release up
/n\ - tremolo bar inverted dip
/n - tremolo bar return
-\n - tremolo bar Release down
S - shift slide
s - legato slide
/ -  slide into from below or out of upwards
\ -  slide into from above or out of downwards
~ - vibrato
W - wide vibrato
tr - trill
TP - tremolo picking
T - tapping
S - slap
P - pop
< - fade in
^ - brush up
v - brush down
comments
We did not receive enough feedback on this tab! Please rate:
print report bad tab
1 2 3 4 5
I want to post or [tab]
guest
You may want to rate the tab now too:
select rating
Please do not post tabs as comments. Select "correction" instead!