Oops, an error
Loading. Please wait.

I Wanna Be No Hero Bass Tab

ver1
ver1

Whole song

Interactive

More versions @911Tabs.com
196 views 3 this week
no commentswrite comment
1 2 3 4 5
please rate
Autoscroll
+/-
esc
set tempo
stop
Contributor
Hey! There's an official Ultimate Guitar app which is ideal
for learning songs when you're away from computer. Get the app
WARNING: You are trying to view
                                    content from Ultimate-Guitar.com
                                    in an unauthorized application,
                                    which is prohibited.

                                    Please use an official Ultimate
                                    Guitar Tabs application for iPhone,
                                    iPad or Android to access legitimate
                                    chords, guitar, bass, and drum tabs
                                    from Ultimate-Guitar.com database.

                                    Type "ultimate guitar tabs" in Apple
                                    App Store's or Android Market's
                                    search to find the application.
                              I Wanna Be No Hero                                


                                                                          Accept
Bass
overkillz_msb@hotmail.com



     W                   W                   W                 
G||-------------------|-------------------|-------------------|
D||-------------------|-------------------|-------------------|
A||-------------------|-------------------|-------------------|
E||-------------------|-------------------|-------------------|


  W                   E  S S E  S S E  S S E  S S  
-------------------|------------------------------|
-------------------|------------------------------|
-------------------|--5--5-5-5--5-5-5--5-5-5--5-5-|
-------------------|------------------------------|


  E  S S E  S S E  S S E  S S    E  S S E  S S E  S S E  S S  
------------------------------|------------------------------|
------------------------------|------------------------------|
--5--5-5-5--5-5-5--5-5-5--5-5-|--5--5-5-5--5-5-5--5-5-5--5-5-|
------------------------------|------------------------------|


  E  S S E  S S E  S S E  S S    E  S S E  S S E  S S E  S S  
------------------------------|------------------------------|
------------------------------|------------------------------|
--5--5-5-5--5-5-5--5-5-5--5-5-|--5--5-5-5--5-5-5--5-5-5--5-5-|
------------------------------|------------------------------|


  E  S S E  S S E  S S E  S S    E  S S E  S S E  S S E  S S  
------------------------------|------------------------------|
------------------------------|------------------------------|
--5--5-5-5--5-5-5--5-5-5--5-5-|--5--5-5-5--5-5-5--5-5-5--5-5-|
------------------------------|------------------------------|


  E  S S E  S S E  E  E  E     E  S S E  S S E  S S E  S S  
-------------------5-----6--|------------------------------|
----------------------------|------------------------------|
--5--5-5-5--5-5-3-----4-----|--5--5-5-5--5-5-5--5-5-5--5-5-|
----------------------------|------------------------------|


  E  S S E  S S E  S S E  S S    E  S S E  S S E  S S E  S S  
------------------------------|------------------------------|
------------------------------|------------------------------|
--3--3-3-3--3-3-5--5-5-5--5-5-|--5--5-5-5--5-5---------------|
------------------------------|----------------3--3-3-3--3-3-|


  E  S S E  S S E  S S E  S S    E  S S E  S S E  S S E  S S  
------------------------------|------------------------------|
------------------------------|------------------------------|
----------------5--5-5-5--5-5-|--5--5-5-5--5-5-5--5-5-5--5-5-|
--3--3-3-3--3-3---------------|------------------------------|


  E  S S E  S S E  S S E  S S    E  S S E  S S E  S S E  S S  
------------------------------|------------------------------|
------------------------------|------------------------------|
--3--3-3-3--3-3-5--5-5-5--5-5-|--5--5-5-5--5-5---------------|
------------------------------|----------------3--3-3-3--3-3-|


  E  S S E  S S E  S S E  S S    E  S S E  S S E  S S E  S S  
------------------------------|------------------------------|
------------------------------|------------------------------|
------------------------------|--5--5-5-5--5-5-5--5-5-5--5-5-|
--3--3-3-3--3-3-5--5-5-5--5-5-|------------------------------|


  E  S S E  S S E  S S E  S S    E  S S E  S S E  S S E  S S  
------------------------------|------------------------------|
------------------------------|------------------------------|
--3--3-3-3--3-3-5--5-5-5--5-5-|--5--5-5-5--5-5---------------|
------------------------------|----------------3--3-3-3--3-3-|


  E  S S E  S S E  S S E  S S    E  S S E  S S E  S S E  S S  
------------------------------|------------------------------|
------------------------------|------------------------------|
----------------5--5-5-5--5-5-|--5--5-5-5--5-5-5--5-5-5--5-5-|
--3--3-3-3--3-3---------------|------------------------------|


  E  S S E  S S E  S S E  S S    E  S S E  S S E  S S E  S S  
------------------------------|------------------------------|
------------------------------|------------------------------|
--3--3-3-3--3-3-5--5-5-5--5-5-|--5--5-5-5--5-5---------------|
------------------------------|----------------3--3-3-3--3-3-|


  E  S S E  S S E  S S E  S S    E  S S E  S S E  S S E  S S  
------------------------------|------------------------------|
------------------------------|--9--9-9-9--9-9-9--9-9-9--9-9-|
------------------------------|------------------------------|
--3--3-3-3--3-3-5--5-5-5--5-5-|------------------------------|


  E  S S E  S S E  S S E  S S    E  S S E  S S E  S S E  S S  
--9--9-9-9--9-9-7--7-7--------|------------------------------|
-----------------------7--7-7-|--9--9-9-9--9-9-9--9-9-9--9-9-|
------------------------------|------------------------------|
------------------------------|------------------------------|


  E  S S E  S S E  S S E  S S     Q     E   E  Q    E   E   
--9--9-9-9--9-9-9--9-9-9--9-9-|------------12--L----L------|
------------------------------|--------12--------------12--|
------------------------------|--10------------------------|
------------------------------|----------------------------|


   Q     E   E  Q    E   E     Q.      S  S  Q     E   E   
------------14--L----L------|---------16-16-16------------|
--------14--------------14--|---------------------16------|
--12------------------------|-------------------------14--|
----------------------------|--7--------------------------|


   E   E   E   E   E   E   E   E      Q     E   E  Q    E   E   
----------------------------------|------------12--L----L------|
------14------12------14------12--|--------12--------------12--|
----------------------------------|--10------------------------|
--12------10------12------10------|----------------------------|


   Q     E   E  Q    E   E     Q.      S  S  Q     E   E   
------------14--L----L------|---------16-16-16------------|
--------14--------------14--|---------------------16------|
--12------------------------|-------------------------14--|
----------------------------|--7--------------------------|


   E   E   E   E   E   E   E   E      Q     E   E  Q    E   E   
----------------------------------|------------12--L----L------|
------14------12------14------12--|--------12--------------12--|
----------------------------------|--10------------------------|
--12------10------12------10------|----------------------------|


   Q     E   E  Q    E   E     H        H         
------------14--L----L------|--------------------|
--------14--------------14--|--------------------|
--12------------------------|-----------5--------|
----------------------------|--3-----------------|


  E  S S E  S S E  S S E  S S    E  S S E  S S E  S S  Q      
------------------------------|------------------------------|
------------------------------|------------------------------|
------------------------------|------------------------------|
--0--0-0-0--0-0-0--0-0-0--0-0-|--0--0-0-0--0-0-0--0-0-12\----|


  E  S S E  S S E  S S E  S S    E  S S E  S S E  S S E  S S  
------------------------------|------------------------------|
------------------------------|------------------------------|
--5--5-5-5--5-5-5--5-5-5--5-5-|--5--5-5-5--5-5-5--5-5-5--5-5-|
------------------------------|------------------------------|


  E  S S E  S S E  S S E  S S    E  S S E  S S E  S S E  S S  
------------------------------|------------------------------|
------------------------------|------------------------------|
--5--5-5-5--5-5-5--5-5-5--5-5-|--5--5-5-5--5-5-5--5-5-5--5-5-|
------------------------------|------------------------------|


  E  S S E  S S E  S S E  S S    E  S S E  S S E  S S E  S S  
------------------------------|------------------------------|
------------------------------|------------------------------|
--5--5-5-5--5-5-5--5-5-5--5-5-|--5--5-5-5--5-5-5--5-5-5--5-5-|
------------------------------|------------------------------|


  E  S S E  S S E  S S E  S S    E  S S E  S S E  E  E  E   
------------------------------|-------------------5-----6--|
------------------------------|----------------------------|
--5--5-5-5--5-5-5--5-5-5--5-5-|--5--5-5-5--5-5-3-----4-----|
------------------------------|----------------------------|


  E  S S E  S S E  S S E  S S    E  S S E  S S E  S S E  S S  
------------------------------|------------------------------|
------------------------------|------------------------------|
--5--5-5-5--5-5-5--5-5-5--5-5-|--3--3-3-3--3-3-5--5-5-5--5-5-|
------------------------------|------------------------------|


  E  S S E  S S E  S S E  S S    E  S S E  S S E  S S E  S S  
------------------------------|------------------------------|
------------------------------|------------------------------|
--5--5-5-5--5-5---------------|----------------5--5-5-5--5-5-|
----------------3--3-3-3--3-3-|--3--3-3-3--3-3---------------|


  E  S S E  S S E  S S E  S S    E  S S E  S S E  S S E  S S  
------------------------------|------------------------------|
------------------------------|------------------------------|
--5--5-5-5--5-5-5--5-5-5--5-5-|--3--3-3-3--3-3-5--5-5-5--5-5-|
------------------------------|------------------------------|


  E  S S E  S S E  S S E  S S    E  S S E  S S E  S S E  S S  
------------------------------|------------------------------|
------------------------------|------------------------------|
--5--5-5-5--5-5---------------|------------------------------|
----------------3--3-3-3--3-3-|--3--3-3-3--3-3-5--5-5-5--5-5-|


  E  S S E  S S E  S S E  S S    E  S S E  S S E  S S E  S S  
------------------------------|--9--9-9-9--9-9-7--7-7--------|
--9--9-9-9--9-9-9--9-9-9--9-9-|-----------------------7--7-7-|
------------------------------|------------------------------|
------------------------------|------------------------------|


  E  S S E  S S E  S S E  S S    E  S S E  S S E  S S E  S S  
------------------------------|--9--9-9-9--9-9-9--9-9-9--9-9-|
--9--9-9-9--9-9-9--9-9-9--9-9-|------------------------------|
------------------------------|------------------------------|
------------------------------|------------------------------|


   Q     E   E  Q    E   E      Q     E   E  Q    E   E   
------------12--L----L------|------------14--L----L------|
--------12--------------12--|--------14--------------14--|
--10------------------------|--12------------------------|
----------------------------|----------------------------|


  Q.      S  S  Q     E   E      E   E   E   E   E   E   E   E   
---------16-16-16------------|----------------------------------|
---------------------16------|------14------12------14------12--|
-------------------------14--|----------------------------------|
--7--------------------------|--12------10------12------10------|


   Q     E   E  Q    E   E      Q     E   E  Q    E   E   
------------12--L----L------|------------14--L----L------|
--------12--------------12--|--------14--------------14--|
--10------------------------|--12------------------------|
----------------------------|----------------------------|


  Q.      S  S  Q     E   E      E   E   E   E   E   E   E   E   
---------16-16-16------------|----------------------------------|
---------------------16------|------14------12------14------12--|
-------------------------14--|----------------------------------|
--7--------------------------|--12------10------12------10------|


   Q     E   E  Q    E   E      Q     E   E  Q    E   E     H        H         
------------12--L----L------|------------14--L----L------|--------------------|
--------12--------------12--|--------14--------------14--|--------------------|
--10------------------------|--12------------------------|-----------5--------|
----------------------------|----------------------------|--3-----------------|


  E  S S E  S S E  S S E  S S    E  S S E  S S E  S S  Q      
------------------------------|------------------------------|
------------------------------|------------------------------|
------------------------------|------------------------------|
--0--0-0-0--0-0-0--0-0-0--0-0-|--0--0-0-0--0-0-0--0-0-12\----|


  W                   W                   W                   W                 
-------------------|-------------------|-------------------|-------------------|
-------------------|-------------------|-------------------|-------------------|
-------------------|-------------------|-------------------|-------------------|
-------------------|-------------------|-------------------|-------------------|


  W                   W                   W                   W                 
-------------------|-------------------|-------------------|-------------------|
-------------------|-------------------|-------------------|-------------------|
-------------------|-------------------|-------------------|-------------------|
-------------------|-------------------|-------------------|-------------------|


  E  S S E  S S E  S S E  S S    E  S S E  S S E  S S E  S S  
------------------------------|------------------------------|
------------------------------|------------------------------|
------------------------------|------------------------------|
--5--5-5-5--5-5-5--5-5-5--5-5-|--5--5-5-5--5-5-5--5-5-5--5-5-|


  E  S S E  S S E  S S E  S S    E  S S E  S S E  S S E  S S  
------------------------------|------------------------------|
------------------------------|------------------------------|
------------------------------|------------------------------|
--5--5-5-5--5-5-5--5-5-5--5-5-|--5--5-5-5--5-5-5--5-5-5--5-5-|


  E  S S E  S S E  S S E  S S    E  S S E  S S E  S S E  S S  
------------------------------|------------------------------|
------------------------------|------------------------------|
------------------------------|------------------------------|
--5--5-5-5--5-5-5--5-5-5--5-5-|--5--5-5-5--5-5-5--5-5-5--5-5-|


  H        H           E  S S E  S S E  S S E  S S  
--------------------|------------------------------|
--------------------|------------------------------|
-----------5--------|------------------------------|
--3-----------------|--0--0-0-0--0-0-0--0-0-0--0-0-|


  E  S S E  S S E  S S  Q        E  S S E  S S E  S S E  S S  
------------------------------|------------------------------|
------------------------------|------------------------------|
------------------------------|--5--5-5-5--5-5-5--5-5-5--5-5-|
--0--0-0-0--0-0-0--0-0-12\----|------------------------------|


  E  S S E  S S E  S S E  S S    E  S S E  S S E  S S E  S S  
------------------------------|------------------------------|
------------------------------|------------------------------|
--3--3-3-3--3-3-5--5-5-5--5-5-|--5--5-5-5--5-5---------------|
------------------------------|----------------3--3-3-3--3-3-|


  E  S S E  S S E  S S E  S S    E  S S E  S S E  S S E  S S  
------------------------------|------------------------------|
------------------------------|------------------------------|
----------------5--5-5-5--5-5-|--5--5-5-5--5-5-5--5-5-5--5-5-|
--3--3-3-3--3-3---------------|------------------------------|


  E  S S E  S S E  S S E  S S    E  S S E  S S E  S S E  S S  
------------------------------|------------------------------|
------------------------------|------------------------------|
--3--3-3-3--3-3-5--5-5-5--5-5-|--5--5-5-5--5-5---------------|
------------------------------|----------------3--3-3-3--3-3-|


  E  S S E  S S E  S S E  S S    E  S S E  S S E  S S E  S S  
------------------------------|------------------------------|
------------------------------|--9--9-9-9--9-9-9--9-9-9--9-9-|
------------------------------|------------------------------|
--3--3-3-3--3-3-5--5-5-5--5-5-|------------------------------|


  E  S S E  S S E  S S E  S S    E  S S E  S S E  S S E  S S  
--9--9-9-9--9-9-7--7-7--------|------------------------------|
-----------------------7--7-7-|--9--9-9-9--9-9-9--9-9-9--9-9-|
------------------------------|------------------------------|
------------------------------|------------------------------|


  E  S S E  S S E  S S E  S S     Q     E   E  Q    E   E   
--9--9-9-9--9-9-9--9-9-9--9-9-|------------12--L----L------|
------------------------------|--------12--------------12--|
------------------------------|--10------------------------|
------------------------------|----------------------------|


   Q     E   E  Q    E   E     Q.      S  S  Q     E   E   
------------14--L----L------|---------16-16-16------------|
--------14--------------14--|---------------------16------|
--12------------------------|-------------------------14--|
----------------------------|--7--------------------------|


   E   E   E   E   E   E   E   E      Q     E   E  Q    E   E   
----------------------------------|------------12--L----L------|
------14------12------14------12--|--------12--------------12--|
----------------------------------|--10------------------------|
--12------10------12------10------|----------------------------|


   Q     E   E  Q    E   E     Q.      S  S  Q     E   E   
------------14--L----L------|---------16-16-16------------|
--------14--------------14--|---------------------16------|
--12------------------------|-------------------------14--|
----------------------------|--7--------------------------|


   E   E   E   E   E   E   E   E      Q     E   E  Q    E   E   
----------------------------------|------------12--L----L------|
------14------12------14------12--|--------12--------------12--|
----------------------------------|--10------------------------|
--12------10------12------10------|----------------------------|


   Q     E   E  Q    E   E     H        H           E  E  E  E  E  E  E  E   
------------14--L----L------|--------------------|--------------------------|
--------14--------------14--|--------------------|--------------------------|
--12------------------------|-----------5--------|--------------------------|
----------------------------|--3-----------------|--0--0--0--0--0--0--0--0--|


  E  E  E  E  E  E  E  E      Q     E   E  Q    E   E   
--------------------------|------------12--L----L------|
--------------------------|--------12--------------12--|
--------------------------|--10------------------------|
--0--0--0--0--0--0--0--0--|----------------------------|


   Q     E   E  Q    E   E      Q     E   E  Q    E   E   
------------14--L----L------|------------12--L----L------|
--------14--------------14--|--------12--------------12--|
--12------------------------|--10------------------------|
----------------------------|----------------------------|


   Q     E   E  Q    E   E      Q     E   E  Q    E   E   
------------14--L----L------|------------12--L----L------|
--------14--------------14--|--------12--------------12--|
--12------------------------|--10------------------------|
----------------------------|----------------------------|


   Q     E   E  Q    E   E      Q     E   E  Q    E   E   
------------14--L----L------|------------12--L----L------|
--------14--------------14--|--------12--------------12--|
--12------------------------|--10------------------------|
----------------------------|----------------------------|


   Q     E   E  Q    E   E      Q     E   E  Q    E   E   
------------14--L----L------|------------12--L----L------|
--------14--------------14--|--------12--------------12--|
--12------------------------|--10------------------------|
----------------------------|----------------------------|


   Q     E   E  Q    E   E      Q     E   E  Q    E   E   
------------14--L----L------|------------12--L----L------|
--------14--------------14--|--------12--------------12--|
--12------------------------|--10------------------------|
----------------------------|----------------------------|


   Q     E   E  Q    E   E      Q     E   E  Q    E   E   
------------14--L----L------|------------12--L----L------|
--------14--------------14--|--------12--------------12--|
--12------------------------|--10------------------------|
----------------------------|----------------------------|


   Q     E   E  Q    E   E      Q     E   E  Q    E   E   
------------14--L----L------|------------12--L----L------|
--------14--------------14--|--------12--------------12--|
--12------------------------|--10------------------------|
----------------------------|----------------------------|


   Q     E   E  Q    E   E    
------------14--L----L------||
--------14--------------14--||
--12------------------------||
----------------------------||




Duration Legend
---------------
W - whole
H - half
Q - quarter
E - 8th
S - 16th
T - 32nd
X - 64th
. - note dotted
|-n-|  - n-tuplets


Tablature Legend
----------------
L - tied note
x - dead note
g - grace note
(n) - ghost note
> - accentuded note
NH - natural harmonic
AH - artificial harmonic
TH - tapped harmonic
SH - semi harmonic
PH - pitch harmonic
h - hammer on
p - pull off
b - bend
br - bendRelease
pb - preBend
pbr - preBendRelease
brb - bendReleaseBend
\n/ - tremolo bar dip
\n - tremolo bar dive
-/n - tremolo bar Release up
/n\ - tremolo bar inverted dip
/n - tremolo bar return
-\n - tremolo bar Release down
S - shift slide
s - legato slide
/ -  slide into from below or out of upwards
\ -  slide into from above or out of downwards
~ - vibrato
W - wide vibrato
tr - trill
TP - tremolo picking
T - tapping
S - slap
P - pop
< - fade in
^ - brush up
v - brush down
comments
We did not receive enough feedback on this tab! Please rate:
print report bad tab
1 2 3 4 5
I want to post or [tab]
guest
You may want to rate the tab now too:
select rating
Please do not post tabs as comments. Select "correction" instead!