Oops, an error
Loading. Please wait.

Its Hard To Find A Way Tab

978 views 1 this week
no commentswrite comment
1 2 3 4 5
please rate
Autoscroll
+/-
esc
set tempo
stop
Contributor
WARNING: You are trying to view
                                    content from Ultimate-Guitar.com
                                    in an unauthorized application,
                                    which is prohibited.

                                    Please use an official Ultimate
                                    Guitar Tabs application for iPhone,
                                    iPad or Android to access legitimate
                                    chords, guitar, bass, and drum tabs
                                    from Ultimate-Guitar.com database.

                                    Type "ultimate guitar tabs" in Apple
                                    App Store's or Android Market's
                                    search to find the application.
#----------------------------------PLEASE NOTE---------------------------------#
#This file is the author's own work and represents their interpretation of the #
#song. You may only use this file for private study, scholarship, or research. #
#------------------------------------------------------------------------------#

IT'S HARD TO FIND A WAY
As recorded by Accept
(From the 1986 Album RUSSIAN ROULETTE)

Transcribed by Sebastien "HOULI" Houle (houli_@hotmail.com)
	

Words and Music by Accept

B5
x 2 4 4 x x
	
A5
x 0 2 2 x x
	
G
3 5 5 4 3 3
	
Em
0 2 2 0 0 0

Dadd2
x 5 4 2 3 0
	
D
x 5 4 2 3 2
	
Am7
x 0 2 0 1 0
	
Bmaj7sus4/D
x 5 4 3 0 0

Em+5
x 7 5 5 x x

Gtr I (E A D G B E) - 'Gtr. 1'
Gtr II (E A D G B E) - 'Gtr. 2'
Gtr III (E A D G B E) - 'Gtr. 3'
Gtr IV (E A D G B E) - 'Gtr. 4'

   Intro
    Moderate Rock Q=120
    N.C.(D)            B5        A5B5
   4/4
    Gtr III
    W                  S S S S e S S +H
                       | | | | | | |  |
                       / / / / / / /  /

    Gtr I
    E E E Q  E E E  4x E   E   E Q      E E E
||------------------||------------------------|
||o----------------o||------------------------|
||--------0---------||-----------0------------|
||----4------4---4--||-----4------------4---4-|
||o-5---5------5---o||-5-------5----------5---|
||------------------||------------------------|
|
|   Gtr II
|   Q   H      Q    4x Q       H          Q
||------------------||------------------------|
||o-3---3------3---o||-3-------3----------3---|
||------------------||------------------------|
||------------------||------------------------|
||o----------------o||------------------------|
||------------------||------------------------|


                              A5B5
  +W                S S S S e S S +H
   |                | | | | | | |  |
   /                / / / / / / /  /

   E E E Q  E E E   E   E   E Q      E E E
|-----------------|------------------------|
|-----------------|------------------------|
|--------0--------|-----------0------------|
|----4------4---4-|-----4------------4---4-|
|--5---5------5---|-5-------5----------5---|
|-----------------|------------------------|
|
|  Q   H      Q     Q       H          Q
|-----------------|------------------------|
|--3---3------3---|-3-------3----------3---|
|-----------------|------------------------|
|-----------------|------------------------|
|-----------------|------------------------|
|-----------------|------------------------|


                    A5                                 G
  +W                W                +W                W
   |                |                 |                |
   /                /                 /                /

   E E E Q  E E E   E E E Q  E E E    E E E Q  E E E   E E E Q  E E E
|-----------------|----------------|-----------------|----------------|
|-----------------|----------------|-----------------|----------------|
|--------0--------|-------0--------|--------0--------|-------0--------|
|----4------4---4-|---4------4---4-|----4------4---4-|---4------4---4-|
|--5---5------5---|-5---5------5---|--5---5------5---|-5---5------5---|
|-----------------|----------------|-----------------|----------------|
|
|  Q   H      Q     Q   H      Q      Q   H      Q     Q   H      Q
|-----------------|----------------|-----------------|----------------|
|--3---3------3---|-3---3------3---|--3---3------3---|-3---3------3---|
|-----------------|----------------|-----------------|----------------|
|-----------------|----------------|-----------------|----------------|
|-----------------|----------------|-----------------|----------------|
|-----------------|----------------|-----------------|----------------|


  +W                +W                W
   |                 |
   /                 /

   E E E Q  E E E    E E E Q  E E E   E E E  E  H
|-----------------|-----------------|----------------||
|-----------------|-----------------|-----------0----||
|--------0--------|--------0--------|-----0----------||
|----4------4---4-|----4------4---4-|---4---(4)------||
|--5---5------5---|--5---5------5---|-5--------------||
|-----------------|-----------------|----------------||
|
|  Q   H      Q      Q   H      Q     Q   Q     H
|-----------------|-----------------|----------------||
|--3---3------3---|--3---3------3---|-3---3-----0----||
|-----------------|-----------------|----------------||
|-----------------|-----------------|----------------||
|-----------------|-----------------|----------------||
|-----------------|-----------------|----------------||


   Verse 1
    Em               Dadd2            D                C         Bmaj7sus4/D
    Gtr I
     E  E  H.         E  E  H.         E  E  H.         E  E  Q   E  E  Q
||-----------------|--------0-------|----------------|----------------------|
||o-----0----------|----------------|--------3-------|--------1---------0---|
||---------0-------|-----2----------|-----2----------|-----0----------------|
||---2-------------|--4-------------|--4-------------|--2------------4------|
||o----------------|----------------|----------------|------------5---------|
||-----------------|----------------|----------------|----------------------|
|
|   Gtr II
|    E  E  H.         E  E  H.         E  E  H.         E  E  Q   E  E  Q
||-----------------|-------12-------|----------------|----------------------|
||o----12----------|----------------|-------15-------|-------13--------12---|
||--------12-------|----14----------|----14----------|----12--------11------|
||--14-------------|-16-------------|-16-------------|-14--------12---------|
||o----------------|----------------|----------------|----------------------|
||-----------------|----------------|----------------|----------------------|


  Em               Dadd2            D                Bmaj7sus4/Em+5
   E  E  H.         E  E  H.         E  E  H.         E  E  Q   E  E  Q
|----------------|--------0-------|----------------|----------------------||
|-----0----------|----------------|--------3-------|---------------------o||
|--------0-------|-----2----------|-----2----------|--------4---------5---||
|--2-------------|--4-------------|--4-------------|-----4---------5------||
|----------------|----------------|----------------|--5---------7--------o||
|----------------|----------------|----------------|----------------------||
|
|  E  E  H.         E  E  H.         E  E  H.         E  E  Q   E  E  Q
|----------------|-------12-------|----------------|----------------------||
|----12----------|----------------|-------15-------|-------12--------13--o||
|-------12-------|----14----------|----14----------|----11--------12------||
|-14-------------|-16-------------|-16-------------|-12--------14---------||
|----------------|----------------|----------------|---------------------o||
|----------------|----------------|----------------|----------------------||


 Pre-Chorus
  C                               D
  Gtr III
  H.      +E  E   H.      +E  E   H.      +E  E   E E E E E E E E
|---------------|---------------|---------------|-----------------||
|---------------|---------------|---------------|-----------------||
|-5-------(5)-5-|-5-------(5)-5-|-7-------(7)-7-|---7---7---7---7-||
|-5-------(5)-5-|-5-------(5)-5-|-7-------(7)-7-|---7---7---7---7-||
|-3-------(3)-3-|-3-------(3)-3-|-5-------(5)-5-|---5---5---5---5-||
|---------------|---------------|---------------|-----------------||


 Chorus
  EmD Em       D           Em         D
  E E E E E Q  E   +S  +S  E E E E Q  E
|----------------|----------------------|
|----------------|----------------------|
|-9-7-9---9----7-|-(7)-(7)S9-9---9----7-|
|-9-7-9---9----7-|-(7)-(7)S9-9---9----7-|
|-7-5-7---7----5-|-(5)-(5)-7-7---7----5-|
|----------------|----------------------|


          EmC            D    Bm     Em           D
  +S  +S  E  E E  H      H    H      E E E E E Q  E
|----------------------|-----------|-----------------|
|----------------------|-----------|-----------------|
|-(7)-(7)S9------------|-7---------|--------------7--|
|-(7)-(7)S9-10---10----|-7----9----|--------------7--|
|-(5)-(5)-7-10---10----|-5----9----|-------2------5--|
|------------8----8----|------7----|-0-2-3---0-------|


          Em         D           EmC
  +S  +S  E E E E Q  E   +S  +S  E  E E  H
|----------------------|----------------------|
|----------------------|----------------------|
|-(7)-(7)S9-9---9----7-|-(7)-(7)S9------------|
|-(7)-(7)S9-9---9----7-|-(7)-(7)S9-10---10----|
|-(5)-(5)-7-7---7----5-|-(5)-(5)-7-10---10----|
|----------------------|------------8----8----|


  D    Bm C
  H    Q   E  E    +W            +W
|---------------|-------------|---------||
|---------------|-------------|---------||
|-7-------------|-------------|---------||
|-7----9--10-10-|-(10)--------|-(10)----||
|-5----9--10-10-|-(10)--------|-(10)----||
|------7---8--8-|--(8)--------|--(8)----||


 Verse 2
  Em               Dadd2
  Gtr I
   E  E  H.         E  E  H.
|----------------|--------0-------|
|-----0----------|----------------|
|--------0-------|-----2----------|
|--2-------------|--4-------------|
|----------------|----------------|
|----------------|----------------|
|
| Gtr II
|  E  E  H.         E  E  H.
|----------------|-------12-------|
|----12----------|----------------|
|-------12-------|----14----------|
|-14-------------|-16-------------|
|----------------|----------------|
|----------------|----------------|
|
| Gtr IV
|  W                W
|----------------|----------------|
|----------------|----------------|
|----------------|----------------|
|----------------|----------------|
|----------------|----------------|
|----------------|----------------|


  D                C                 Bmaj7sus4/D
   E  E  H.         E  E      Q       E  E  Q
|----------------|-------------------------------|
|--------3-------|------------1-------------0----|
|-----2----------|-----0-------------------------|
|--4-------------|--2--------------------4-------|
|----------------|--------------------5----------|
|----------------|-------------------------------|
|
|  E  E  H.         E  E      Q       E  E  Q
|----------------|-------------------------------|
|-------15-------|-----------13------------12----|
|----14----------|----12----------------11-------|
|-16-------------|-14----------------12----------|
|----------------|-------------------------------|
|----------------|-------------------------------|
|
|  W                E  Q         +E   E  E  E  E
|----------------|----14pb15r===(14)-12-------12-|
|----------------|----------------------15-12----|
|----------------|-------------------------------|
|----------------|-------------------------------|
|----------------|-------------------------------|
|----------------|-------------------------------|


  Em               Dadd2
   E  E  H.          E   E  H.
|----------------|----------0-------|
|-----0----------|------------------|
|--------0-------|-------2----------|
|--2-------------|---4--------------|
|----------------|------------------|
|----------------|------------------|
|
|  E  E  H.          E   E  H.
|----------------|---------12-------|
|----12----------|------------------|
|-------12-------|------14----------|
|-14-------------|--16--------------|
|----------------|------------------|
|----------------|------------------|
|
|  ~~~~~~~~~~~~~~~~~~~~~
|  W                +W
|----------------|------------------|
|-12-------------|-(12)-------------|
|----------------|------------------|
|----------------|------------------|
|----------------|------------------|
|----------------|------------------|


  D                      Bmaj7sus4/DEm+5
    E   E  H.             E  E  Q    E  E  Q
|----------------------|-----------------------|
|----------3-----------|-----------------------|
|-------2--------------|--------4----------5---|
|---4------------------|-----4----------5------|
|----------------------|--5----------7---------|
|----------------------|-----------------------|
|
|   E   E  H.             E  E  Q    E  E  Q
|----------------------|-----------------------|
|---------15-----------|-------12---------13---|
|------14--------------|----11---------12------|
|--16------------------|-12---------14---------|
|----------------------|-----------------------|
|----------------------|-----------------------|
|
|  +H           a h       E  e  e e  e  e  e e
|----------------------|-----------------------|
|-(12)---------12S3----|--------8----7---------|
|----------------------|-------------------9---|
|----------------------|----/9----9-----9----9-|
|----------------------|-----------------------|
|----------------------|-----------------------|


  Em                      Dadd2
   E   E  H.               E  E  H.
|-----------------------|--------0-------|
|------0----------------|----------------|
|---------0-------------|-----2----------|
|--2--------------------|--4-------------|
|-----------------------|----------------|
|-----------------------|----------------|
|
|  E   E  H.               E  E  H.
|-----------------------|-------12-------|
|-----12----------------|----------------|
|--------12-------------|----14----------|
|-14--------------------|-16-------------|
|-----------------------|----------------|
|-----------------------|----------------|
|
|  H.           +E. +S     W
|-----------------------|----------------|
|-----------------------|----------------|
|--9------------(9)-(9)S|==7-------------|
|--9------------(9)-(9)S|==7-------------|
|--7------------(7)-(7)S|==5-------------|
|-----------------------|----------------|


  D                C         Bmaj7sus4/D
   E  E  H.         E  E  Q   E    E   Q
|----------------|-------------------------|
|--------3-------|--------1------------0---|
|-----2----------|-----0-------------------|
|--4-------------|--2--------------4-------|
|----------------|------------5------------|
|----------------|-------------------------|
|
|  E  E  H.         E  E  Q   E    E   Q
|----------------|-------------------------|
|-------15-------|-------13-----------12---|
|----14----------|----12----------11-------|
|-16-------------|-14--------12------------|
|----------------|-------------------------|
|----------------|-------------------------|
|
|  W                H         E   +E   E E
|----------------|-------------------------|
|----------------|-------------------------|
|--7-------------|--5----------------------|
|--7-------------|--5----------------------|
|--5-------------|--3----------------------|
|----------------|------------5b7r(5)--3-5-|


  Em               Dadd2
   E  E  H.         E   E  H.
|----------------|---------0-------|
|-----0----------|-----------------|
|--------0-------|------2----------|
|--2-------------|--4--------------|
|----------------|-----------------|
|----------------|-----------------|
|
|  E  E  H.         E   E  H.
|----------------|--------12-------|
|----12----------|-----------------|
|-------12-------|-----14----------|
|-14-------------|-16--------------|
|----------------|-----------------|
|----------------|-----------------|
|
|  W               +W
|----------------|-----------------|
|----------------|-----------------|
|--9-------------|-(9)-------------|
|--9-------------|-(9)-------------|
|--7-------------|-(7)-------------|
|----------------|-----------------|


  D                      Bmaj7sus4/DEm+5
   E  E  H.               E  E  Q    E  E  Q
|----------------------|-----------------------||
|--------3-------------|-----------------------||
|-----2----------------|--------4----------5---||
|--4-------------------|-----4----------5------||
|----------------------|--5----------7---------||
|----------------------|-----------------------||
|
|  E  E  H.               E  E  Q    E  E  Q
|----------------------|-----------------------||
|-------15-------------|-------12---------13---||
|----14----------------|----11---------12------||
|-16-------------------|-12---------14---------||
|----------------------|-----------------------||
|----------------------|-----------------------||
|
|  H          E E E  E    E  E  E E  E  E  E E
|----------------------|-----------------------||
|----------------------|-----------------------||
|--7-------------------|-----------------------||
|--7-------------------|-----------------------||
|--5------------5-7-/7-|--5--------------------||
|------------/7--------|-----7--5-7-/7--5--3-5-||


 Pre-Chorus
  C                               D
  Gtr III
  H.      +E  E   H.      +E  E   H.       +E    E
|---------------|---------------|------------------|
|---------------|---------------|------------------|
|-5-------(5)-5-|-5-------(5)-5-|-7--------(7)---7-|
|-5-------(5)-5-|-5-------(5)-5-|-7--------(7)---7-|
|-3-------(3)-3-|-3-------(3)-3-|-5--------(5)---5-|
|---------------|---------------|------------------|
|
| Gtr IV
| W               W               H     Q   Q
|---------------|---------------|------------------|
|---------------|---------------|----------15b17---|
|---------------|---------------|------------------|
|---------------|---------------|------------------|
|---------------|---------------|------------------|
|---------------|---------------|------------------|


   E  E  E  E  E  E       E    E
|------------------------------------||
|------------------------------------||
|-----7-----7-----7------------7-----||
|-----7-----7-----7------------7-----||
|-----5-----5-----5------------5-----||
|------------------------------------||
|
|  E  E  E  E  E  E      +E   +S   S
|------------------------------------||
|-15-13-12---------------------------||
|----------14-12-14b16==(14)r(14)p12-||
|------------------------------------||
|------------------------------------||
|------------------------------------||


 Chorus
  Em D Em       D            Em         D           EmC            D    Bm
   E E E E E Q  E    +S  +S  E E E E Q  E   +S  +S  E  E E  H      H    H
|-----------------|-----------------------|----------------------|-----------|
|-----------------|-----------------------|----------------------|-----------|
|--9-7-9---9----7-|--(7)-(7)S9-9---9----7-|-(7)-(7)S9------------|-7---------|
|--9-7-9---9----7-|--(7)-(7)S9-9---9----7-|-(7)-(7)S9-10---10----|-7----9----|
|--7-5-7---7----5-|--(5)-(5)-7-7---7----5-|-(5)-(5)-7-10---10----|-5----9----|
|-----------------|-----------------------|------------8----8----|------7----|
|
|  ~~
|  W                 +H            H         W                     W
|-----------------|-----------------------|----------------------|-----------|
|-----------------|-----------------------|----------------------|-----------|
|-----------------|-----------------------|----------------------|-----------|
|-14--------------|-(14)------------------|----------------------|-----------|
|-----------------|-----------------------|----------------------|-----------|
|-----------------|-----------------------|----------------------|-----------|


  Em           D           Em         D           EmC            D    Bm
  E E E E E Q  E   +S  +S  E E E E Q  E   +S  +S  E  E E  H      H    H
|----------------|----------------------|----------------------|-----------|
|----------------|----------------------|----------------------|-----------|
|--------------7-|-(7)-(7)S9-9---9----7-|-(7)-(7)S9------------|-7---------|
|--------------7-|-(7)-(7)S9-9---9----7-|-(7)-(7)S9-10---10----|-7----9----|
|-------2------5-|-(5)-(5)-7-7---7----5-|-(5)-(5)-7-10---10----|-5----9----|
|-0-2-3---0------|----------------------|------------8----8----|------7----|


  EmD Em       D           Em         D
  E E E E E Q  E   +S  +S  E E E E Q  E
|----------------|----------------------|
|----------------|----------------------|
|-9-7-9---9----7-|-(7)-(7)S9-9---9----7-|
|-9-7-9---9----7-|-(7)-(7)S9-9---9----7-|
|-7-5-7---7----5-|-(5)-(5)-7-7---7----5-|
|----------------|----------------------|


          EmC            D    Bm     Em           D
  +S  +S  E  E E  H      H    H      E E E E E Q  E
|----------------------|-----------|-----------------|
|----------------------|-----------|-----------------|
|-(7)-(7)S9------------|-7---------|--------------7--|
|-(7)-(7)S9-10---10----|-7----9----|--------------7--|
|-(5)-(5)-7-10---10----|-5----9----|-------2------5--|
|------------8----8----|------7----|-0-2-3---0-------|


          Em         D           EmC            D    Bm C
  Gtr III
  +S  +S  E E E E Q  E   +S  +S  E  E E  H      H    Q   E  E    +W
|----------------------|----------------------|---------------|------------||
|----------------------|----------------------|---------------|------------||
|-(7)-(7)S9-9---9----7-|-(7)-(7)S9------------|-7-------------|------------||
|-(7)-(7)S9-9---9----7-|-(7)-(7)S9-10---10----|-7----9--10-10-|-(10)-------||
|-(5)-(5)-7-7---7----5-|-(5)-(5)-7-10---10----|-5----9--10-10-|-(10)-------||
|----------------------|------------8----8----|------7---8--8-|--(8)-------||
|
| Gtr IV
|  W                      W                     W                 W
|----------------------|----------------------|---------------|------------||
|----------------------|----------------------|---------------|------------||
|----------------------|----------------------|---------------|--12tr11----||
|----------------------|----------------------|---------------|------------||
|----------------------|----------------------|---------------|------------||
|----------------------|----------------------|---------------|------------||


 Guitar Solo
  Slightly Faster Q=122
  Em                 D
  Gtr I
    E      E E Q  Q  E   +W
|------------0-0-------|------------------|
|-----------------1--3-|-(3)--------------|
|----------0-----------|------------------|
|---2------------------|------------------|
|----------------------|------------------|
|----------------------|------------------|
|
|  +W                     H..        +E
|----------------------|------------------|
|----------------------|------------------|
|-(12tr11)-------------|-11---------(11)\-|
|----------------------|------------------|
|----------------------|------------------|
|----------------------|------------------|


                      C
  E  E  E  Q     Q      E       +W
|-----------------------------|--------|
|-------3--3-----0------1-----|-(1)----|
|----2------------------------|--------|
|-0---------------------------|--------|
|-----------------------------|--------|
|-----------------------------|--------|
|
|                                ~~~
| E  E  E  E  E  E  E  +E        W
|-----------------------------|--------|
|------------13-12------------|--------|
|---------12-------12-(12)b14-|--------|
|---12h14---------------------|-14-----|
|-----------------------------|--------|
|-----------------------------|--------|


  Em                D
    E  E E Q    Q   E    +W
|--------0-0----------|----------------------------|
|---------------1---3-|--(3)-----------------------|
|------0--------------|----------------------------|
|---2-----------------|----------------------------|
|---------------------|----------------------------|
|---------------------|----------------------------|
|
|   ~~~~
|  +H        E  Q.       +Q    Q.    E     +E  +E
|---------------------|----------------------------|
|--------------12-----|-(12)\----------------------|
|--------------12-----|-(12)\----------------------|
|-(14)-------x--------|-------------[7]b9==(7)r(7)-|
|---------------------|----------------------------|
|---------------------|----------------------------|


                             C            Bm
   E     E     E      Q   Q   E    +H     +H
|--------------------------------|---------------|
|--------------3------3---0---1--|-(1)----(1)----|
|--------2-----------------------|---------------|
|--0-----------------------------|---------------|
|--------------------------------|---------------|
|--------------------------------|---------------|
|
| +E    +E    +E     +H      +E    +W
|--------------------------------|---------------|
|--------------------------------|---------------|
|--------------------------------|---------------|
|-(7)b9r(7)b9r(7)b9==(7)-----(7)r|=(7)-----------|
|--------------------------------|---------------|
|--------------------------------|---------------|


  Em                  D
  E  E  E  Q     Q     E   +W
|-------0--0-------------|------------|
|----------------1-----3-|-(3)--------|
|----0-------------------|------------|
|-2----------------------|------------|
|------------------------|------------|
|------------------------|------------|
|
| E  E  E  E  E  E  E  E    W
|------------------------|------------|
|---------------12-------|------------|
|---------12-14----14p12-|-14---------|
|------14----------------|------------|
|-x-14-------------------|------------|
|------------------------|------------|


                      C
  E  E  E  Q     Q     E   +W
|------------------------|----------------------------|
|-------3--3-----0-----1-|-(1)------------------------|
|----2-------------------|----------------------------|
|-0----------------------|----------------------------|
|------------------------|----------------------------|
|------------------------|----------------------------|
|
|                                           ~
| E  E  E  E  E  E  E  E    E   +E      +E  H    +E
|------------------------|----------------------------|
|---------------12-------|----------------------------|
|---------12-14----14p12-|-11--(11)b12r(11)-9----(9)\-|
|------14----------------|----------------------------|
|-x-14-------------------|----------------------------|
|------------------------|----------------------------|


  Em                          D
  Gtr I
  E     E E  Q     Q           E        +W
|---------0--0-----------------------|-----------------------------------------|
|------------------1-----------3-----|--(3)------------------------------------|
|-------0----------------------------|-----------------------------------------|
|-2----------------------------------|-----------------------------------------|
|------------------------------------|-----------------------------------------|
|------------------------------------|-----------------------------------------|
|
| Gtr IV
| E  a  Q    E  E  S  S  S  S  E        +E.  +E   S  S  S  E  S  S  S  S  S  S
|------12---14-15p14p12----12--------|-----------------------------------------|
|------12---------------15----15b17==|=(15)r(15)-12h15p12h13p12h13p12h15p13p12-|
|---12-------------------------------|-----------------------------------------|
|------------------------------------|-----------------------------------------|
|------------------------------------|-----------------------------------------|
|------------------------------------|-----------------------------------------|


                                 C
  Gtr I
   E     E     E     Q      Q     E      +W
|--------------------------------------|------------------------------||
|--------------3-----3------0-----1----|-(1)--------------------------||
|--------2-----------------------------|------------------------------||
|--0-----------------------------------|------------------------------||
|--------------------------------------|------------------------------||
|--------------------------------------|------------------------------||
|
| Gtr III
|  W                                      Q        E E    +E  +E  E E
|--------------------------------------|------------------------------||
|--------------------------------------|------------------------------||
|--------------------------------------|------------------------------||
|--------------------------------------|------------------------------||
|--------------------------------------|------------------------------||
|--------------------------------------|-------------5b7==(5)r(5)-3-5-||
|
| Gtr IV
|  S  S  S  S  S  S  S S  E E  E  S  S    S S  S S E Q.           Q
|--------------------------------------|------------------------------||
|-13p12--------------------------------|------------------------------||
|-------14p12p11h12p11p9h11-9----------|------------------------------||
|-----------------------------12-10h12S|=10p9h10p9-7-7b9----------7---||
|--------------------------------------|------------------------------||
|--------------------------------------|------------------------------||


 Out-Chorus
  Em D  Em       D                  Em                          D
  Gtr III
   E E  E E E Q   E        +S   +S  E  E    E   E       Q       E
|-----------------------|-----------------------------------------|
|-----------------------|-----------------------------------------|
|--9-7--9---9-----7-----|--(7)--(7)S9--9--------9---------------7-|
|--9-7--9---9-----7-----|--(7)--(7)S9--9--------9---------------7-|
|--7-5--7---7-----5-----|--(5)--(5)-7--7--------7---------------5-|
|-----------------------|-----------------------------------------|
|
| Gtr IV
|    ~~
|  E H.           E        +Q          Q        E       Q.
|-----------------------|-----------------------------------------|
|----------------15b17==|=(15)r-------15b17---[15]b17-[15]b17=====|
|-----------------------|-----------------------------------------|
|-----------------------|-----------------------------------------|
|-10-7------------------|-----------------------------------------|
|-----------------------|-----------------------------------------|


           EmC
   +S  +S  E   E   E  H
|--------------------------------------|
|--------------------------------------|
|--(7)-(7)S9---------------------------|
|--(7)-(7)S9--10-----10----------------|
|--(5)-(5)-7--10-----10----------------|
|--------------8------8----------------|
|
|  +Q         +E   E  E  E  S  S  S  S
|--------------------------------------|
|-(15)r======(15)-15-13-12-15p13p12----|
|-----------------------------------14-|
|--------------------------------------|
|--------------------------------------|
|--------------------------------------|


  D                                Bm
   H                                H
|--------------------------------------------------------------|
|--------------------------------------------------------------|
|--7-----------------------------------------------------------|
|--7--------------------------------9--------------------------|
|--5--------------------------------9--------------------------|
|-----------------------------------7--------------------------|
|
|  S  S  S  S  S  T  T  T  T  T  T  T  T T  T  T T  S S S  S S
|--------------------------------------------------------------|
|-13-12----12--------------------------------------------------|
|-------14----14-12-11h12p11-----------------------------------|
|----------------------------12h14-10h12-9h10-10-9-10-9-7----7-|
|---------------------------------------------------------10---|
|--------------------------------------------------------------|


  Em                D
  E   E E E  E  Q   E
|---------------------|
|---------------------|
|-------------------7-|
|-------------------7-|
|---------2---------5-|
|-0---2-3----0--------|
|
| Q     E E  Q    E E
|---------------------|
|---------------------|
|---------------------|
|-7b9---7-5-[7]-------|
|-----------------7---|
|-------------------7-|


          Em                      D
  +S  +S  E E  E    E  Q           E
|----------------------------------------|
|----------------------------------------|
|-(7)-(7)S9-9-------9--------------7-----|
|-(7)-(7)S9-9-------9--------------7-----|
|-(5)-(5)-7-7-------7--------------5-----|
|----------------------------------------|
|
| +Q.          Q       E     E     E
|----------------------------------------|
|----------------------------------------|
|----------------------------------------|
|-------------[7]b9---[7]b9-[7]b9-[7]b9==|
|----------------------------------------|
|-(7)------------------------------------|


          EmC             D               Bm
  +S  +S  E  E E  H        H              H
|-----------------------|------------------------------|
|-----------------------|------------------------------|
|-(7)-(7)S9-------------|--7---------------------------|
|-(7)-(7)S9-10---10-----|--7--------------9------------|
|-(5)-(5)-7-10---10-----|--5--------------9------------|
|------------8----8-----|-----------------7------------|
|
|                 ~~~~~~~~~~~~                     ~~~
|                             |-3--| |--3---|
| +Q         E E  H       +E  E  E E E  E   E  E   Q
|-----------------------|------------------------------|
|-----------------------|------------------------------|
|-----------------------|------------------------------|
|-(7)r=======7-5-[5]----|-(5)--------9-10---9-[9]-[7]--|
|-----------------------|----------7-------------------|
|-----------------------|-----7-10---------------------|


  Em  D Em           D                  Em                D
   E  E E E E Q       E        +S   +S   E  E E  E  Q      E
|---------------------------|-----------------------------------|
|---------------------------|-----------------------------------|
|--9--7-9---9---------7-----|--(7)--(7)S=9--9----9---------7----|
|--9--7-9---9---------7-----|--(7)--(7)S=9--9----9---------7----|
|--7--5-7---7---------5-----|--(5)--(5)--7--7----7---------5----|
|---------------------------|-----------------------------------|
|
|  ~~~                ~~~~~~~~~~~~~~
| +Q    H       +E    E        +E        E  Q    E  Q      E
|---------------------------|-----------------------------------|
|---------------------------|-----------------------------------|
|---------------------------|----------------------14b16--14b16-|
|-(7)----------------12b14==|=(12)r-----14-14---14--------------|
|-------7-------(7)\--------|-----------------------------------|
|---------------------------|-----------------------------------|


             EmC
  +S     +S  E  E E  H
|----------------------------------|
|----------------------------------|
|-(7)----(7)S9---------------------|
|-(7)----(7)S9-10---10-------------|
|-(5)----(5)-7-10---10-------------|
|---------------8----8-------------|
|
|  H.                    +E   +E
|----------------------------------|
|----------------------------------|
|-14b16=================(14)r(14)--|
|----------------------------------|
|----------------------------------|
|----------------------------------|


  D                   Bm             Em                   D
   H                   H               E  E E E E Q       E
|----------------------------------|------------------------|
|----------------------------------|------------------------|
|--7-------------------------------|----------------------7-|
|--7-------------------9-----------|----------------------7-|
|--5-------------------9-----------|----------2-----------5-|
|----------------------7-----------|---0--2-3---0-----------|
|
|                               ~~~~~~~~~~
|  |--3--|  |---3---|  |--3--|                  |---3---|
|  E  E  E  E   E   E  E  E  E  Q     +H        Q    Q  Q
|----------------------------------|----------------12-14---|
|----------------------------------|------------------------|
|-------12-------------------------|------------------------|
|----12----16-[14]-12----12-16-14--|-(14)-------------------|
|-14------------------14-----------|------------------------|
|----------------------------------|------------------------|


          Em                         D
  +S  +S   E  E  E  E           Q     E
|----------------------------------------|
|----------------------------------------|
|-(7)-(7)S=9--9-----9-----------------7--|
|-(7)-(7)S=9--9-----9-----------------7--|
|-(5)-(5)--7--7-----7-----------------5--|
|----------------------------------------|
|
|  E       E  E  E  T  T  T  T  E  E  E
|-15------12-14-15-14h15p14p12----12-----|
|------------------------------15----15--|
|----------------------------------------|
|----------------------------------------|
|----------------------------------------|
|----------------------------------------|


              EmC
   +S     +S  E  E E  H
|-------------------------------|
|-------------------------------|
|--(7)----(7)S9-----------------|
|--(7)----(7)S9-10---10---------|
|--(5)----(5)-7-10---10---------|
|----------------8----8---------|
|
|   ~~~~~~~
|  +H.                    Q
|------------------------17b19--|
|-(15)b17-----------------------|
|-------------------------------|
|-------------------------------|
|-------------------------------|
|-------------------------------|


  D           Bm          Em D       Em        D
   H           H           E   E     E E  E Q  E
|-----------------------|------------------------|
|-----------------------|------------------------|
|--7--------------------|--9---7-----9----9----7-|
|--7-----------9--------|--9---7-----9----9----7-|
|--5-----------9--------|--7---5-----7----7----5-|
|--------------7--------|------------------------|
|
|                              ~~~~~~~
|  |---3----|  |--3--|
|  Q     Q  Q  Q  Q  Q     E  +Q.         H
|-17b19-15-14-15p14-----|------------------------|
|-------------------15--|----------------12------|
|-----------------------|-14-(14)b16-----12------|
|-----------------------|------------------------|
|-----------------------|------------------------|
|-----------------------|------------------------|


          Em          D           EmC                    D        Bm
  +S  +S  E E E E Q   E   +S  +S  E  E   E      H         H        H
|-----------------------|------------------------------|----------------|
|-----------------------|------------------------------|----------------|
|-(7)-(7)S9-9---9-----7-|-(7)-(7)S9--------------------|--7-------------|
|-(7)-(7)S9-9---9-----7-|-(7)-(7)S9-10---------10------|--7--------9----|
|-(5)-(5)-7-7---7-----5-|-(5)-(5)-7-10---------10------|--5--------9----|
|-----------------------|------------8----------8------|-----------7----|
|
|                                               ~~~~
|                                    |--3---|
|  Q.         E E E E E    Q         E E   +E   H         H        H
|-----------------------|------------------------------|----------------|
|-12------------8-7-5---|--------------5---(5)--5------|----------------|
|-12----------7-------4-|--7---------4----------7b9----|-10b12----11----|
|-----------------------|------------------------------|----------------|
|-----------------------|------------------------------|----------------|
|-----------------------|------------------------------|----------------|


  Em                               D
    E     E E   E   E    Q         E
|------------------------------------|
|------------------------------------|
|----------------------------------7-|
|----------------------------------7-|
|---------------2------------------5-|
|---0-----2-3-------0----------------|
|
|                                  ~~~
|   Q.         +E   S  S S  S  S S E
|------------------------------------|
|-[13]b15r====(13)-------------------|
|------------------12p11p9-----------|
|--------------------------12p10p9-9-|
|------------------------------------|
|------------------------------------|


          Em          D           EmC
  +S  +S  E E E E Q   E   +S  +S  E  E   E      H
|-----------------------|------------------------------|
|-----------------------|------------------------------|
|-(7)-(7)S9-9---9-----7-|-(7)-(7)S9--------------------|
|-(7)-(7)S9-9---9-----7-|-(7)-(7)S9-10---------10------|
|-(5)-(5)-7-7---7-----5-|-(5)-(5)-7-10---------10------|
|-----------------------|------------8----------8------|
|
|~~~~~                                          ~~~~
|                                    |--3---|
| +H            E E E E    Q         E E   +E   H
|-----------------------|------------------------------|
|-----------------------|--------------5---(5)--5------|
|-----------------------|--7---------4----------7b9----|
|-(9)---------------7-9-|------------------------------|
|---------------7-9-----|------------------------------|
|-----------------------|------------------------------|


  D         Bm      C
                                         2/4
  H          Q       E  E    +W            +H
|-------------------------|-------------|---------||
|-------------------------|-------------|---------||
|-7-----------------------|-------------|---------||
|-7----------9------10-10-|-(10)--------|-(10)----||
|-5----------9------10-10-|-(10)--------|-(10)----||
|------------7-------8--8-|--(8)--------|--(8)----||
|
|                       ~~~~~~~~~~~~~~~~~~~~~~~
| E  Q.      E   E   E  E    +W            +H
|-------------------------|-------------|---------||
|-------------------------|-------------|---------||
|---10b12---11------------|-------------|---------||
|--------------(12)-14-14-|-(14)--------|-(14)----||
|-------------------------|-------------|---------||
|-------------------------|-------------|---------||


 Free Time
  Em          D                            C
 4/4
  Gtr I
  E E E Q  Q  E   +W           E E E Q  Q  E   +W
|-----0-0-------|------------|---------------|--------*|
|----------1--3-|-(3)--------|-----3-3--0--1-|-(1)----*|
|---0-----------|------------|---2-----------|--------*|
|-2-------------|------------|-0-------------|--------*|
|---------------|------------|---------------|--------*|
|---------------|------------|---------------|--------*|



Duration Legend
---------------
W - whole; H - half; Q - quarter; E - 8th; S - 16th; T - 32nd; X - 64th; a - acciaccatura
+ - note tied to previous; . - note dotted; .. - note double dotted
Uncapitalized letters represent notes that are staccato (1/2 duration)
Irregular groupings are notated above the duration line
Duration letters will always appear directly above the note/fret number it represents the
duration for.  Duration letters with no fret number below them represent rests.  Multi-
bar rests are notated in the form Wxn, where n is the number of bars to rest for.  Low
melody durations appear below the staff

Tablature Legend
----------------
 h   - hammer-on
 p   - pull-off
 b   - bend
 pb  - pre-bend
 r   - bend release (if no number after the r, then release immediately)
 /\  - slide into or out of (from/to "nowhere")
 s   - legato slide
 S   - shift slide
 - natural harmonic
[n]  - artificial harmonic
n(n) - tapped harmonic
 ~   - vibrato
 tr  - trill
 T   - tap
 TP  - trem. picking
 PM  - palm muting
\n/  - tremolo bar dip; n = amount to dip
 \n  - tremolo bar down
 n/  - tremolo bar up
/n\  - tremolo bar inverted dip
 =   - hold bend; also acts as connecting device for hammers/pulls
 <> - volume swell (louder/softer)
 x   - on rhythm slash represents muted slash
 o   - on rhythm slash represents single note slash

Misc Legend
-----------
 |  - bar
||  - double bar
||o - repeat start
o|| - repeat end
*|  - double bar (ending)
 :  - bar (freetime)
 $  - Segno
 &  - Coda
Tempo markers -  = BPM(8/16=s8/s16), where s8 = swing 8ths, s16 = swing 16ths

comments
We did not receive enough feedback on this tab! Please rate:
1 2 3 4 5
I want to post or [tab]
guest
You may want to rate the tab now too:
select rating
Please do not post tabs as comments. Select "correction" instead!