Oops, an error
Loading. Please wait.

Fractured Mirror Tab

7,404 views 15 this week
no commentswrite comment
1 2 3 4 5
excellent!
x 2
Autoscroll
+/-
esc
set tempo
stop
Contributor
Hey! There's an official Ultimate Guitar app which is ideal
for learning songs when you're away from computer. Get the app
WARNING: You are trying to view
                                    content from Ultimate-Guitar.com
                                    in an unauthorized application,
                                    which is prohibited.

                                    Please use an official Ultimate
                                    Guitar Tabs application for iPhone,
                                    iPad or Android to access legitimate
                                    chords, guitar, bass, and drum tabs
                                    from Ultimate-Guitar.com database.

                                    Type "ultimate guitar tabs" in Apple
                                    App Store's or Android Market's
                                    search to find the application.
        
Fractured Mirror by Ace Frehley
From Ace's solo album(1978)
--------------------------------------------------------------------



  intro w/bells
e:-------11----------11-------11----------11-------9-----------9--------9----|
B:----------12----------12-------12----------12-------10----------10-------10|
G:----9--------9--9--------9--------9--9--------9--------9--9--------9-------|
D:---------------------------------------------------------------------------|
A:---------------------------------------------------------------------------|
E:---------------------------------------------------------------------------|



e:-------9-----------------0--------------------0--------------------0-------|
B:----------10-------4-----------4--------4-----------4--------2-----------2-|
G:-9--9-----------------4-----4-----4--------4-----4-----4--------2-----2----|
D:----------------2--------------------2--------------------2----------------|
A:---------------------------------------------------------------------------|
E:---------------------------------------------------------------------------|


  guitar 1
e:-------------0--------------------0--------------------0-------------------|
B:-------2-----------2--------4-----------4--------4-----------4--------2----|
G:-2--------2-----2-----2--------4-----4-----4--------4-----4-----4--------2-|
D:----2--------------------2--------------------2--------------------2-------|
A:---------------------------------------------------------------------------|
E:---------------------------------------------------------------------------|
  guitar 2
e:---------------------------------------------------------------------------|
B:---------------------------------------------------------------------------|
G:-------------------------4~------------------------------------------------|
D:-------------------------4~------------------------------------------------|
A:-------------------------2~------------------------------------------------|
E:---------------------------------------------------------------------------|



  guitar 1
e:-0--------------------0--------------------0--------------------0----------|
B:-------2--------2-----------2--------4-----------4--------4-----------4----|
G:----2-----2--------2-----2-----2--------4-----4-----4--------4-----4-----4-|
D:-------------2--------------------2--------------------2-------------------|
A:---------------------------------------------------------------------------|
E:---------------------------------------------------------------------------|
  guitar 2
e:---------------------------------------------------------------------------|
B:---------------------------------------------------------------------------|
G:------------------------------------4~-------------------------------------|
D:------------------------------------4~-------------------------------------|
A:------------------------------------2~-------------------------------------|
E:---------------------------------------------------------------------------|



  guitar 1
e:----------0--------------------0-------------|
B:----2-----------2--------2-----------2-------|
G:-------2-----2-----2--------2-----2-----2----|
D:-2--------------------2----------------------|
A:---------------------------------------------|
E:---------------------------------------------|
  guitar 2                                     |
e:---------------------------------------------|
B:---------------------------------------------|
G:------------------------------------------4~-|
D:------------------------------------------4~-|
A:------------------------------------------2~-|
E:---------------------------------------------|



  guitar 1
e:-------------------------------------------------------------0-------------|
B:----3--------3--------3-----5--------5--------5--------2-----------2-------|
G:-------4--------4--------------6--------6-----------------3-----3-----3----|
D:----------5--------5-----5--------7--------7-----7--4--------------------4-|
A:---------------------------------------------------------------------------|
E:---------------------------------------------------------------------------|
  guitar 2
e:---------------------------------------------------------------------------|
B:---------------------------------------------------------------------------|
G:---------------------------2~----------------------------------------------|
D:----5~---------------------2~-----------------------4~---------------------|
A:----5~---------------------0~-----------------------4~---------------------|
E:----3~----------------------------------------------2~---------------------|



  guitar 1
e:-------0-------------------------------------------------------------------|
B:-2-----------2-----3--------3--------3-----2--------2--------2--------0----|
G:----3-----3-----3-----4--------4--------------3--------3-----------------1-|
D:-------------------------5--------5-----5--------4--------4-----4--2-------|
A:---------------------------------------------------------------------------|
E:---------------------------------------------------------------------------|
  guitar 2
e:---------------------------------------------------------------------------|
B:---------------------------------------------------------------------------|
G:-------------------------------------------------------------------9~------|
D:-------------------5~----------------------4~----------------------9~------|
A:-------------------5~----------------------4~----------------------7~------|
E:-------------------3~----------------------2~----------------------0~------|



  guitar 1
e:-0--------------------0----------------------------------------------------|
B:-------0--------0-----------0-----3--------3--------3-----5--------5-------|
G:----------1--------1-----------1-----4--------4--------------6--------6----|
D:----2--------2-----------2--------------5--------5-----5--------7--------7-|
A:---------------------------------------------------------------------------|
E:---------------------------------------------------------------------------|
  guitar 2
e:---------------------------------------------------------------------------|
B:---------------------------------------------------------------------------|
G:----------------------------------------------------------2~---------------|
D:----------------------------------5~----------------------2~---------------|
A:----------------------------------5~----------------------0~---------------|
E:----------------------------------3~---------------------------------------|



  guitar 1
e:----------------0--------------------0-------------------------------------|
B:-5--------2-----------2--------2-----------2-----3--------3--------3-----2-|
G:-------------3-----------3--------3-----------3-----4--------4-------------|
D:----7--4-----------4--------4-----------4--------------5--------5-----5----|
A:---------------------------------------------------------------------------|
E:---------------------------------------------------------------------------|
  guitar 2
e:---------------------------------------------------------------------------|
B:---------------------------------------------------------------------------|
G:---------------------------------------------------------------------------|
D:-------4~----------------------------------------5~----------------------4~|
A:-------4~----------------------------------------5~----------------------4~|
E:-------2~----------------------------------------3~----------------------2~|



  guitar 1
e:-------------------------------0--------------------0--------------------0-|
B:-------2--------2--------0-----------0--------0-----------0--------4-------|
G:-3--------3-----------------1-----------1--------1-----------1--------4----|
D:----4--------4-----4--2-----------2--------2-----------2--------2----------|
A:---------------------------------------------------------------------------|
E:---------------------------------------------------------------------------|
  guitar 2
e:---------------------------------------------------------------------------|
B:---------------------------------------------------------------------------|
G:----------------------9~----------------------------------------4~---------|
D:----------------------9~----------------------------------------4~---------|
A:----------------------7~----------------------------------------2~---------|
E:----------------------0~---------------------------------------------------|



  guitar 1
e:-------------------0--------------------0--------------------0-----------|
B:----4--------4-----------4--------2-----------2--------2-----------2-----|
G:-------4--------4-----------4--------2-----------2--------2-----------2--|
D:-2--------2-----------2--------2-----------2--------2-----------2--------|
A:-------------------------------------------------------------------------|
E:-------------------------------------------------------------------------|
  guitar 2                                                                 |
e:-------------------------------------------------------------------------|
B:-------------------------------------------------------------------------|
G:-------------------------------2-----------------------------------------|
D:-------------------------------2-----------------------------------------|
A:-------------------------------0-----------------------------------------|
E:-------------------------------------------------------------------------|



  guitar 3
e:------10------9-------7------------------7--------10------9-------7--------|
B:---7-------7-------7-------7--10---7--10-------7-------7-------7-------7--10
G:---------------------------------------------------------------------------|
D:---------------------------------------------------------------------------|
A:---------------------------------------------------------------------------|
E:---------------------------------------------------------------------------|
  guitar 2
e:---------------------------------------------------------------------------|
B:---------------------------------------------------------------------------|
G:----------------------2----------------------------------------------------|
D:---5------------------2---------------------4------------------------------|
A:---5------------------0---------------------4------------------------------|
E:---3----------------------------------------2------------------------------|



  guitar 3
e:----------7-------10------9-------7------------------7--------|
B:----7--10------7-------7-------7-------7--10---7--10----------|
G:--------------------------------------------------------------|
D:--------------------------------------------------------------|
A:--------------------------------------------------------------|
E:--------------------------------------------------------------|
  guitar 2                                                      |
e:--------------------------------------------------------------|
B:--------------------------------------------------------------|
G:---------------------------------------------------------9----|
D:---------------5------------------4----------------------9----|
A:---------------5------------------4----------------------7----|
E:---------------3------------------2----------------------0----|



   outtro
e:-----------------------------------------------------------|
B:-----------------------------------------------------------|
G:-----------9b--9-8--9~--6~--------9b--9-8--9~---10b-10b~--8|
D:--7/9-9~--------------------9~-----------------------------|
A:-----------------------------------------------------------|
E:-----------------------------------------------------------|
comments
We did not receive enough feedback on this tab! Please rate:
print report bad tab
1 2 3 4 5
I want to post or [tab]
guest
You may want to rate the tab now too:
select rating
Please do not post tabs as comments. Select "correction" instead!