Oops, an error
Loading. Please wait.

Ada Cinta Tab

8,114 views 23 this week
no commentswrite comment
1 2 3 4 5
accurate
x 1
Autoscroll
+/-
esc
set tempo
stop
Contributor
Difficulty
intermediate
WARNING: You are trying to view
                                    content from Ultimate-Guitar.com
                                    in an unauthorized application,
                                    which is prohibited.

                                    Please use an official Ultimate
                                    Guitar Tabs application for iPhone,
                                    iPad or Android to access legitimate
                                    chords, guitar, bass, and drum tabs
                                    from Ultimate-Guitar.com database.

                                    Type "ultimate guitar tabs" in Apple
                                    App Store's or Android Market's
                                    search to find the application.
Tab Ada Cinta (updated version)

Tabbed by Qays Muzini
Location: Brunei

1st guitar


Intro


E-------11----11--|-14---------12---|--11--------9----|-9---------11----|
B----------14---11|-----------------|-----------------|----12---9-------|
G-----------------|---------13------|12--------9------|-----------------|
D-----------------|-----------------|-----------------|-----------------|
A-----------------|-----------------|-----------------|-----------------|
E-----------------|-----------------|-----------------|-----------------|

E-------11----11--|-14---------12---|--11--------9----|--18--------16---|
B----------14---11|-----------------|-----------------|-----------------|
G-----------------|---------13------|12--------9------|18----------16---|
D-----------------|-----------------|-----------------|-----------------|
A-----------------|-----------------|-----------------|-----------------|
E-----------------|-----------------|-----------------|-----------------|

E--16-------------|
B-----------------|
G--16-------------|
D-----------------|
A-----------------|
E-----------------|


Verse


E-----------------|-----------------|-----------------|-----------------|
B---------12------|--------11-------|--------11-------|--------9--------|
G------8----------|-----8-----------|-----8-----------|-----6-----------|
D-----------------|-----------------|-----------------|-----------------|
A---11------------|--10-------------|--9--------------|--8--------------|
E-----------------|-----------------|-----------------|-----------------|

E----------4------|----------6------|----------6------|----------4------|
B--------5--------|------5----------|------4----------|------2----------|
G------6----------|----6---6--------|----4---4--------|----1---1--------|
D----6------------|--5--------------|--4--------------|--3--------------|
A--4--------------|-----------------|-----------------|-----------------|
E-----------------|-----------------|-----------------|-----------------|

E----------4------|--7-----7-6------|
B------2----------|--4---4----------|
G----1---1--------|----4-----6------|
D--2--------------|-----------------|
A-----------------|--6--------------|
E-----------------|-----------------|

E-----------------|-----------------|-----------------|-----------------|
B---------12------|--------11-------|--------11-------|--------9--------|
G------8----------|-----8-----------|-----8-----------|-----6-----------|
D-----------------|-----------------|-----------------|-----------------|
A---11------------|--10-------------|--9--------------|--8--------------|
E-----------------|-----------------|-----------------|-----------------|

E----------4------|-----------------|-----------------|-----------------|
B--------5--------|----------2------|--------5-4------|--------7-7------|
G------6----------|------3----------|------4---4------|--------8-8------|
D----6------------|----4---4--------|----4------------|------------9-8--|
A--4--------------|--1--------------|--2--------------|------9----------|
E-----------------|-----------------|-----------------|-----------------|

E----------4------|-----------------|---------6-------|--7--------------|
B--------4--------|----------4------|-----------------|-----------------|
G------4----------|------6----------|------8--6---\8--|-----------------|
D----6------------|----5---5--------|---6-------------|-----------------|
A-----------------|--6--------------|-----------------|-----------------|
E--0--------------|-----------------|-----------------|-----------------|


Chorus

E---------4-------|-----------------|---------2-------|---------4-------|
B-------5---5-----|---------2-------|-------4---4-----|-----0-----------|
G-----6-------6---|-------3---3-----|-----4-------4---|-------3---------|
D---6-----------6-|-----4-------4---|---4-----------4-|-----------------|
A-4---------------|---4-----------4-|-2---------------|---2-------------|
E-----------------|-2---------------|-----------------|-0---------------|

E-----------------|-----------------|-----------------|-----------------|
B-------5-------2-|-------5--4------|-----------------|---------4-------|
G-----6-------3---|-----4----4------|-------8-6-------|-----6-------6---|
D---6-------4-----|---4-------------|-----6---6-------|---5---5---5-----|
A-4-------1-------|-2---------------|---7-------------|-6---------------|
E-----------------|-----------------|-6---------------|-----------------|

E---------4-------|-----------------|---------2-------|---------4-------|
B-------5---5-----|---------2-------|-------4---4-----|-----0-----------|
G-----6-------6---|-------3---3-----|-----4-------4---|-------3---------|
D---6-----------6-|-----4-------4---|---4-----------4-|-----------------|
A-4---------------|---4-----------4-|-2---------------|---2-------------|
E-----------------|-2---------------|-----------------|-0---------------|

E---------4-------|---------4-------|----------4--6--4|-----------------|
B-------5---------|-----4-----------|----4---4--------|---------5-------|
G-----6-----------|---4---4---------|--4---4----------|-----6-----------|
D---6-------------|-----------------|-----------------|---5---5---------|
A-4---------------|-2---------------|6----------------|-6---------------|
E-----------------|-----------------|-----------------|-----------------|

E---------4-------|-----------------|
B-----------4-----|-------2---------|
G-----4-------4---|-----3-----------|
D-------6-------6-|---4-----4-------|
A---6-------------|-1---------------|
E-4---------------|-----------------|

E---------2-------|-----------------|-------2---------|-------4---------|
B-----3-----------|-------7---------|-----3-----------|-----5-----------|
G-------4---------|-----6-----------|-----------------|---4-------------|
D---4-------------|---4-------------|---4-------------|-6---------------|
A-2---------------|-----------------|-0---------------|-----------------|
E-----------------|-6---------------|-----------------|-----------------|

E---------0-------|-----------------|-------2---------|-2---------------|
B-----0-----------|-------3-2-------|-----2---2-------|-2-------5\7-----|
G-------7---------|-----2-----------|---2-------------|-2-----------7-6-|
D---5-------------|---2---4-2-------|-0---------------|-0---------------|
A-7---------------|-0---------------|-----------------|-----------------|
E-----------------|-----------------|-----------------|-----------------|

E-----------------|-------2---------|-------------7-9-|-10--------------|
B-------7---------|-----2-----------|-------2-3-2-----|-----------------|
G-4---4-------6p4-|-3---------------|-----4-----------|-----------------|
D---5-------------|---4-------------|---4-------------|-----------------|
A-----------------|-----------------|-2---------------|-----------------|
E-----------------|-----------------|-----------------|-----------------|

E---------0-------|-----------------|---------5-------|---------3-------|
B-----0-----------|-------3-2-------|-------7---------|-------3---------|
G-------7---------|-----2-----------|-----6-----------|-----4-----------|
D---5-------------|---2---4-2-------|---7-------------|---5-------------|
A-7---------------|-0---------------|-5---------------|-----------------|
E-----------------|-----------------|-----------------|-3---------------|

E-----------------|-----------------|---------2-------|-------------7910|
B-10-8-7----------|-8-7-5-----------|-----3-----------|-5-----5---78----|
G--------8--------|-------7---------|---4---4---------|-----4---67------|
D-----------------|-----------------|-5---------------|-5-5-------------|
A-----------------|-----------------|-----------------|-----------------|
E-----------------|-----------------|-----------------|-----------------|

E---------0-------|------------12-10|-9---------------|---------2-------|
B-------3---3-----|-------3-2-------|-----------------|-----3-----------|
G-----4-------4---|-----2-----------|-----------------|---4---4---------|
D---5-----------5-|---2---4-2-------|-----------------|-5---------------|
A-----------------|-0---------------|-----------------|-----------------|
E-0---------------|-----------------|-----------------|-----------------|

E---------0-------|---------2-------|---2---2---2---2-|---2---2---2---2-|
B-------3---------|-----3-----------|-----------------|-----------------|
G-----4-----------|---4---4---------|-----4-------4---|-----3-------3---|
D---5-------------|-4---------------|-4-------4-------|-4-------4-------|
A-----------------|-----------------|-----------------|-----------------|
E-0---------------|-----------------|-----------------|-----------------|

Interlude :
G#m Eb F# C# E B G Ab A#
Bm F# Bm B Em Bm G G# A A# B

E---------0-------|-----------------|---------5-------|---------2-------|
B-------3---3-----|-------3-2-------|-------7---7-----|-----3-----------|
G-----4-------4---|-----2-----------|-----6-------6---|---4---4---------|
D---5-----------5-|---2---4-2-------|---7-----------7-|-5---------------|
A-----------------|-0---------------|-5---------------|-----------------|
E-0---------------|-----------------|-----------------|-----------------|

E-----------------|---------5-------|---------2-------|-----------------|
B-------3-------2-|-------7---7-----|-------3---3-----|-------5-----7---|
G-----4-------2---|-----6-------6---|-----4-------4---|-----6-----4---4-|
D---5-------2-----|---7-----------7-|---4-----------4-|---7-------------|
A---------4-------|-5---------------|-2---------------|-4-------6-------|
E-0---------------|-----------------|-----------------|-----------------|

E---------4-------|-----------------|---------2-------|---------4-------|
B-------5---5-----|---------2-------|-------4---4-----|-----0-----------|
G-----6-------6---|-------3---3-----|-----4-------4---|-------3---------|
D---6-----------6-|-----4-------4---|---4-----------4-|-----------------|
A-4---------------|---4-----------4-|-2---------------|---2-------------|
E-----------------|-2---------------|-----------------|-0---------------|

E-----------------|-----------------|-----------------|-----------------|
B---------5-------|-----------------|---------8-------|-----------------|
G-----6-------6---|---------8-------|-----8-------8---|-----6---8-------|
D---6---6---6---6-|-----9------9----|---9---9---9---9-|---8---8---------|
A-4---------------|---9---9--9---9--|-6-------6-------|-6-------6-------|
E-----------------|-7---------------|-----------------|-----------------|

E-----------------|-----------------|
B---------4-------|---9---7---5---4-|
G-----4-------4---|---8---6---4---3-|
D-------6---6---6-|-----------------|
A---6-------------|-----------------|
E-4---------------|-----------------|

E-----------------|-----------------|-----------------|---------4-------|
B---------5-------|---------2-------|---------4-------|-----------------|
G-----6-------6---|-----3-------3---|-----4-------4---|-----0-----------|
D---6---6---6---6-|---4---4---4---4-|---4---4---4---4-|-------3---------|
A-4---------------|-1---------------|-2---------------|---2-------------|
E-----------------|-----------------|-----------------|-0---------------|

E-----------------|---------4-------|-----------------|-----------------|
B---------5-------|---------5-------|---------9-------|---------9-------|
G-----6-------6---|-----6-------6---|-----8-------8---|-----8-----------|
D---6---6---6---6-|---6---6---6---6-|---9---9---9---9-|---9---9---------|
A-4---------------|-4---------------|-----------------|-----------------|
E-----------------|-----------------|-7---------------|-7---------------|

E-----------------|-----------------|----------7---6--|-4---------------|
B---------6-------|-----------------|-----4-----------|-----------------|
G-----8-------8---|-----6---8-------|---4---6\8--6---4|-----------------|
D---9---9---9---9-|---8---8---------|-6---------------|-----------------|
A-6---------------|-6---------------|-----------------|-----------------|
E-----------------|-----------------|-----------------|-----------------|


Outro

E----------7------|-----------------|------6----------|--4--------------|
B------5----------|-----------------|-----------------|-----------------|
G-----------------|-----6---8-------|--6-----------4--|-----------------|
D----6---6--------|---8---8---------|-----------------|-----------------|
A--4--------------|-6---------------|-----------------|-----------------|
E-----------------|-----------------|--4--------------|-----------------|

2nd guitar


Intro


E-----------------|-----------------|-------4---------|--------4--4-----|
B-----------------|--------5--------|-----4----------4|------4----------|
G-----------------|------4----------|---4----------6--|----4------------|
D-----------------|----6------------|------------5----|--6--------------|
A-----------------|--4--------------|-6--------6------|-----------------|
E-----------------|-----------------|-----------------|-----------------|


E-----------------|-----------------|-------4---------|-----------------|
B--------9-9------|--------5--------|-----4----------4|---------4-------|
G------8----------|------4----------|---4----------6--|-------4---4---4-|
D----9------------|----6------------|------------5----|-----6-------6---|
A--8--------------|--4--------------|-6--------6------|---6-------------|
E-----------------|-----------------|-----------------|-4---------------|

E--4--------------|
B--4--------------|
G--4--------------|
D--6--------------|
A-----------------|
E-----------------|

Last chorus

E---------9--11---|--12----11--9----|-----------7--9--|-11------9--7----|
B-----------------|-----------------|-----------------|-----------------|
G-----------------|-----------------|-----------------|-----------------|
D-----------------|-----------------|-----------------|-----------------|
A-----------------|-----------------|-----------------|-----------------|
E-----------------|-----------------|-----------------|-----------------|

E-----------------|-----------------|-----------------|--------------11-|
B-----------------|-----------------|-----------------|-----------12----|
G-----------------|-----------------|-----------------|--------13-------|
D-----------------|-----------------|-----------------|-----------------|
A-----------------|-----------------|-----------------|-----------------|
E-----------------|-----------------|-----------------|-----------------|

E----11---12-11--9|-11--------------|-----------------|-----------------|
B-----------------|-----------------|-----------------|-----------------|
G-----------------|-----------------|-----------------|-----------------|
D-----------------|-----------------|-----------------|-----------------|
A-----------------|-----------------|-----------------|-----------------|
E-----------------|-----------------|-----------------|-----------------|

(Last part tremolo)

3rd guitar

End of verse (before start of 1st chorus)


E----9-----11-----|
B-----------------|
G-----------------|
D-----------------|
A-----------------|
E-----------------|


Before the interlude (when Syah is singing)

E----10-----9-----|
B-----------------|
G-----------------|
D-----------------|
A-----------------|
E-----------------|

Cinta terasa ada (2nd chorus, when Syah and Acha are both singing)

E-------4---6-----|----7------------|
B---4-------------|-----------------|
G-----------------|-----------------|
D-----------------|-----------------|
A-----------------|-----------------|
E-----------------|-----------------|

Note: Tremolo pick for 3rd guitar


Note: I have changed some of the guitar parts, mainly because I think it sounds more  
otherwise it (the original) sounds a bit bland

Also I'm unsure of the interlude, it's hard to make out the chords, so feel free to comment

And this version I have corrected some parts which I think in the first version is wrong

Enjoy!
comments
We did not receive enough feedback on this tab! Please rate:
1 2 3 4 5
I want to post or [tab]
guest
You may want to rate the tab now too:
select rating
Please do not post tabs as comments. Select "correction" instead!