Oops, an error
Loading. Please wait.

V For Ventriloquist Tab

275 views 1 this week
no commentswrite comment
1 2 3 4 5
please rate
Autoscroll
+/-
esc
set tempo
stop
Contributor
Difficulty
Tuning
intermediate
C G C F A D
Hey! There's an official Ultimate Guitar app which is ideal
for learning songs when you're away from computer. Get the app
WARNING: You are trying to view
                                    content from Ultimate-Guitar.com
                                    in an unauthorized application,
                                    which is prohibited.

                                    Please use an official Ultimate
                                    Guitar Tabs application for iPhone,
                                    iPad or Android to access legitimate
                                    chords, guitar, bass, and drum tabs
                                    from Ultimate-Guitar.com database.

                                    Type "ultimate guitar tabs" in Apple
                                    App Store's or Android Market's
                                    search to find the application.
facebook.com/acodauk

V For Ventriloquist Guitar TAB

Tuning: Drop C (CGCFAD)

INTRO
GUITAR 1

D:------------------------------------------------------------¦-----------------¦2nd time-------|
A:------------------------------------------------------------¦10-10---10---10--¦---------------|
F:------------------------------------------------------------¦-----------------¦---------------|
C:-------7---------------7---------------------------7--------¦8--8----8----8---¦---------------|
G:-5---------------5---------------------------5--------------¦-----------------¦5------10------|
C:---3-0----8/-------3-0---8/-0-0-0-0-0-0-0-0----3-0---8/-0-0-¦1st time---------¦--3-0~----8-0~-|
 x2

GUITAR 1 & 2

D:----------------------------------------------------------------------------------------------|
A:--------10/--------10/-----10/-------10/------------10/------------10/--------1010101010------|
F:----------------------------------------------------------------------------------------------|
C:--------8/---------8/------8/--------8/-------------8/-------------8/---------8-8-8-8-8-------|
G:-5----------5---------5---------5--------5-----5--------5-----5---------5---------------------|
C:---3-0--------3-0-------3-0-------3-0------3-0---3-0------3-0---3-0-------3-0-----------------|
 x2 (G1)

THEN GUITAR 2 PLAYS

D:----------------------------------------------------------------------------------------------|
A:----------------------------------------------------------------------------------------------|
F:----------------------------------------------------------------------------------------------|
C:--------7/----------7/--------7/--------7/-------------7/-------------7/---------7-7-7-7-7----|
G:-5------------5---------5---------5--------5-----5--------5-----5---------5-------------------|
C:---3-0--8/------3-0-8/----3-0-8/----3-0-8/---3-0---3-0-8/---3-0---3-0-8/----3-0--8-8-8-8-8----|

VERSE
GUITAR 1 & 2

D:-0~-------------------------------------------------------------------------------------------|
A:-0~-------------------------------------------------------------------1010101010--------------|
F:-0~-------------------------------------------------------------------------------------------|
C:-0~-------------------------------------------------------------------8-8-8-8-8--0------------|
G:-0~------------------------------------------------------------------------------0------------|
C:-0~------------------------------------------------------------------------------0------------|

GUITAR 1

D:----------------------------------------------------------------------------------------------|
A:----------------------------------------------------------------------------------------------|
F:----------------------------------------------------------------------------------------------|
C:-0-3-0-8/--0-3-0-8/--0-3-0-8/--0-3-0-8/--0-3-0--0-3-0-8/--0-3-0--0-3-0-8-8-8-8-8--------------|
G:-0-3-0-8/--0-3-0-8/--0-3-0-8/--0-3-0-8/--0-3-0--0-3-0-8/--0-3-0--0-3-0-8-8-8-8-8--------------|
C:-0-3-0-8/--0-3-0-8/--0-3-0-8/--0-3-0-8/--0-3-0--0-3-0-8/--0-3-0--0-3-0-8-8-8-8-8--------------|

GUITAR 2

D:--------------------10--10--10--13--12--10--10--10--------------------------------------------|
A:--Strum16ths--------10--11--10--10--10--10--11--10--------------------------------------------|
F:--------------------10--10--10--10--10--10--10--12--------------------------------------------|
C:--------------------12--12--12--12--12--12--12--12--------------------------------------------|
G:----------------------------------------------------------------------------------------------|
C:----------------------------------------------------------------------------------------------|

PRE-CHORUS
GUITAR 1 & 2

D:----------------------------------------------------------------------------------------------|
A:----------------------------------------------------------------------------------------------|
F:----------------------------------------------------------------------------------------------|
C:-0----------------------0----------0--0-------------------------------------------------------|
G:-0----------------------0----------0--0-------------------------------------------------------|
C:-0--x-x-x-x-x-x-x-x-x-x-0--x-x-x-x-0--0-x-x-x-x-x-x-x-x---------------------------------------|
 x2

GUITAR 1

D:----------------------------------------------------------------------------------------------|
A:----------------------------------------------------------------------------------------------|
F:----------------------------------------------------------------------------------------------|
C:-0~-------0-0~----7-7~-----12~------12----11--11------12~-------7~----------------------------|
G:-0~-------0-0~----3-3~-----8~-------8-----7---7-------10~-------5~--------5~--------5~--------|
C:-0~-------0-0~----3-3~-----8~-------8-----7---7-------8~--------3~--------0~--------0~--------|

GUITAR 2

D:-----8/10\8-6-5h6p5---5--------------------17-------15-------12h13p12-------------------------|
A:---6----------------8---8-6-5-----------------------------------------15-13-11/10-------------|
F:-9----------------------------7-5-7-/14h15----14h15----14h15----------------------12-10-------|
C:----------------------------------------------------------------------------------------------|
G:----------------------------------------------------------------------------------------------|
C:----------------------------------------------------------------------------------------------|
 x2

D:---------------|
A:---------------|
F:---------------|
C:---------------|
G:-0000----------|
C:-0000-0-xx-0-0-|
   ....

CHORUS
GUITAR 1

D:----------------------------------------------------------------------------------------------|
A:----------------------------------------------------------------------------------------------|
F:----------------------------------------------------------------------------------------------|
C:-12121212121212127-7-7-7-7-7-7-7-7-7-7-7-7-7-7-7-7-7-7-7-7-7-7-7-7----------------------------|
G:-10101010101010105-5-5-5-5-5-5-5-5-5-5-5-5-5-5-5-5-5-5-5-5-5-5-5-5----------------------------|
C:-8-8-8-8-8-8-8-8-3-3-3-3-3-3-3-3-3-0-0-0-0-0-0-0-0-3-3-3-3-3-3-3-3----------------------------|
 x2

GUITAR 2

D:-0---0------0----------5p0-----0----0---0-----0-------0-------8/10----------------------------|
A:---6----------6------6-----6----------6---------6-------6----------8--------------------------|
F:-------5--------5------------7---5--------5-------5-------5-----------------------------------|
C:----------8-------7-------------------------0-------0-------0---------------------------------|
G:----------------------------------------------------------------------------------------------|
C:----------------------------------------------------------------------------------------------|
 x2

D:----------------------------------------------------------------------------------------------|
A:-17-------------------------------------------------------------------------------------------|
F:-17-------------------------------------------------------------------------------------------|
C:-15-------------------------------------------------------------------------------------------|
G:----------------------------------------------------------------------------------------------|
C:----------------------------------------------------------------------------------------------|

SECOND VERSE
GUITAR 1

D:----------------------------------------------------------------------------------------------|
A:----------------------------------------------------------------------------------------------|
F:---9-9-9-9-9-----9-9-9-9-9-9------------------------------------------------------------------|
C:-------------------------------------7-7------------------------------------------------------|
G:---8-8-8-8-8-----8-8-8-8-8-8---------------------8-8------------------------------------------|
C:-0-----------0-0-------------0-0-0~------8-8-5-5----------------------------------------------|
 x2
               .               . .
GUITAR 2

D:------------------------------------------------------|----------------------------------------|
A:------------------------------------------------------|-2nd-time-------------------------------|
F:------------------------------------------------------|----------------------------------------|
C:------------------------------------7-7---------------|-10-10----------------------------------|
G:-------------------------------------------------8-8--|------------------12-12-----------------|
C:-0-----------0--0------------0-0-0~------8-8-5-5------|------12-12-10-10-----------------------|
               .               . .
GUITAR 1 & 2

D:----------------------------------------------------------------------------------------------|
A:----------------------------------------------------------------------------------------------|
F:----------------------------------------------------------------------------------------------|
C:-0~-----------0-0-0-0~-------0~---------------------------------------------------------------|
G:-0~-----------0-0-0-0~-------0~---------------------------------------------------------------|
C:-0~-----------0-0-0-0~-------0~---------------------------------------------------------------|

INTRO REPEAT

GUITAR 1

D:----------------------------------------------------------------------------------------------|
A:-------------------------------------------------------------10-10---10---10------------------|
F:----------------------------------------------------------------------------------------------|
C:-------7---------------7---------------------------7---------8--8----8----8-------------------|
G:-5---------------5---------------------------5------------------------------------------------|
C:---3-0----8/-------3-0---8/-0-0-0-0-0-0-0-0----3-0---8/-0-0-----------------------------------|

VERSE 3

GUITAR 1

D:----------------------------------------------------------------------------------------------|
A:----------------------------------------------------------------------------------------------|
F:----------------------------------------------------------------------------------------------|
C:-0-3-0-8/--0-3-0-8/--0-3-0-8/--0-3-0-8/--0-3-0--0-3-0-8/--0-3-0--0-3-0-8-8-8-8-8--------------|
G:-0-3-0-8/--0-3-0-8/--0-3-0-8/--0-3-0-8/--0-3-0--0-3-0-8/--0-3-0--0-3-0-8-8-8-8-8--------------|
C:-0-3-0-8/--0-3-0-8/--0-3-0-8/--0-3-0-8/--0-3-0--0-3-0-8/--0-3-0--0-3-0-8-8-8-8-8--------------|

GUITAR 2

D:--------------------10--10--10--13--12--10--10--10--------------------------------------------|
A:--Strum16ths--------10--11--10--10--10--10--11--10--------------------------------------------|
F:--------------------10--10--10--10--10--10--10--12--------------------------------------------|
C:--------------------12--12--12--12--12--12--12--12--------------------------------------------|
G:----------------------------------------------------------------------------------------------|
C:----------------------------------------------------------------------------------------------|

END OF VERSE 3

GUITAR 1 & 2

D:------------------------|
A:------------------------|
F:------------------------|
C:----3-------------------|
G:----7-------------------|
C:-0----0000-0-00-0-0-----|
	....   ..

CHORUS REPEAT
--------------

BRIDGE

GUITAR 1

D:-----------------------------------------------------|
A:-----------------------------------------------------|
F:-----------------------------------------------------|
C:-12~-------7~--------7~--------7~--------------------|
G:-10~-------5~--------5~--------5~--------------------|
C:-8~--------3~--------0~--------0~--------------------| x2
Ring all chords out

GUITAR 2

D:-0---0------0----------5p0-----0----0---0-----0-------0-------8/10----------------------------|
A:---6----------6------6-----6----------6---------6-------6----------8--------------------------|
F:-------5--------5------------7---5--------5-------5-------5-----------------------------------|
C:----------8-------7-------------------------0-------0-------0---------------------------------|
G:----------------------------------------------------------------------------------------------|
C:----------------------------------------------------------------------------------------------|x2

GUITAR 1

D:----------------------------------------------------------|
A:----------------------------------------------------------|
F:----------------------------------------------------------|
C:-2--2--2--2--2--2--7--7--7--7-----------------------------|
G:-3--3--3--3--3--3--8--8--8--8-----------------------------|
C:-2--2--2--2--2--2--7--7--7--7-----------------------------|

GUITAR 2

D:---------8---------------12\------------------------------|
A:----8------8-------13-------------------------------------|
F:-10---10-----10/14----14----------------------------------|
C:----------------------------------------------------------|
G:----------------------------------------------------------|
C:----------------------------------------------------------|

OUTRO

GUITAR 1

D:----------------------------------------------------------|
A:----------------------------------------------------------|
F:----------------------------------------------------------|
C:-0------0-0-----0-----0-0---------------------------------|
G:-0------0-0-----0-----0-0---------------------------------|
C:-0------0-0-----0-----0-0---------------------------------|

GUITAR 2

D:----------17-------------17--------------------------17-------------17---------------------|
A:-----------------------------------------------------------------------------------13------|
F:-19----------15--19---------15----------12--19----------15--19---------15-12-14-15---------|
C:----15\12----------15\12-------12-14-15--------15\12-----------15\12-----------------------|
G:-------------------------------------------------------------------------------------------|
C:-------------------------------------------------------------------------------------------|
comments
We did not receive enough feedback on this tab! Please rate:
print report bad tab
1 2 3 4 5
I want to post or [tab]
guest
You may want to rate the tab now too:
select rating
Please do not post tabs as comments. Select "correction" instead!