Oops, an error
Loading. Please wait.

Someone Like You Tab

65,916 views 85 this week
2 commentsread comments
1 2 3 4 5
excellent!
x 6
Autoscroll
+/-
esc
set tempo
stop
Difficulty
intermediate
Hey! There's an official Ultimate Guitar app which is ideal
for learning songs when you're away from computer. Get the app
WARNING: You are trying to view
                                    content from Ultimate-Guitar.com
                                    in an unauthorized application,
                                    which is prohibited.

                                    Please use an official Ultimate
                                    Guitar Tabs application for iPhone,
                                    iPad or Android to access legitimate
                                    chords, guitar, bass, and drum tabs
                                    from Ultimate-Guitar.com database.

                                    Type "ultimate guitar tabs" in Apple
                                    App Store's or Android Market's
                                    search to find the application.
So I found the original tab for this difficult to play as it changed what string
you played it on, so I moved it down to the D, G and B strings to make it easier
to play. I also have a capo on the 4th fret so I can see where I'm playing better,
and so I can play some other parts along with this, but it's not needed. Here is
it without the capo, I'll let you figure it out with:

e|------------------------------------------------------------------|
B|------5-------5-------5-------5-------5-------5-------5-------5---|
G|----6---6---6---6---6---6---6---6---6---6---6---6---6---6---6---6-|
D|--7-------7-------7-------7-------6-------6-------6-------6-------|
A|------------------------------------------------------------------|
E|------------------------------------------------------------------|

e|------------------------------------------------------------------|
B|------7-------7-------7-------7-------7-------7-------7-------7---|
G|----6---6---6---6---6---6---6---6---7---7---7---7---7---7---7---7-|
D|--7-------7-------7-------7-------7-------7-------7-------7-------|
A|------------------------------------------------------------------|
E|------------------------------------------------------------------|

That's what the piano does, but I play it differently. I add a ska-ish rhythm to
that. It gives it more power, but it still works wit the song. For this I put my
capo on the 5th fret so I can use my fingers more wisely, as I only have four (I'm
not using my thumb). I alternate between playing an A with the 5th (A simple power
chord) and playing the parts above as chords. I keep my fingers on all notes, like
this (from capo):

---1st---2nd---3rd---4th---|
e|--0--|--0--|--0--|--0----|
B|--0--|--0--|--0--|--0----|
G|--1--|--1--|--2--|--2----|
D|--2--|--1--|--1--|--2----|
A|--2--|--2--|--2--|--2----|
E|--0--|--0--|--0--|--0----|

I alternate playing the lowest two string (E and A) and playing the entire chord
(I up strum for the whole chord). The order I play it in is

e|------0-----0---0-|
B|------0-----0---0-|
G|------1-----1---1-|
D|------2-----2---2-|
A|--2-2-2-2-2-2-2-2-|
E|--0-0-0-0-0-0-0-0-|

e|------0-----0---0-|
B|------0-----0---0-|
G|------1-----1---1-|
D|------1-----1---1-|
A|--2-2-2-2-2-2-2-2-|
E|--0-0-0-0-0-0-0-0-|

e|------0-----0---0-|
B|------0-----0---0-|
G|------2-----2---2-|
D|------1-----1---1-|
A|--2-2-2-2-2-2-2-2-|
E|--0-0-0-0-0-0-0-0-|

e|------0-----0---0-|
B|------0-----0---0-|
G|------2-----2---2-|
D|------2-----2---2-|
A|--2-2-2-2-2-2-2-2-|
E|--0-0-0-0-0-0-0-0-|

Keep in mind that this isn't how they play it in the song, this is just my
creative interpretation. It might sound better with different bass chords, but
this sounds decent without. If you could get more people to play, have someone
play just the bass A chord (Or have them do something better), have one person do
the piano part, and have another do the chords. I haven't had a chance to do that
but I think it would sound nice.

Also, I'm not sure if it has different parts later, but it might. I don't know
them, but I could figure it out.

You can E-mail me at ellfanzo@gmail.com for questions, recommendations, etc.
comments
print report bad tab
2 comments total.
0 reply
vanbeh wrote on June 1 2012, 07:16 am

Someone Like You tab.

Show Details
Intro:

E:------------------------------------------------------|
B:--------5-----------5-----------5-----------5---------|
G:-----6-----6-----6-----6-----6-----6-----6-----6------|
D:--7-----------7-----------7-----------7---------------|
A:--0---------------------------------------------------|
E:------------------------------------------------------|

E:---------------------------------------------------------|
B:--------5-----------5-----------5-----------5------------|
G:-----6-----6-----6-----6-----6-----6-----6-----6---------|
D:--6-----------6-----------6-----------6------------------|
A:---------------------------------------------------------|
E:--4------------------------------------------------------|

E:--------2-----------2-----------2-----------2------------|
B:-----2-----2-----2-----2-----2-----2-----2-----2---------|
G:---------------------------------------------------------|
D:--4-----------4-----------4-----------4------------------|
A:---------------------------------------------------------|
E:--2------------------------------------------------------|

E:--------2-----------2-----------2-----------2------------|
B:-----3-----3-----3-----3-----3-----3-----3-----3---------|
G:--2-----------2-----------2-----------2------------------|
D:--0------------------------------------------------------|
A:---------------------------------------------------------|
E:---------------------------------------------------------|

Verse:

E:------------------------------------------------------|
B:--------5-----------5-----------5-----------5---------|
G:-----6-----6-----6-----6-----6-----6-----6-----6------|
D:--7-----------7-----------7-----------7---------------|
A:--0---------------------------------------------------|
E:------------------------------------------------------|

E:---------------------------------------------------------|
B:--------5-----------5-----------5-----------5------------|
G:-----6-----6-----6-----6-----6-----6-----6-----6---------|
D:--6-----------6-----------6-----------6------------------|
A:---------------------------------------------------------|
E:--4------------------------------------------------------|

E:--------2-----------2-----------2-----------2------------|
B:-----2-----2-----2-----2-----2-----2-----2-----2---------|
G:---------------------------------------------------------|
D:--4-----------4-----------4-----------4------------------|
A:---------------------------------------------------------|
E:--2------------------------------------------------------|

E:--------2-----------2-----------2-----------2------------|
B:-----3-----3-----3-----3-----3-----3-----3-----3---------|
G:---------------------------------------------------------|
D:--4-----------4-----------4-----------4------------------|
A:--5------------------------------------------------------|
E:---------------------------------------------------------|

Repeat Verse pattern 3x except the last stanza with 1st Variation before Refrain:

1st Variation:

E:--------2-----------2-----------2-----------2------------|
B:---------------------------------------------------------|
G:-----2-----2-----2-----2-----2-----2-----2-----2---------|
D:--4-----------4-----------4-----------4------------------|
A:--5------------------------------------------------------|
E:---------------------------------------------------------|

Refrain:

E:--------0-----------0-----------0-----------0------------|
B:---------------------------------------------------------|
G:-----1-----1-----1-----1-----2-----2-----2-----2---------|
D:--4-----------4-----------4-----------4------------------|
A:---------------------------------------------------------|
E:--0-----------------------2------------------------------|

E:------------------------------------------------------|
B:--------3-----------3-----------3-----------3---------|
G:-----2-----2-----2-----2-----2-----2-----2-----2------|
D:--4-----------4-----------4-----------4---------------|
A:--5---------------------------------------------------|
E:------------------------------------------------------|

Repeat Refrain pattern 2x except last stanza with 2nd Variation before Chorus:

2nd Variation:

E:--------2-----------2-----------0-----------0-----------2-----------2-|
B:----------------------------------------------------------------------|
G:-----2-----2-----2-----2-----1-----1-----1-----1-----2-----2-----2----|
D:--4-----------4-----------4-----------4-----------4-----------4-------|
A:--5-------------------------------------------------------------------|
E:----------------------------------------------------------------------|

Chorus:

E:--------------------5-----------4-----------4---------|
B:-----2-----2-----2-----2-----0-----0-----0-----0------|
G:--2-----2-----2-----------1-----------1---------------|
D:------------------------------------------------------|
A:--0---------------------------------------------------|
E:----------------------

0 reply
vanbeh wrote on June 1 2012, 07:25 am

Chorus:

E:--------------------5-----------4-----------4---------|
B:-----2-----2-----2-----2-----0-----0-----0-----0------|
G:--2-----2-----2-----------1-----------1---------------|
D:------------------------------------------------------|
A:--0---------------------------------------------------|
E:--------------------------0---------------------------|

E:--------5-----------5-----------5-----------5------------|
B:-----2-----2-----2-----2-----3-----3-----3-----3---------|
G:--2-----------2-----------2-----------2------------------|
D:--------------------------0------------------------------|
A:---------------------------------------------------------|
E:--2------------------------------------------------------|

3rd Variation Chorus:Repeat 2x
E:--------5-----------5-----------4-----------4---------|
B:-----2-----2-----2-----2-----5-----5-----5-----5------|
G:--2-----------2-----------4-----------4---------------|
D:------------------------------------------------------|
A:--0---------------------------------------------------|
E:--------------------------0---------------------------|

E:--------5-----------5-----------5-----------5------------|
B:-----2-----2-----2-----2-----3-----3-----3-----3---------|
G:--2-----------2-----------2-----------2------------------|
D:--------------------------0------------------------------|
A:---------------------------------------------------------|
E:--2------------------------------------------------------|

4th Variation Chorus:

E:--------5-----------5-----------4-----------4---------|
B:-----2-----2-----2-----2-----5-----5-----5-----5------|
G:--2-----------2-----------4-----------4---------------|
D:------------------------------------------------------|
A:--0---------------------------------------------------|
E:--------------------------0---------------------------|

E:--------2-----------2-----------2-----------2------------|
B:-----2-----2-----2-----2-----3-----3-----3-----3---------|
G:--2-----------2-----------2-----------2------------------|
D:--------------------------0------------------------------|
A:---------------------------------------------------------|
E:--2------------------------------------------------------|

E:--------0-----------0-----------0-----------0---------|
B:-----2-----2-----2-----2-----0-----0-----0-----0------|
G:--2-----------2-----------1-----------1---------------|
D:------------------------------------------------------|
A:--0---------------------------------------------------|
E:--------------------------0---------------------------|

E:--------2-----------2-----------2-----------2-----|
B:-----2-----2-----2-----2-----3-----3-----3-----3--|
G:--2-----------2-----------2-----------2-----------|
D:--------------------------0-----------------------|
A:--------------------------------------------------|
E:--2-----------------------------------------------|

E:--------2-----------2-----------|
B:-----3-----3-----3-----3--------|
G:--2-----------2-----------------|
D:--------------------------------|
A:--------------------------------|
E:--------------------------------|

Repeat Verse,Refrain,Chorus and Variation patterns for Verse 2:

5th Variation Refrain:

E:--------0-----------0-----------0-----------0------------|
B:---------------------------------------------------------|
G:-----1-----1-----1-----1-----2-----2-----2-----2---------|
D:--4-----------4-----------4-----------4------------------|
A:---------------------------------------------------------|
E:--0-----------------------2------------------------------|

E:------------------------------------------------------|
B:--------3-----------3-----------3-----------3---------|
G:-----2-----2-----2-----2-----2-----2-----2-----2------|
D:--4-----------4-----------4-----------4---------------|
A:--5---------------------------------------------------|
E:------------------------------------------------------|

E:--------0-----------0-----------0-----------0------------|
B:---------------------------------------------------------|
G:-----1-----1-----1-----1-----2-----2-----2-----2---------|
D:--4-----------4-----------4-----------4------------------|
A:---------------------------------------------------------|
E:--0-----------------------2------------------------------|

E:--------------------------------0-----------0-----------2-----------2---|
B:--------3-----------3---------------------------------------------------|
G:-----2-----2-----2-----2-----1-----1-----1-----1-----2-----2-----2-----2|
D:--4-----------4-----------4-----------4-----------4-----------4---------|
A:--5---------------------------------------------------------------------|
E:------------------------------------------------------------------------|

E:--------4-----------4----------|
B:---------------- ---------------|
G:-----4-----4-----4-----4-------|
D:--4-----------4----------------|
A:-------------------------------|
E:-------------------------------|

I want to post or [tab]
guest
You may want to rate the tab now too:
select rating
Please do not post tabs as comments. Select "correction" instead!