Oops, an error
Loading. Please wait.

Grow Up Peter Pan Tab

ver1
ver1

Whole song

Interactive

More versions @911Tabs.com
9,853 views 24 this week
no commentswrite comment
1 2 3 4 5
excellent!
x 4
Autoscroll
+/-
esc
set tempo
stop
Contributor
Hey! There's an official Ultimate Guitar app which is ideal
for learning songs when you're away from computer. Get the app
WARNING: You are trying to view
                                    content from Ultimate-Guitar.com
                                    in an unauthorized application,
                                    which is prohibited.

                                    Please use an official Ultimate
                                    Guitar Tabs application for iPhone,
                                    iPad or Android to access legitimate
                                    chords, guitar, bass, and drum tabs
                                    from Ultimate-Guitar.com database.

                                    Type "ultimate guitar tabs" in Apple
                                    App Store's or Android Market's
                                    search to find the application.
-------------------------------------------------------------------------------
                             Grow up Peter Pan - Adept
-------------------------------------------------------------------------------
Tabbed by: Roooger
Email: Robin.G-92@hotmail.com

Tuning: Drop D

Hi, this is my first tab!
Enjoy!





[Guitar 1]

Intro

e|---------------------------------------------------------------------------|
B|---------------------------------------------------------------------------|
G|-13h14p13---------------------13h14p13-------------------------------------|
D|-------------14----14-14s16---------------14----14-14s12---12-12-12--12s14-|
A|----------16----16---------------------16----16----------------------------|
D|---------------------------------------------------------------------------|

Verse x2

e|---------------------------------------------------------------------------|
B|---------------------------------------------------------------------------|
G|-14-13h14-14-13-13h14p16-----14-13h14-13h14p13-----------------------------|
D|-------------------------14-----------------------14----14-14s12-----------|
A|-----------------------------------------------16----16--------------------|
D|---------------------------------------------------------------------------|

e|---------------------------------------------------------------------------|
B|----------------17-------17------------------------------------------------|
G|-14-13h14-13-14----13-14----14-----14-13h14-13h14p13----13h14p13-----------|
D|-------------------------------14--------------------14-----------14--(16)*|
A|---------------------------------------------------------------------------|
D|---------------------------------------------------------------*Secondtime-|

Riff 1

e|---------------------------------------------------------------------------|
B|---------------------------------------------------------------------------|
G|-11-11-11--14--14-14-14-14-14-14-14-14-14--13-13-13-13-13-13---------------|
D|---------------------------------------------------------------------------|
A|---------------------------------------------------------------------------|
D|---------------------------------------------------------------------------|

e|---------------------------------------------------------------------------|
B|---------------------------------------------------------------------------|
G|-14-13----16-14-13----14-13-----------18-14p13-13-14--13----13-------------|
D|-------14----------14-------14--14h16--------------------14----------------|
A|---------------------------------------------------------------------------|
D|---------------------------------------------------------------------------|

e|---------------------------------------------------------------------------|
B|---------------------------------------------------------------------------|
G|-14-13----16-14-13----14-13----14-13----------------14~~~--16~~~-----------|
D|-------14----------14-------14-------14----14----14------------------------|
A|----------------------------------------16----16---------------------------|
D|---------------------------------------------------------------------------|

Chorus x2

e|---------------------------------------------------------------------------|
B|-17-14-15-14----14-17-14-15-14----14-17-14-15-14---------------------------|
G|-------------16----------------16------------------------------------------|
D|---------------------------------------------------------------------------|
A|---------------------------------------------------------------------------|
D|---------------------------------------------------------------------------|

e|---------------------------------------------------------------------------|
B|-17-14-15-14----14-17-14-15-14----14--14h15p14-----------------------------|
G|-------------16----------------16--------------16-14-----------------------|
D|---------------------------------------------------------------------------|
A|---------------------------------------------------------------------------|
D|---------------------------------------------------------------------------|

Riff 2

e|---------------------------------------------------------------------------|
B|---------------------------------------------------------------------------|
G|-11-11-11--14--14-14-14-14-14-14-14-14-14--13-13-13-13-13-13---------------|
D|---------------------------------------------------------------------------|
A|---------------------------------------------------------------------------|
D|---------------------------------------------------------------------------|

e|---------------------------------------------------------------------------|
B|---------------------------------------------------------------------------|
G|-14-13----16-14-13-----14-13-----------18-16p14-13-14-13----13-------------|
D|-------14----------14--------14--14h16-------------------14----------------|
A|---------------------------------------------------------------------------|
D|---------------------------------------------------------------------------|

e|---------------------------------------------------------------------------|
B|---------------------------------------------------------------------------|
G|-14-13----14-13-14--14-14-14-14-14-14-14-14--x2---16-16-16-16--x2----------|
D|-------14------------------------------------------------------------------|
A|---------------------------------------------------------------------------|
D|---------------------------------------------------------------------------|

e|---------------------------------------------------------------------------|
B|---------------------------------------------------------------------------|
G|-13h14p13------------------------------------------------------------------|
D|-------------14----14-14---------------------------------------------------|
A|----------16----16---------------------------------------------------------|
D|---------------------------------------------------------------------------|

Verse 2 x2

e|---------------------------------------------------------------------------|
B|---------------------------------------------------------------------------|
G|-14-13h14-14-13-13h14p16-----14-13h14-13h14p13-----------------------------|
D|-------------------------14-----------------------14----14-14s12-----------|
A|-----------------------------------------------16----16--------------------|
D|---------------------------------------------------------------------------|

e|---------------------------------------------------------------------------|
B|----------------17-------17--------------------------------------(17)------|
G|-14-13h14-13-14----13-14----14-----14-13h14-13h14p13----13h14p13-----------|
D|-------------------------------14--------------------14----------------11*-|
A|---------------------------------------------------------------------------|
D|---------------------------------------------------------------*Secondtime-|
                                                                 (Pitch bend)

Bridge

e|---------------------------------------------------------------------------|
B|---------------------------------------------------------------------------|
G|-13h14p13--13h14p13--9--13h14p13--13h14p13--11-----------------13h14p13--11|
D|-------------------------------------------------7-7-6--7-7----------------|
A|------------------------------------------------------------9--------------|
D|---------------------------------------------------------------------------|

e|---------------------------------------------------------------------------|
B|---------------------------------------------------------------------------|
G|-13h14p13--13h14p13--9--13h14p13--13h14p13--11--[11-11-11-11-13-11-13-14]--|
D|------------------------------------------------------------x3-------------|
A|---------------------------------------------------------------------------|
D|---------------------------------------------------------------------------|

e|---------------------------------------------------------------------------|
B|---------------------------------------------------------------------------|
G|-11-11-16-11-14-11--13h14p13-----------------------------------------------|
D|-----------------------------16--------------------------------------------|
A|---------------------------------------------------------------------------|
D|---------------------------------------------------------------------------|

Chorus 2

e|---------------------------------------------------------------------------|
B|-17-14-15-14----14-17-14-15-14----14-17-14-15-14---------------------------|
G|-------------16----------------16------------------------------------------|
D|---------------------------------------------------------------------------|
A|---------------------------------------------------------------------------|
D|---------------------------------------------------------------------------|

e|---------------------------------------------------------------------------|
B|-17-14-15-14----14-17-14-15-14----14--14h15p14-----------------------------|
G|-------------16----------------16--------------16-14-----------------------|
D|---------------------------------------------------------------------------|
A|---------------------------------------------------------------------------|
D|---------------------------------------------------------------------------|

e|---------------------------------------------------------------------------|
B|-17-14-15-14----14-17-14-15-14----14-17-14-15-14---------------------------|
G|-------------16----------------16------------------------------------------|
D|---------------------------------------------------------------------------|
A|---------------------------------------------------------------------------|
D|---------------------------------------------------------------------------|

e|---------------------------------------------------------------------------|
B|-17-14-15-14----14-17-14-15-14----14---------------------------------------|
G|-------------16----------------16-----14-16-13-14--------------------------|
D|---------------------------------------------------------------------------|
A|---------------------------------------------------------------------------|
D|---------------------------------------------------------------------------|

Bridge 2

e|---------------------------------------------------------------------------|
B|---------------------------------------------------------------------------|
G|---------------------------------------------------------------------------|
D|-0--00--0-------------4--44--4--444--22222222----0--00--0------------------|
A|-0--00--0-------------4--44--4--444--22222222----0--00--0------------------|
D|-0--00--0--444444444--4--44--4--444--22222222----0--00--0--444444444-------|
             xxxxxxxxx                                       xxxxxxxxx

e|---------------------------------------------------------------------------|
B|-------------------------------------------------------------------17-14---|
G|-14-14-14-14-14-14-14-14-14--13-13-13-13-13-13-13---14-13h14-13h14---------|
D|---------------------------------------------------------------------------|
A|---------------------------------------------------------------------------|
D|---------------------------------------------------------------------------|

e|---------------------------------------------------------------------------|
B|------------------------------------------------------------17-14----------|
G|-14-13------14-13h14--16p14-14-13h14p13------14-13h14-13h14-------14-13----|
D|-------16-------------------------------16---------------------------------|
A|---------------------------------------------------------------------------|
D|---------------------------------------------------------------------------|

e|---------------------------------------------------------------------------|
B|-----------------------17----15----14----15--------------------------------|
G|-16-16-16-16-16-16---------------------------------------------------------|
D|--------------------16----16----16----16-----------------------------------|
A|---------------------------------------------------------------------------|
D|---------------------------------------------------------------------------|

Riff 3

e|---------------------------------------------------------------------------|
B|-------------17-14---------------------------------------------------------|
G|----------14--------------16----14-----13h14p13h14--------13----14---------|
D|-16-16-16-----------16-16----16----16---------------12-12----12----12-12-12|
A|---------------------------------------------------------------------------|
D|---------------------------------------------------------------------------|

e|---------------------------------------------------------------------------|
B|-17----15----14----15---------------17-14----------------------------------|
G|---------------------------------14-------------16----14--13h14p13h14------|
D|----16----16----16------16-16-16----------16-16----16----------------------|
A|---------------------------------------------------------------------------|
D|---------------------------------------------------------------------------|

e|---------------------------------------------------------------------------|
B|-------------------------17-15-14h15p14h15---------------------------------|
G|-------13----14------------------------------------------------------------|
D|-12-12----12----12-12-12---------------------------------------------------|
A|---------------------------------------------------------------------------|
D|---------------------------------------------------------------------------|

Outro

e|---------------------------------------------------------------------------|
B|-[17--------------------17-15-14-15]---x4----------------------------------|
G|----14-13h14p13h14--x3----------------------14~~~~~~-----------------------|
D|---------------------------------------------------------------------------|
A|---------------------------------------------------------------------------|
D|---------------------------------------------------------------------------|





[Guitar 2]

Intro

e|---------------------------------------------------------------------------|
B|---------------------------------------------------------------------------|
G|----14-13-14--16-14-13-14--------------------------------------------------|
D|-4-------------------------X2--0--2----------------------------------------|
A|-4-----------------------------0--2----------------------------------------|
D|-4-----------------------------0--2----------------------------------------|

Verse 1

e|---------------------------------------------------------------------------|
B|---------------------------------------------------------------------------|
G|---------------------------------------------------------------------------|
D|-4-4444444--4-4444444--0-0000000--2-2222222--------------------------------|
A|-4-4444444--4-4444444--0-0000000--2-2222222--X2----------------------------|
D|-4-4444444--4-4444444--0-0000000--2-2222222--------------------------------|

Riff 1

e|---------------------------------------------------------------------------|
B|---------------------------------------------------------------------------|
G|---------------------------------------------------------------------------|
D|-44--44--444--7-77777777--999999---44--44--444--0-0000000--222222----------|
A|-44--44--444--7-77777777--999999---44--44--444--0-0000000--222222----------|
D|-44--44--444--7-77777777--999999---44--44--444--0-0000000--222222----------|

e|---------------------------------------------------------------------------|
B|---------------------------------------------------------------------------|
G|---------------------------------------------------------------------------|
D|-44--44--444--7-77777777--99999--------------------------------------------|
A|-44--44--444--7-77777777--99999--------------------------------------------|
D|-44--44--444--7-77777777--99999--------------------------------------------|

Chorus

e|---------------------------------------------------------------------------|
B|---------------------------------------------------------------------------|
G|---------------------------------------------------------------------------|
D|-44444444-----77777777-----44444444-----22222222---------------------------|
A|-44444444-x2--77777777-x2--44444444-x2--22222222-x2-----------------------|
D|-44444444-----77777777-----44444444-----22222222---------------------------|

Riff 2

e|---------------------------------------------------------------------------|
B|---------------------------------------------------------------------------|
G|---------------------------------------------------------------------------|
D|-44----------44--------444--7-77777777--999999---44------------44----------|
A|-44----------44--------444--7-77777777--999999---44------------44----------|
D|-44-444444---44-44444--444--7-77777777--999999---44--4--4--4---44--4--4--4-|
      xxxxxx      xxxxx                                x  x  x       x  x  x

e|---------------------------------------------------------------------------|
B|---------------------------------------------------------------------------|
G|---------------------------------------------------------------------------|
D|-444--0-0000000--222222---44--11-9------------44-4--11-9-11---0--2---------|
A|-444--0-0000000--222222---44-------11-999999--44-4------------0--2---------|
D|-444--0-0000000--222222---44------------------44-4------------0--2---------|

Verse 2

e|---------------------------------------------------------------------------|
B|---------------------------------------------------------------------------|
G|---------------------------------------------------------------------------|
D|-4-4444444--4-4444--9h11p9--------------0-0000000--2-2222222---------------|
A|-4-4444444--4-4444------------11----11--0-0000000--2-2222222---------------|
D|-4-4444444--4-4444---------14----14-----0-0000000--2-2222222---------------|

e|---------------------------------------------------------------------------|
B|---------------------------------------------------------------------------|
G|---------------------------------------------------------------------------|
D|-4-4444444--4-4444444--0-0000000--2-2222222--------------------------------|
A|-4-4444444--4-4444444--0-0000000--2-2222222--x2----------------------------|
D|-4-4444444--4-4444444--0-0000000--2-2222222--------------------------------|

Bridge

e|---------------------------------------------------------------------------|
B|---------------------------------------------------------------------------|
G|---------------------------------------------------------------------------|
D|-0~~---2~~---4~~---7~~---0~~---2~~---4~~---7~~---0-------------------------|
A|-0~~---2~~---4~~---7~~---0~~---2~~---4~~---7~~---0-------------------------|
D|-0~~---2~~---4~~---7~~---0~~---2~~---4~~---7~~---0-------------------------|

Chorus 2

e|---------------------------------------------------------------------------|
B|---------------------------------------------------------------------------|
G|---------------------------------------------------------------------------|
D|-44444444------22222222------00000000------77777777------44444444----------|
A|-44444444--x2--22222222--x2--00000000--x2--77777777--x2--44444444--x2------|
D|-44444444------22222222------00000000------77777777------44444444----------|

e|---------------------------------------------------------------------------|
B|---------------------------------------------------------------------------|
G|---------------------------------------------------------------------------|
D|-22222222------------------------------------------------------------------|
A|-22222222--x2--------------------------------------------------------------|
D|-22222222------------------------------------------------------------------|

Bridge 2

e|---------------------------------------------------------------------------|
B|---------------------------------------------------------------------------|
G|---------------------------------------------------------------------------|
D|-0--00--0-------------4--44--4--444--22222222----0--00--0------------------|
A|-0--00--0-------------4--44--4--444--22222222----0--00--0------------------|
D|-0--00--0--444444444--4--44--4--444--22222222----0--00--0--444444444-------|
             xxxxxxxxx                                       xxxxxxxxx

e|---------------------------------------------------------------------------|
B|---------------------------------------------------------------------------|
G|---------------------------------------------------------------------------|
D|-22222222------------------------------------------------------------------|
A|-22222222-----X2-----------------------------------------------------------|
D|-22222222------------------------------------------------------------------|

Riff 3

e|---------------------------------------------------------------------------|
B|---------------------------------------------------------------------------|
G|---------------------------------------------------------------------------|
D|-444444--9-7-6h7p6h7--000--000---------------------------------------------|
A|-444444---------------000--000---44444444--22222222--00000000--22222222----|
D|-444444---------------000--000---------------------------------------------|

e|---------------------------------------------------------------------------|
B|---------------------------------------------------------------------------|
G|---------------------------------------------------------------------------|
D|-444444--9-7-6h7p6h7--000--000---9--7--------------------------------------|
A|-444444---------------000--000---9--7--------------------------------------|
D|-444444---------------000--000---9--7--------------------------------------|

Outro part 1

e|---------------------------------------------------------------------------|
B|---------------------------------------------------------------------------|
G|---------------------------------------------------------------------------|
D|-7~~~---4~~~---7~~~---0~~~---7~~~---4~~~---7~~~---0~~~---------------------|
A|-7~~~---4~~~---7~~~---0~~~---7~~~---4~~~---7~~~---0~~~---------------------|
D|-7~~~---4~~~---7~~~---0~~~---7~~~---4~~~---7~~~---0~~~---------------------|

Outro part 2

e|---------------------------------------------------------------------------|
B|---------------------------------------------------------------------------|
G|---------------------------------------------------------------------------|
D|-7~~~---9~~~~---7~~~-------------------------------------------------------|
A|-7~~~---7~~~----7~~~---5~~~------------------------------------------------|
D|-7~~~---7~~~----7~~~---0~~~------------------------------------------------|



| /  slide up
| \  slide down
| h  hammer-on
| p  pull-off
| ~  vibrato
| +  harmonic
| x  Mute note
=============================================================================
comments
print report bad tab
I want to post or [tab]
guest
You may want to rate the tab now too:
select rating
Please do not post tabs as comments. Select "correction" instead!