Oops, an error
Loading. Please wait.

Last Track Tab

ver2
ver2

Whole song

More versions @911Tabs.com
536 views 1 this week
no commentswrite comment
1 2 3 4 5
excellent!
x 1
add to favorites launch autoscroll
font size
0
reset
Autoscroll
+/-
esc
set tempo
stop
Contributor
WARNING: You are trying to view
                                    content from Ultimate-Guitar.com
                                    in an unauthorized application,
                                    which is prohibited.

                                    Please use an official Ultimate
                                    Guitar Tabs application for iPhone,
                                    iPad or Android to access legitimate
                                    chords, guitar, bass, and drum tabs
                                    from Ultimate-Guitar.com database.

                                    Type "ultimate guitar tabs" in Apple
                                    App Store's or Android Market's
                                    search to find the application.
------------------------------------------------------------------

     ADRIAN LEGG - LAST TRACK. From MRS. CROWE'S BLUE WALTZ album.
                   Released in 1992 by Relativity Records.

------------------------------------------------------------------

     Tabbed by:PJVillanueva


Tune your guitar half a step down (Eb Ab Db Gb Bb eB)
If you want to play it along with the recording.

e|------- ------- ------- -------|------- ------- ------- -------|
B|-------------------------------|-------------------------------|
G|-------------------------------|------------------------0------|
D|-------------------------------|-------------------------------|
A|-------------------------------|-------------------------------|
E|-------------------------------|-------------------------------|


  A1

  C                               Cmaj9
e|------- ------- ----0-- -------|------- ------- ------- -------|
B|1-----------1------------------|1------------------------------|
G|--------0---------------0------|------------0------------------|
D|-------------------------------|--------0---------------0------|
A|3---------------3--------------|2---------------2--------------|
E|-------------------------------|-------------------------------|


  C7                              Fadd9
e|------- ------- --0---- -------|------- ------- ------- -------|
B|1-----------1------------------|1------------------------------|
G|--------0---------------0------|------------0------------------|
D|-------------------------------|--------3---------------3------|
A|1---------------1--------------|0---------------0--------------|
E|-------------------------------|-------------------------------|


  Am7
e|------- ------- --0---- -------|3------ ----0-- ------- -------|
B|1-----------1------------------|--------------------1----------|
G|--------0---------------0------|--------0---------------0------|
D|-------------------------------|-------------------------------|
A|0---------------0--------------|0------------------------------|
E|-------------------------------|----------------1--------------|
                                                  T

  G
e|------- ------- ------- -------|------- ------- ------- -------|
B|-------------------------------|-------------------------------|
G|0-----------0------------------|0---------------0--------------|
D|--------0---------------0------|--------0---------------0------|
A|-------------------------------|-------------------------------|
E|3---------------3--------------|-------------------------------|


  A2

  C                               Cmaj9
e|------- ------- ----0-- -------|------- ------- ------- -------|
B|1-----------1------------------|1------------------------------|
G|--------0---------------0------|------------0------------------|
D|-------------------------------|--------0---------------0------|
A|3---------------3--------------|2---------------2--------------|
E|-------------------------------|-------------------------------|


  C7                              Fadd9
e|------- ------- --0---- -------|------- ------- ------- -------|
B|1-----------1------------------|1------------------------------|
G|--------0---------------0------|------------0------------------|
D|-------------------------------|--------3---------------3------|
A|1---------------1--------------|0---------------0--------------|
E|-------------------------------|-------------------------------|


  Am7
e|------- ------- --0---- -------|3------ ----0-- ------- -------|
B|1-----------1------------------|--------------------1----------|
G|--------0---------------0------|--------0---------------0------|
D|-------------------------------|-------------------------------|
A|0---------------0--------------|0------------------------------|
E|-------------------------------|----------------1--------------|
                                                  T

  G
e|------- ------- ------- -------|
B|-------------------------------|
G|0-----------0-------0----------|
D|--------0---------------0------|
A|-------------------------------|
E|3---------------3--------------|

  C
e|------- ------- ------- -------|------- ------- ------- -------|
B|1------------------------------|-------------------------------|
G|------------0------------------|------------0-------0-------0--|
D|--------2---------------2------|--------2---------------2------|
A|3------------------------------|3------------------------------|
E|----------------3--------------|----------------3--------------|

  B1

                                  Cmaj7
e|3------ ------- ------- -------|3------ ------- ----3-- ----/--|
B|------------1------------------|------------1------------------|
G|--------0---------------0------|--------0---------------0------|
D|-------------------------------|-------------------------------|
A|3---------------3--------------|2---------------2--------------|
E|-------------------------------|-------------------------------|


  Am7                             Am7+5
e|8------ ------- ------- -------|------- ------- ------- -------|
B|--------------------5----------|5-H-6-------6------------------|
G|------------5------------------|-------------------------------|
D|--------5---------------5------|--------5---------------5------|
A|0---------------0--------------|0---------------0--------------|
E|-------------------------------|-------------------------------|


  C                               Cmaj7
e|3------ ------- ------- -------|3------ ------- ----3-- ----/--|
B|------------1------------------|------------1------------------|
G|--------0---------------0------|--------0---------------0------|
D|-------------------------------|-------------------------------|
A|3---------------3--------------|2---------------2--------------|
E|-------------------------------|-------------------------------|


  Am7                             Am7+5
e|8------ ------- ------- -------|------- ------- ------- -------|
B|--------------------5----------|5-H-6---------------6----------|
G|------------5------------------|------------5------------------|
D|--------5---------------5------|--------5---------------5------|
A|0---------------0--------------|0---------------0--------------|
E|-------------------------------|-------------------------------|


  C                               Cmaj7
e|3------ ----0-- ------- -------|3------ ----0-- ------- -------|
B|--------------------1----------|--------------------1----------|
G|--------0---------------0------|--------0---------------0------|
D|-------------------------------|-------------------------------|
A|3---------------3--------------|2---------------2--------------|
E|-------------------------------|-------------------------------|


  Am7
e|------- ------- ------- -------|------- ------- ------- -------|
B|------------1------------------|1-------------------1----------|
G|--------0---------------0------|------------0------------------|
D|-------------------------------|--------2---------------2------|
A|0---------------0--------------|0------------------------------|
E|-------------------------------|----------------3--------------|


  D7                              Gsus4           G
e|------- ------- ------- -------|------- ------- ------- -------|
B|1-------------------1----------|1-------------------0----------|
G|------------2------------------|------------0------------------|
D|--------0---------------0------|--------0---------------0------|
A|-------------------------------|-------------------------------|
E|2---------------2--------------|3---------------3--------------|


  B2

  C                               Cmaj7
e|3------ ------- ------- -------|3------ ------- ----3-- ----/--|
B|------------1------------------|------------1------------------|
G|--------0---------------0------|--------0---------------0------|
D|-------------------------------|-------------------------------|
A|3---------------3--------------|2---------------2--------------|
E|-------------------------------|-------------------------------|


  Am7                             Am7+5
e|8------ ------- ------- -------|------- ------- ------- -------|
B|--------------------5----------|5-H-6---------------6----------|
G|------------5------------------|------------5------------------|
D|--------5---------------5------|--------5---------------5------|
A|0---------------0--------------|0---------------0--------------|
E|-------------------------------|-------------------------------|


  C                               Cmaj7
e|3------ ------- ------- -------|3------ ------- ----3-- ----/--|
B|------------1------------------|------------1------------------|
G|--------0---------------0------|--------0---------------0------|
D|-------------------------------|-------------------------------|
A|3---------------3--------------|2---------------2--------------|
E|-------------------------------|-------------------------------|


  Am7                             Am7+5
e|8------ ------- ------- -------|------- ------- ------- -------|
B|--------------------5----------|5-H-6---------------6----------|
G|------------5------------------|------------5------------------|
D|--------5---------------5------|--------5---------------5------|
A|0---------------0--------------|0---------------0--------------|
E|-------------------------------|-------------------------------|


  C                               Cmaj7
e|3------ ----0-- ------- -------|3------ ----0-- ------- -------|
B|--------------------1----------|--------------------1----------|
G|--------0---------------0------|--------0---------------0------|
D|-------------------------------|-------------------------------|
A|3---------------3--------------|2---------------2--------------|
E|-------------------------------|-------------------------------|


  Am7
e|------- ------- ------- -------|------- ------- ------- -------|
B|------------1------------------|1-------------------1----------|
G|--------0---------------0------|------------0------------------|
D|-------------------------------|--------2---------------2------|
A|0---------------0--------------|0------------------------------|
E|-------------------------------|----------------3--------------|


  D7                              Fadd9/6
e|------- ------- ------- -------|------- ------- ------- -------|
B|1-------------------1----------|1-------------------0----------|
G|------------2------------------|------------0------------------|
D|--------0---------------0------|--------0---------------0------|
A|-------------------------------|-------------------------------|
E|2---------------2--------------|1---------------1--------------|


  C                               F
e|------- ------- ------- -------|------- ------- ------- -------|
B|1-----------1------------------|1-----------1------------------|
G|0-----------0------------------|2-----------2------------------|
D|2-----------2------------------|3-----------3------------------|
A|-------------------------------|----------------0--------------|
E|0---------------0--------------|1------------------------------|


  C                               G             Gadd9 G
e|------- ------- ------- -------|------- ------- ------- -------|
B|1------------------------------|0-------------------0----------|
G|------------0------------------|------------0-H-2--------------|
D|--------2---------------0------|--------0---------------0------|
A|3---------------3--------------|-------------------------------|
E|-------------------------------|3---------------3--------------|

  C1

  C                               Cmaj7
e|0------ ----0-- ----3-- -------|0------ ------- ------- -------|
B|--------1----------------------|--------------------1----------|
G|-------------------------------|------------0------------------|
D|-------------------------------|--------2---------------2------|
A|3---------------3--------------|2---------------2--------------|
E|-------------------------------|-------------------------------|


  C7                              F
e|0------ ----0-- ----3-- -------|1------ ------- ------- -------|
B|--------1----------------------|------------1------------------|
G|-------------------------------|--------2---------------2------|
D|-------------------------------|-------------------------------|
A|1---------------1--------------|0---------------0--------------|
E|-------------------------------|-------------------------------|


                     Fadd9        C
e|1------ ----1-- ----3-- -------|0------ ------- ----0-- -------|
B|--------1---------------1------|------------1------------------|
G|-------------------------------|--------0---------------0------|
D|-------------------------------|-------------------------------|
A|0---------------0--------------|3---------------3--------------|
E|-------------------------------|-------------------------------|


  G7  G                               G7
e|1-P-0-- ------- ----0-- -------|0-H-1-- ------- ----1-- -------|
B|------------3------------------|------------3------------------|
G|--------0---------------0------|--------0---------------0------|
D|-------------------------------|-------------------------------|
A|-------------------------------|-------------------------------|
E|3---------------3--------------|3---------------3--------------|


  C2

  C                               Cmaj7
e|0------ ----0-- ----3-- -------|0------ ------- ------- -------|
B|--------1----------------------|--------------------1----------|
G|-------------------------------|------------0------------------|
D|-------------------------------|--------2---------------2------|
A|3---------------3--------------|2---------------2--------------|
E|-------------------------------|-------------------------------|


  C7                              F
e|0------ ----0-- ----3-- -------|1------ ------- ------- -------|
B|--------1----------------------|------------1------------------|
G|-------------------------------|--------2---------------2------|
D|-------------------------------|-------------------------------|
A|1---------------1--------------|0---------------0--------------|
E|-------------------------------|-------------------------------|


  C                               G
e|3------ ----0-- ------- -------|0------ ------- ------- -------|
B|--------------------1----------|--------------------0----------|
G|--------0---------------0------|------------0------------------|
D|-------------------------------|--------0---------------0------|
A|3---------------3--------------|-------------------------------|
E|-------------------------------|3---------------3--------------|


  C
e|------- ------- ------- -------|------- ------- ------- -------|
B|1------------------------------|-------------------------------|
G|------------0------------------|------------0------------------|
D|--------2---------------2------|--------2---------------2------|
A|3------------------------------|3------------------------------|
E|----------------3--------------|----------------3--------------|

  B1

                                  Cmaj7
e|3------ ------- ------- -------|3------ ------- ----3-- ----/--|
B|------------1------------------|------------1------------------|
G|--------0---------------0------|--------0---------------0------|
D|-------------------------------|-------------------------------|
A|3---------------3--------------|2---------------2--------------|
E|-------------------------------|-------------------------------|


  Am7                                 Am7+5
e|8------ ------- ------- -------|------- ------- ------- -------|
B|--------------------5----------|5-H-6-------6------------------|
G|------------5------------------|-------------------------------|
D|--------5---------------5------|--------5---------------5------|
A|0---------------0--------------|0---------------0--------------|
E|-------------------------------|-------------------------------|


  C                               Cmaj7
e|3------ ------- ------- -------|3------ ------- ----3-- ----/--|
B|------------1------------------|------------1------------------|
G|--------0---------------0------|--------0---------------0------|
D|-------------------------------|-------------------------------|
A|3---------------3--------------|2---------------2--------------|
E|-------------------------------|-------------------------------|


  Am7                                 Am7+5
e|8------ ------- ------- -------|------- ------- ------- -------|
B|--------------------5----------|5-H-6---------------6----------|
G|------------5------------------|------------5------------------|
D|--------5---------------5------|--------5---------------5------|
A|0---------------0--------------|0---------------0--------------|
E|-------------------------------|-------------------------------|


  C                               Cmaj7
e|3------ ----0-- ------- -------|3------ ----0-- ------- -------|
B|--------------------1----------|--------------------1----------|
G|--------0---------------0------|--------0---------------0------|
D|-------------------------------|-------------------------------|
A|3---------------3--------------|2---------------2--------------|
E|-------------------------------|-------------------------------|


  Am7
e|------- ------- ------- -------|------- ------- ------- -------|
B|------------1------------------|1-------------------1----------|
G|--------0---------------0------|------------0------------------|
D|-------------------------------|--------2---------------2------|
A|0---------------0--------------|0------------------------------|
E|-------------------------------|----------------3--------------|


  D7                              Gsus4
e|------- ------- ------- -------|------- ------- ------- -------|
B|1-------------------1----------|1-------------------0----------|
G|------------2------------------|------------0------------------|
D|--------0---------------0------|--------0---------------0------|
A|-------------------------------|-------------------------------|
E|2---------------2--------------|3---------------3--------------|


  B2

  C                               Cmaj7
e|3------ ------- ------- -------|3------ ------- ----3-- ----/--|
B|------------1------------------|------------1------------------|
G|--------0---------------0------|--------0---------------0------|
D|-------------------------------|-------------------------------|
A|3---------------3--------------|2---------------2--------------|
E|-------------------------------|-------------------------------|


  Am7                                 Am7+5
e|8------ ------- ------- -------|------- ------- ------- -------|
B|--------------------5----------|5-H-6---------------6----------|
G|------------5------------------|------------5------------------|
D|--------5---------------5------|--------5---------------5------|
A|0---------------0--------------|0---------------0--------------|
E|-------------------------------|-------------------------------|


  C                               Cmaj7
e|3------ ------- ------- -------|3------ ------- ----3-- ----/--|
B|------------1------------------|------------1------------------|
G|--------0---------------0------|--------0---------------0------|
D|-------------------------------|-------------------------------|
A|3---------------3--------------|2---------------2--------------|
E|-------------------------------|-------------------------------|


  Am7                                 Am7+5
e|8------ ------- ------- -------|------- ------- ------- -------|
B|--------------------5----------|5-H-6---------------6----------|
G|------------5------------------|------------5------------------|
D|--------5---------------5------|--------5---------------5------|
A|0---------------0--------------|0---------------0--------------|
E|-------------------------------|-------------------------------|


  C                               Cmaj7
e|3------ ----0-- ------- -------|3------ ----0-- ------- -------|
B|--------------------1----------|--------------------1----------|
G|--------0---------------0------|--------0---------------0------|
D|-------------------------------|-------------------------------|
A|3---------------3--------------|2---------------2--------------|
E|-------------------------------|-------------------------------|


  Am7
e|------- ------- ------- -------|------- ------- ------- -------|
B|1-----------1------------------|1-------------------1----------|
G|0-------0---------------0------|------------0------------------|
D|-------------------------------|--------2---------------2------|
A|0---------------0--------------|0------------------------------|
E|-------------------------------|----------------3--------------|


  D7                              Fadd9/6
e|------- ------- ------- -------|------- ------- ------- -------|
B|1-------------------1----------|1-------------------0----------|
G|------------2------------------|------------0------------------|
D|--------0---------------0------|--------0---------------0------|
A|-------------------------------|-------------------------------|
E|2---------------2--------------|1---------------1--------------|


  Csus4                           F
e|------- ------- ------- -------|------- ------- ------- -------|
B|1-------------------1----------|1-----------1------------------|
G|------------0------------------|2-----------2------------------|
D|--------3---------------3------|--------3---------------3------|
A|-------------------------------|----------------0--------------|
E|0---------------0--------------|1------------------------------|


  C                               G             Gadd9 G
e|------- ------- ------- -------|------- ------- ------- -------|
B|1------------------------------|0-------------------0----------|
G|------------0------------------|------------0-H-2--------------|
D|--------2---------------0------|--------0---------------0------|
A|3---------------3--------------|-------------------------------|
E|-------------------------------|3---------------3--------------|

  A1

  C                               Cmaj9
e|------- ------- ----0-- -------|------- ------- ------- -------|
B|1-----------1------------------|1------------------------------|
G|--------0---------------0------|------------0------------------|
D|-------------------------------|--------0---------------0------|
A|3---------------3--------------|2---------------2--------------|
E|-------------------------------|-------------------------------|


  C7                              Csus4/6
e|------- ------- --0---- -------|------- ------- ------- -------|
B|1-----------1------------------|1------------------------------|
G|--------0---------------0------|------------0------------------|
D|-------------------------------|--------3---------------3------|
A|1---------------1--------------|0---------------0--------------|
E|-------------------------------|-------------------------------|


  Am7
e|------- ------- --0---- -------|3------ ----0-- ------- -------|
B|1-----------1------------------|--------------------1----------|
G|--------0---------------0------|--------0---------------0------|
D|-------------------------------|-------------------------------|
A|0---------------0--------------|0------------------------------|
E|-------------------------------|----------------1--------------|
                                                  T

  G
e|------- ------- ------- -------|------- ------- ------- -------|
B|-------------------------------|-------------------------------|
G|0-----------0------------------|0---------------0--------------|
D|--------0---------------0------|--------0---------------0------|
A|-------------------------------|-------------------------------|
E|3---------------3--------------|-------------------------------|


  A2

  C                               Cmaj9
e|------- ------- ----0-- -------|------- ------- ------- -------|
B|1-----------1------------------|1------------------------------|
G|--------0---------------0------|------------0------------------|
D|-------------------------------|--------0---------------0------|
A|3---------------3--------------|2---------------2--------------|
E|-------------------------------|-------------------------------|


   C7                              Csus4/6
e|------- ------- --0---- -------|------- ------- ------- -------|
B|1-----------1------------------|1------------------------------|
G|--------0---------------0------|------------0------------------|
D|-------------------------------|--------3---------------3------|
A|1---------------1--------------|0---------------0--------------|
E|-------------------------------|-------------------------------|


  Am7
e|------- ------- --0---- -------|3------ ----0-- ------- -------|
B|1-----------1------------------|--------------------1----------|
G|--------0---------------0------|--------0---------------0------|
D|-------------------------------|-------------------------------|
A|0---------------0--------------|0------------------------------|
E|-------------------------------|----------------1--------------|
                                                  T

  G           Gadd9   G
e|------- ------- ------- -------|
B|--------------------0----------|
G|0-----------2------------------|
D|--------0---------------0------|
A|-------------------------------|
E|3---------------3--------------|

  C
e|------- ------- ------- -------|------- ------- ------- -------|
B|1------------------------------|-------------------------------|
G|------------0------------------|------------0-------0-------0--|
D|--------2---------------2------|--------2---------------2------|
A|3------------------------------|3------------------------------|
E|----------------3--------------|----------------3--------------|

  B1

  C                               Cmaj7
e|3------ ------- ------- -------|3------ ------- ----3-- ----/--|
B|------------1------------------|------------1------------------|
G|--------0---------------0------|--------0---------------0------|
D|-------------------------------|-------------------------------|
A|3---------------3--------------|2---------------2--------------|
E|-------------------------------|-------------------------------|


  Am7                                 Am7+5
e|8------ ------- ------- -------|------- ------- ------- -------|
B|--------------------5----------|5-H-6-------6------------------|
G|------------5------------------|-------------------------------|
D|--------5---------------5------|--------5---------------5------|
A|0---------------0--------------|0---------------0--------------|
E|-------------------------------|-------------------------------|


  C                               Cmaj7
e|3------ ------- ------- -------|3------ ------- ----3-- ----/--|
B|------------1------------------|------------1------------------|
G|--------0---------------0------|--------0---------------0------|
D|-------------------------------|-------------------------------|
A|3---------------3--------------|2---------------2--------------|
E|-------------------------------|-------------------------------|


  Am7                                 Am7+5
e|8------ ------- ------- -------|------- ------- ------- -------|
B|--------------------5----------|5-H-6---------------6----------|
G|------------5------------------|------------5------------------|
D|--------5---------------5------|--------5---------------5------|
A|0---------------0--------------|0---------------0--------------|
E|-------------------------------|-------------------------------|


  C                               Cmaj7
e|3------ ----0-- ------- -------|3------ ----0-- ------- -------|
B|--------------------1----------|--------------------1----------|
G|--------0---------------0------|--------0---------------0------|
D|-------------------------------|-------------------------------|
A|3---------------3--------------|2---------------2--------------|
E|-------------------------------|-------------------------------|


  Am7
e|------- ------- ------- -------|------- ------- ------- -------|
B|------------1------------------|1-------------------1----------|
G|--------0---------------0------|------------0------------------|
D|-------------------------------|--------2---------------2------|
A|0---------------0--------------|0------------------------------|
E|-------------------------------|----------------3--------------|


  D7                              Gsus4           G
e|------- ------- ------- -------|------- ------- ------- -------|
B|1-------------------1----------|1-------------------0----------|
G|------------2------------------|------------0------------------|
D|--------0---------------0------|--------0---------------0------|
A|-------------------------------|-------------------------------|
E|2---------------2--------------|3---------------3--------------|


  B2

  C                               Cmaj7
e|3------ ------- ------- -------|3------ ------- ----3-- ----/--|
B|------------1------------------|------------1------------------|
G|--------0---------------0------|--------0---------------0------|
D|-------------------------------|-------------------------------|
A|3---------------3--------------|2---------------2--------------|
E|-------------------------------|-------------------------------|


  Am7                                 Am7+5
e|8------ ------- ------- -------|------- ------- ------- -------|
B|--------------------5----------|5-H-6---------------6----------|
G|------------5------------------|------------5------------------|
D|--------5---------------5------|--------5---------------5------|
A|0---------------0--------------|0---------------0--------------|
E|-------------------------------|-------------------------------|


  C                               Cmaj7
e|3------ ------- ------- -------|3------ ------- ----3-- ----/--|
B|------------1------------------|------------1------------------|
G|--------0---------------0------|--------0---------------0------|
D|-------------------------------|-------------------------------|
A|3---------------3--------------|2---------------2--------------|
E|-------------------------------|-------------------------------|


  Am7                                 Am7+5
e|8------ ------- ------- -------|------- ------- ------- -------|
B|--------------------5----------|5-H-6---------------6----------|
G|------------5------------------|------------5------------------|
D|--------5---------------5------|--------5---------------5------|
A|0---------------0--------------|0---------------0--------------|
E|-------------------------------|-------------------------------|


  C                               Cmaj7
e|3------ ----0-- ------- -------|3------ ----0-- ------- -------|
B|--------------------1----------|--------------------1----------|
G|--------0---------------0------|--------0---------------0------|
D|-------------------------------|-------------------------------|
A|3---------------3--------------|2---------------2--------------|
E|-------------------------------|-------------------------------|


  Am7
e|------- ------- ------- -------|------- ------- ------- -------|
B|1-----------1------------------|1-----------1------------------|
G|0-----------0------------------|0-----------0------------------|
D|-------------------------------|-------------------------------|
A|0---------------0--------------|-------------------------------|
E|-------------------------------|3---------------3--------------|


  D7                              Fsus2
e|------- ------- ------- -------|------- ------- ------- -------|
B|1-----------1------------------|1-----------1------------------|
G|2-----------2------------------|0-----------0------------------|
D|0-----------0------------------|3-----------3------------------|
A|-------------------------------|-------------------------------|
E|2---------------2--------------|1---------------1--------------|


  C                               F
e|------- ------- ------- -------|------- ------- ------- -------|
B|1-----------1------------------|1-----------1---------------1--|
G|0-----------0------------------|2-----------2-----------2------|
D|2-----------2------------------|--------------------3----------|
A|-------------------------------|----------------0--------------|
E|0---------------0--------------|1------------------------------|

                  (.
  C
e|------- ------- 0------ -------|------- ------- ------- -------|
B|------------1------------------|-------------------------------|
G|--------0----------------------|-------------------------------|
D|----2--------------------------|-------------------------------|
A|3------------------------------|-------------------------------|
E|-------------------------------|-------------------------------|



        B  Bend
        R  Release
        /  Slide up
        \  Slide down
        H  Hammer-on
        P  Pull-off
        ~  Vibrato
        +  Harmonic
        x  Mute note
        .  Play note like a dot in standard notation
        ^  Ties two notes together
        (. Pause
        T  Thumb
comments
We did not receive enough feedback on this tab! Please rate:
print report bad tab
1 2 3 4 5
I want to post or [tab]
guest
You may want to rate the tab now too:
select rating
Please do not post tabs as comments. Select "correction" instead!