Oops, an error
Loading. Please wait.

Mrs Jacks Last Stand Tab

589 views 1 this week
no commentswrite comment
1 2 3 4 5
please rate
add to favorites launch autoscroll
font size
0
reset
Autoscroll
+/-
esc
set tempo
stop
WARNING: You are trying to view
                                    content from Ultimate-Guitar.com
                                    in an unauthorized application,
                                    which is prohibited.

                                    Please use an official Ultimate
                                    Guitar Tabs application for iPhone,
                                    iPad or Android to access legitimate
                                    chords, guitar, bass, and drum tabs
                                    from Ultimate-Guitar.com database.

                                    Type "ultimate guitar tabs" in Apple
                                    App Store's or Android Market's
                                    search to find the application.
#----------------------------------PLEASE NOTE--------------------------------#
#This file is the author's own work and represents their interpretation of the#
#song. You may only use this file for private study, scholarship, or research.#
#-----------------------------------------------------------------------------#


Arranged by Bob Carter

email:  bob.carter@clara.net

h=hammer on
p=pull off
s=slide
ha=harmonic

Notes: The chords are simple enough - it's getting the smoothness of the rolling pattern that takes some 
 Whole piece capo'd fret 2 in normal tuning.  Open strings written as "0" rather than "2", but all other 
as normal (ie "4" means fret 4, 2 frets above the capo, not 4 frets above, if you see what I mean).

1.
E-|---7--7--7--7---6--6--6--6--------|---0--0--0--0---0--0--0--0--------|
B-|--7--7--7--7---7--7--7--7---------|--0--0--0--0---4--4--4--4---------|
G-|----8-----8------8-----8----------|----3-----3------4-----4----------|
D-|-------9------------9-------------|-------4------------4-------------|
A-|-0------------0-------------------|-0------------0-------------------|
E-|----------------------------------|----------------------------------|


E-|---4--4--4--4---0--0--0--0--------|---4--4--4--4--4--4--4--4---------|
B-|--5--5--5--5---0--0--0--0---------|--4--4--4--4--4--4--4--4----------|
G-|----4-----4------4-----3----------|----4-----4-----4-----4-----------|
D-|-0-----0------------4-------------|-------------6--------------------|
A-|----------------------------------|-------6-----------6--------------|
E-|--------------0-------------------|-4--------------------------------|


E-|----------------4--4--7--7--------|---9--9--9--9---6--6--6--6--------|
B-|---5--5--7--7--5--5--5--5---------|--7--7--7--7---7--7--7--7---------|
G-|--4--4--4--4-----4-----4----------|----6-----6------6-----6----------|
D-|----6-----6-----------------------|-------8------------8-------------|
A-|-4-----4------4-----4-------------|-6------------6-------------------|
E-|----------------------------------|----------------------------------|


E-|---4--4--4--4--4--4--4--4---------|---4--4--4--4---7--7--7--7--------|
B-|--4--4--4--4--4--4--4--4----------|--5--5--5--5---9--9--9--9---------|
G-|----4-----4-----4-----4-----------|----4-----4------9-----9----------|
D-|-------------6-----4--------------|-0-----0------0-----0-------------|
A-|-------6--------------------------|----------------------------------|
E-|-4--------------------------------|----------------------------------|


E-|---7--7--7--7---6--6--6--6--------|
B-|--5--5--5--5---0--0--0--0---------|
G-|----6-----6------3-----3----------|
D-|-------0------------4-------------|
A-|----------------------------------|
E-|-0------------0-------------------|


E-|---7--7--7--7---6--6--6--6--------|---0--0--0--0---0--0--0--0--------|
B-|--7--7--7--7---7--7--7--7---------|--0--0--0--0---4--4--4--4---------|
G-|----8-----8------8-----8----------|----3-----3------4-----4----------|
D-|-------9------------9-------------|-------4------------4-------------|
A-|-0------------0-------------------|-0------------0-------------------|
E-|----------------------------------|----------------------------------|


E-|---4--4--4--4---0--0--0--0--------|---4--4--4--4--4--4--4--4---------|
B-|--5--5--5--5---0--0--0--0---------|--4--4--4--4--4--4--4--4----------|
G-|----4-----4------4-----3----------|----4-----4-----4-----4-----------|
D-|-0-----0------------4-------------|-------------6--------------------|
A-|----------------------------------|-------6-----------6--------------|
E-|--------------0-------------------|-4--------------------------------|


E-|----------------4--4--------------|-----------------6--6-------------|
B-|---5--5--7--7--5--5---5--5--------|---7--7--9--9---7--7---7--7-------|
G-|--4--4--4--4-----4---4--4---------|--6--6--6--6------6---6--6--------|
D-|----6-----6------------6----------|----8-----8-------------8---------|
A-|-4-----4------4-----4-------------|-6-----6-------6-----6------------|
E-|----------------------------------|----------------------------------|


E-|---4--4--4--4--4--4--4--4---------|---4--4--4--4---7--7--7--7--------|
B-|--4--4--4--4--4--4--4--4----------|--5--5--5--5---9--9--9--9---------|
G-|----4-----4-----4-----4-----------|----4-----4------9-----9----------|
D-|-------------6-----4--------------|-0-----0------0-----0-------------|
A-|-------6--------------------------|----------------------------------|
E-|-4--------------------------------|----------------------------------|


E-|---11--11--11--11--12--12--12--12-|---11--11--11--11--11--11--11--11-|
B-|--12--12--12--12--12--12--12--12--|--12--12--12--12--12--12--12--12--|
G-|-----12------12------12------12---|-----11------11------11------11---|
D-|-0-------0-------0-------0--------|---------13--------------13-------|
A-|----------------------------------|-0---------------0----------------|
D-|----------------------------------|----------------------------------|


E-|----9----9----9---9----9---9----9---9--------------------------------|
B-|--11---11---11--11---11--11---11--11---------------------------------|
G-|------9--------9--------9--------9-----------------------------------|
D-|----------11----------------11---------------------------------------|
A-|---------------------------------------------------------------------|
E-|-0------------------0------------------------------------------------|


E-|---7--7--7--7---7--7--7--7--------|----------------------------------|
B-|--7--7--7--7---7--7--7--7---------|---4--4--4--4---5--5---7--7-------|
G-|----8-----8------8-----8----------|--4--4--4--4---4--4---6--6--------|
D-|-------9------------9-------------|----4-----4------6------8---------|
A-|-0------------0-------------------|-0-----0------0------0------------|
E-|----------------------------------|----------------------------------|


E-|----------------------------------|----------------------------------|
B-|---9--9--7--7---9--9----11----11--|---12--12-12-12--10--10--10--10---|
G-|--9--9--6--6---9--9---11----11----|--11--11-11-11--9---9---9---9-----|
D-|----9-----8------9--------11------|-----13----13-----11------11------|
A-|-0-----0------0------0------------|-0------0------0-------0----------|
E-|----------------------------------|----------------------------------|


E-|----------------------------------|
B-|---9--9--9--9---7--7--7--7--------|
G-|--9--9--9--9---8--8--8--8---------|
D-|----9-----9------9-----7----------|
A-|-0-----0------0-----0-------------|
E-|----------------------------------|


E-|---4--4--4--4--6--6--7--7---------|---11--11--11--11----9---9---9---9|
B-|--5--5--5--5--5--5--9--9----------|--12--12--12--12---12--12--12--12-|
G-|----4-----4-----4-----9-----------|-----12------12-------12------12--|
D-|-0-----0-----0-----0--------------|-0-------0--------0-------0-------|
A-|----------------------------------|----------------------------------|
E-|----------------------------------|----------------------------------|

E-|---9--9--9--9--7--7--7--7---------|---7--7--6--6--4--4--0--0---------|
B-|--7--7--7--7--7--7--7--7----------|--5--5--5--5--5--5--5--5----------|
G-|----8-----8-----8-----8-----------|----6-----6-----6-----6-----------|
D-|-------9-----------9--------------|-------0-----------0--------------|
A-|-0-----------0--------------------|----------------------------------|
E-|----------------------------------|-0-----------0--------------------|


E-|---4--4--4--4--0--0--0--0---------|---11--11--11--11--11--11--11--11-|
B-|--5--5--5--5--5--5--5--5----------|--12--12--12--12--12--12--12--12--|
G-|----6-----6-----6-----6-----------|-----11------11------11------11---|
D-|-------0-----------0--------------|---------13--------------13-------|
A-|----------------------------------|-0---------------0----------------|
D-|-0-----------0--------------------|----------------------------------|


E-|---4--4--4--4--6--6--7--7---------|---7--7--7--7--7--7--7--7---------|
B-|--5--5--5--5--5--5--6--6----------|--6--6--6--6--6--6--6--6----------|
G-|----4-----4-----4-----7-----------|----7-----7-----7-----7-----------|
D-|-0-----0-----0-----6--------------|-5-----5-----5-----5--------------|
A-|----------------------------------|----------------------------------|
E-|----------------------------------|----------------------------------|


E-|---7--7--7--7--7--7--7--7---------|---7--7--7--7--7--7--7--7---------|
B-|--6--6--6--6--6--6--6--6----------|--5--5--5--5--5--5--5--5----------|
G-|----6-----6-----6-----6-----------|----6-----6-----6-----6-----------|
D-|-5-----5-----5-----5--------------|-4-----4-----4-----4--------------|
A-|----------------------------------|----------------------------------|
E-|----------------------------------|----------------------------------|


E-|---6--6--6--6--6--6--6--6---------|---4--4--4--4--6--6--6--6---------|
B-|--5--5--5--5--5--5--5--5----------|--4--4--4--4--4--4--4--4----------|
G-|----6-----6-----6-----6-----------|----4-----4-----4-----4-----------|
D-|-4-----4-----4-----4--------------|-6-----6-----4-----4--------------|
A-|----------------------------------|----------------------------------|
E-|----------------------------------|----------------------------------|


E-|---7--7--7--7---9--9--9--9--------|---4--4--4--4--6--6--6--6---------|
B-|--8--8--8--8---8--8--8--8---------|--4--4--4--4--4--4--4--4----------|
G-|----9-----9------9-----9----------|----4-----4-----4-----4-----------|
D-|-0-----0------0-----0-------------|-6-----6-----4-----4--------------|
A-|----------------------------------|----------------------------------|
E-|----------------------------------|----------------------------------|


E-|---7--7--7--7---6--6--0--0--------|---4--4--4--4--6--6--6--6---------|
B-|--8--8--8--8---5--5--5--5---------|--4--4--4--4--4--4--4--4----------|
G-|----9-----9------6-----6----------|----4-----4-----4-----4-----------|
D-|-0-----0------4-----4-------------|-6-----6-----4-----4--------------|
A-|----------------------------------|----------------------------------|
E-|----------------------------------|----------------------------------|


E-|---7--7--7--7---9--9--9--9--------|
B-|--8--8--8--8---8--8--8--8---------|
G-|----9-----9------9-----9----------|
D-|-0-----0------0-----0-------------|
A-|----------------------------------|
E-|----------------------------------|


E-|---11--11--11--11--12--12--12--12-|---11--11---11--11--11--11--11--11|
B-|--12--12--12--12--12--12--12--12--|--12--12---12--12--12--12--12--12-|
G-|-----12------12------12------12---|-----11-------11------11------11--|
D-|-0-------0-------0-------0--------|---------13---------------13------|
A-|----------------------------------|-0----------------0---------------|
E-|----------------------------------|----------------------------------|


E-|----9----9----9---9---0--0--0--0-------------------------------------|
B-|--11---11---11--11---0--0--0--0--------------------------------------|
G-|------9--------9-------3-----3---------------------------------------|
D-|----------11--------------4------------------------------------------|
A-|---------------------------------------------------------------------|
E-|-0------------------0------------------------------------------------|


E-|---7--7--7--7---7--7--7--7--------|---6--6--6--6---------------------|
B-|--5--5--5--5---5--5--5--5---------|--7--7--7--7----7--7--7--7--------|
G-|----4-----4------4-----4----------|----6-----6----6--6--6--6---------|
D-|-------6------------6-------------|-------8---------8-----8----------|
A-|----------------------------------|--------------9-----6-------------|
D-|-4------------4-------------------|-6--------------------------------|


1.
E-|---7--7--7--7---6--6--6--6--------|---0--0--0--0---0--0--0--0--------|
B-|--7--7--7--7---7--7--7--7---------|--0--0--0--0---4--4--4--4---------|
G-|----8-----8------8-----8----------|----3-----3------4-----4----------|
D-|-------9------------9-------------|-------4------------4-------------|
A-|-0------------0-------------------|-0------------0-------------------|
E-|----------------------------------|----------------------------------|


E-|---4--4--4--4---0--0--0--0--------|---4--4--4--4--4--4--4--4---------|
B-|--5--5--5--5---0--0--0--0---------|--4--4--4--4--4--4--4--4----------|
G-|----4-----4------4-----3----------|----4-----4-----4-----4-----------|
D-|-0-----0------------4-------------|-------------6--------------------|
A-|----------------------------------|-------6-----------6--------------|
E-|--------------0-------------------|-4--------------------------------|


E-|----------------4--4--7--7--------|---9--9--9--9---6--6--6--6--------|
B-|---5--5--7--7--5--5--5--5---------|--7--7--7--7---7--7--7--7---------|
G-|--4--4--4--4-----4-----4----------|----6-----6------6-----6----------|
D-|----6-----6-----------------------|-------8------------8-------------|
A-|-4-----4------4-----4-------------|-6------------6-------------------|
E-|----------------------------------|----------------------------------|


E-|---4--4--4--4--4--4--4--4---------|---4--4--4--4---7--7--7--7--------|
B-|--4--4--4--4--4--4--4--4----------|--5--5--5--5---9--9--9--9---------|
G-|----4-----4-----4-----4-----------|----4-----4------9-----9----------|
D-|-------------6-----4--------------|-0-----0------0-----0-------------|
A-|-------6--------------------------|----------------------------------|
E-|-4--------------------------------|----------------------------------|


E-|---7--7--7--7---6--6--6--6--------|
B-|--5--5--5--5---0--0--0--0---------|
G-|----6-----6------3-----3----------|
D-|-------0------------4-------------|
A-|----------------------------------|
E-|-0------------0-------------------|


E-|---7--7--7--7---6--6--6--6--------|---0--0--0--0---0--0--0--0--------|
B-|--7--7--7--7---7--7--7--7---------|--0--0--0--0---4--4--4--4---------|
G-|----8-----8------8-----8----------|----3-----3------4-----4----------|
D-|-------9------------9-------------|-------4------------4-------------|
A-|-0------------0-------------------|-0------------0-------------------|
E-|----------------------------------|----------------------------------|


E-|---4--4--4--4---0--0--0--0--------|---4--4--4--4--4--4--4--4---------|
B-|--5--5--5--5---0--0--0--0---------|--4--4--4--4--4--4--4--4----------|
G-|----4-----4------4-----3----------|----4-----4-----4-----4-----------|
D-|-0-----0------------4-------------|-------------6--------------------|
A-|----------------------------------|-------6-----------6--------------|
E-|--------------0-------------------|-4--------------------------------|


E-|----------------4--4--------------|-----------------6--6-------------|
B-|---5--5--7--7--5--5---5--5--------|---7--7--9--9---7--7---7--7-------|
G-|--4--4--4--4-----4---4--4---------|--6--6--6--6------6---6--6--------|
D-|----6-----6------------6----------|----8-----8-------------8---------|
A-|-4-----4------4-----4-------------|-6-----6-------6-----6------------|
E-|----------------------------------|----------------------------------|


E-|---4--4--4--4--4--4--4--4---------|---4--4--4--4---7--7--7--7--------|
B-|--4--4--4--4--4--4--4--4----------|--5--5--5--5---9--9--9--9---------|
G-|----4-----4-----4-----4-----------|----4-----4------9-----9----------|
D-|-------------6-----4--------------|-0-----0------0-----0-------------|
A-|-------6--------------------------|----------------------------------|
E-|-4--------------------------------|----------------------------------|


E-|---11--11--11--11--12--12--12--12-|---11--11---11--11--11--11--11--11|
B-|--12--12--12--12--12--12--12--12--|--12--12---12--12--12--12--12--12-|
G-|-----12------12------12------12---|-----11-------11------11------11--|
D-|-0-------0-------0-------0--------|---------13---------------13------|
A-|----------------------------------|-0----------------0---------------|
E-|----------------------------------|----------------------------------|

E-|----9----9----9---9----9---9----9---9--------------------------------|
B-|--11---11---11--11---11--11---11--11---------------------------------|
G-|------9--------9--------9--------9-----------------------------------|
D-|----------11----------------11---------------------------------------|
A-|---------------------------------------------------------------------|
E-|-0------------------0------------------------------------------------|


E-|---7--7--7--7---7--7--7--7--------|---7--7--7--7--7--7--7--7---------|
B-|--7--7--7--7---7--7--7--7---------|--7--7--7--7--7--7--7--7----------|
G-|----8-----8------8-----8----------|----9-----9-----9-----9-----------|
D-|-------9------------9-------------|-------9-----------9--------------|
A-|-0------------0-------------------|-0-----------0--------------------|
E-|----------------------------------|----------------------------------|


E-|---11--11--11---11--11--11--11--11|---11--11--11--11---9---9---9---9-|
B-|--10--10--10---10--10--10--10--10-|--12--12--12--12--12--12--12--12--|
G-|-----11------11------11-------11--|-----12------12------12------12---|
D-|---------9----------------9-------|-0-------0-------0-------0--------|
A-|-0----------------0---------------|----------------------------------|
D-|----------------------------------|----------------------------------|


E-|---12--12--12--12--11--11--11--11-|---9--9--9--9--7--7--7--7---------|
B-|--12--12--12--12--12--12--12--12--|--7--7--7--7--7--7--7--7----------|
G-|-----12------12------12------12---|----8-----8-----8-----8-----------|
D-|-0-------0-------0-------0--------|-------9-----------9--------------|
A-|----------------------------------|-0-----------0--------------------|
D-|----------------------------------|----------------------------------|


E-|---0--0--0--0--0--0--0--0---------|
B-|--7--7--7--7--7--7--7--7----------|
G-|----8-----8-----8-----8-----------|
D-|-------9-----------9--------------|
A-|-0-----------0--------------------|
D-|----------------------------------|


E-|---7--7--6--6--4--4--0--0---------|---4--4--4--4--0--0--0--0---------|
B-|--5--5--5--5--5--5--5--5----------|--5--5--5--5--5--5--5--5----------|
G-|----6-----6-----6-----6-----------|----6-----6-----6-----6-----------|
D-|-------0-----------0--------------|-------0-----------0--------------|
A-|----------------------------------|----------------------------------|
D-|-0-----------0--------------------|-0-----------0--------------------|


E-|---0--0--0--0--0--0--0--0---------|
B-|--7--7--7--7--7--7--7--7----------|
G-|----8-----8-----8-----8-----------|
D-|-------9-----------9--------------|
A-|-0-----------0--------------------|
D-|----------------------------------|


E-|---11--11--11---11--11--11--11--11|---11--11--11--11---9---9---9---9-|
B-|--10--10--10---10--10--10--10--10-|--12--12--12--12--12--12--12--12--|
G-|-----11------11------11-------11--|-----12------12------12------12---|
D-|---------9----------------9-------|-0-------0-------0-------0--------|
A-|-0----------------0---------------|----------------------------------|
D-|----------------------------------|----------------------------------|


E-|---12--12--12--12--11--11--11--11-|---9--9--9--9--7--7--7--7---------|
B-|--12--12--12--12--12--12--12--12--|--7--7--7--7--7--7--7--7----------|
G-|-----12------12------12------12---|----8-----8-----8-----8-----------|
D-|-0-------0-------0-------0--------|-------9-----------9--------------|
A-|----------------------------------|-0-----------0--------------------|
D-|----------------------------------|----------------------------------|


E-|---0--0--0--0--0--0--0--0---------|
B-|--7--7--7--7--7--7--7--7----------|
G-|----8-----8-----8-----8-----------|
D-|-------9-----------9--------------|
A-|-0-----------0--------------------|
D-|----------------------------------|


E-|---7--7--6--6--4--4--0--0---------|---4--4--4--4---4--4--4--4--------|
B-|--5--5--5--5--5--5--5--5----------|--5--5--5--5---5--5--5--5---------|
G-|----6-----6-----6-----6-----------|----6-----6------6-----6----------|
D-|-------0-----------0--------------|-------0------------0-------------|
A-|----------------------------------|----------------------------------|
D-|-0-----------0--------------------|-0------------0-------------------|


E-|---9--9--9--9--9--9--9--9---------|
B-|--9--9--9--9--9--9--9--9----------|
G-|----9-----9-----9-----9-----------|
D-|-------8-----------8--------------|
A-|-9-----------9--------------------|
D-|----------------------------------|


E-|---7--7--7--7---7--7--7--7--------|---7--7--7--7---7-----------------|
B-|--7--7--7--7---7--7--7--7---------|--7--7--7--7----7-----------------|
G-|----8-----8------9-----9----------|----8-----8-----8-----------------|
D-|-------9------------9-------------|-------9--------9-----------------|
A-|-0------------0-------------------|-0--------------0-----------------|
D-|----------------------------------|----------------------------------|

ends.
comments
We did not receive enough feedback on this tab! Please rate:
print report bad tab
1 2 3 4 5
I want to post or [tab]
guest
You may want to rate the tab now too:
select rating
Please do not post tabs as comments. Select "correction" instead!