Oops, an error
Loading. Please wait.

Nanci Tab

619 views 1 this week
no commentswrite comment
1 2 3 4 5
please rate
add to favorites launch autoscroll
font size
0
reset
Autoscroll
+/-
esc
set tempo
stop
WARNING: You are trying to view
                                    content from Ultimate-Guitar.com
                                    in an unauthorized application,
                                    which is prohibited.

                                    Please use an official Ultimate
                                    Guitar Tabs application for iPhone,
                                    iPad or Android to access legitimate
                                    chords, guitar, bass, and drum tabs
                                    from Ultimate-Guitar.com database.

                                    Type "ultimate guitar tabs" in Apple
                                    App Store's or Android Market's
                                    search to find the application.
#----------------------------------PLEASE NOTE--------------------------------#
#This file is the author's own work and represents their interpretation of the#
#song. You may only use this file for private study, scholarship, or research.#
#-----------------------------------------------------------------------------#


Arranged by Bob Carter
Email:  bob.carter@clara.net

h=hammer on
p=pull off
s=slide

Notes:  This is basically all picking patterns - no timing notation is included and nothing should be 
regarding how far the numbers are apart on the tab grid in terms of note length.  The tricky bit with this 
is realising where the accents fall and consequently the timing might be a little hard to pick up from this transcription - enough listening to the track should make things clearer.  The big arpeggiated chords at the 
in the middle and at the end seem best played just with the thumb.

Hope this is of some help - it's a lovely tune.  The piece is capo'd on fret two.  The way I've written it 
I've used 0 to represent an open string (rather than a 2 for 2nd fret) but then the other notation is the 
fret number, ie "4" means fret 4 which is two frets above the capo.  Hope this is not too confusing.  Email me if I can be of any assistance.


NANCI
=====

1.
E-|-----5-------5--------------------|-----7-------10-------------------|
B-|----0-0-----3-3-------------------|----5-5-----9--9------------------|
G-|---0-------0----------------------|---0-------0----------------------|
D-|--0-------0-----------------------|--0-------0-----------------------|
G-|-0-------0------------------------|-0-------0------------------------|
D-|----------------------------------|----------------------------------|

2.
E-|-----5-------5--------------------|-----7-------10-------------------|
B-|----0-0-----3-3-------------------|----5-5-----9--9------------------|
G-|---0-------0----------------------|---0-------0----------------------|
D-|--0-------0-----------------------|--0-------0-----------------------|
G-|-0-------0------------------------|-0-------0------------------------|
D-|----------------------------------|----------------------------------|

2.
E-|-----5-------5--------------------|-----7-------10-------------------|
B-|----0-0-----3-3-------------------|----5-5-----9---------------------|
G-|---0-------0----------------------|---0-------0----------------------|
D-|--0-------0-----------------------|--0-------0-----------------------|
G-|-0-------0------------------------|-0-------0------------------------|
D-|----------------------------------|----------------------------------|

3.
E-|----------------------------------|----------------------------------|
B-|----0----------0------------------|----0------5---0---0--------------|
G-|---0--4p0--4-----4p0--------------|---0---4p0-------4----------------|
D-|--0------0------------------------|--0-------0-----------------------|
G-|-0-----------0--------------------|----------------------------------|
D-|------0----------0----------------|-4-----4-----4---4----------------|

4.
E-|----------------------------------|----------------------------------|
B-|----0------0----------------------|-3---3---------3------------------|
G-|---0-4p0-4---4p0------------------|-------0---------0----------------|
D-|--0-----0-------------------------|---0-----0-6-6-----6--------------|
G-|-7--------7--7--------------------|----------------------------------|
D-|----------------------------------|-0---------0----------------------|

5.
E-|----------------------------------|--------------5s7-7---------------|
B-|----0----------0------------------|----0------5--5s7-7---------------|
G-|---0--4p0--4-----4p0--------------|---0---4p0----0-0-0---------------|
D-|--0------0------------------------|--0-------0-----------------------|
G-|-0-----------0--------------------|----------------------------------|
D-|------0----------0----------------|-4-----4-----4--0-----------------|

6.
E-|--------5-------------------------|----------------------------------|
B-|----5---5-5-----------------------|-0-----0---3p0--------------------|
G-|---0----------7--6----------------|-----0----------4-----0h3p0-------|
D-|--0---------0---------------------|---0------------0----------4------|
G-|-7----7---7----7------------------|----------------------------------|
D-|----------------------------------|-0-------0------0---0-------------|

7.
E-|----------------------------------|----------------------------------|
B-|----0----------0------------------|----0------5---0---0--------------|
G-|---0--4p0--4-----4p0--------------|---0---4p0-------4----------------|
D-|--0------0------------------------|--0-------0-----------------------|
G-|-0-----------0--------------------|----------------------------------|
D-|------0----------0----------------|-4-----4-----4---4----------------|

8.
E-|----------------------------------|----------------------------------|
B-|----0------0----------------------|-3---3---------3------------------|
G-|---0-4p0-4---4p0------------------|-------0---------0----------------|
D-|--0-----0-------------------------|---0-----0-6-6-----6--------------|
G-|-7--------7--7--------------------|----------------------------------|
D-|----------------------------------|-0---------0----------------------|

9.
E-|----------------------------------|--------------5s7-7---------------|
B-|----0----------0------------------|----0------5--5s7-7---------------|
G-|---0--4p0--4-----4p0--------------|---0---4p0----0-0-0---------------|
D-|--0------0------------------------|--0-------0-----------------------|
G-|-0-----------0--------------------|----------------------------------|
D-|------0----------0----------------|-4-----4-----4--0-----------------|

10.
E-|--------5-------------------------|----------------------------------|
B-|----5---5-5-----------------------|-0-----0---3p0--------------------|
G-|---0----------7--6----------------|-----0----------4----0h3p0--------|
D-|--0---------0---------------------|---0------------0---------4-------|
G-|-7----7---7----7------------------|----------------------------------|
D-|----------------------------------|-0-------0------0---0-------------|

11.
E-|--------5-------------------------|----------------------------------|
B-|----5---5-5---3---0---------------|--5--5---7------0----0------------|
G-|---0---------0--------------------|----0------5p4p0----0-------------|
D-|--0---------0---------------------|---0-------0-------0--------------|
G-|----------------------------------|--7----7---0------6---------------|
D-|-4----4---0-----0-----------------|----------------------------------|

12.
E-|--------5-------------------------|-----------7--7h8p7-----7---------|
B-|----5---5-5---3---0---------------|-7h10-10----10------10------------|
G-|---0---------0--------------------|----------------------------------|
D-|--0---------0---------------------|-----7---7------------------------|
G-|----------------------------------|-7------------7-------------------|
D-|-4----4---0-----0-----------------|--------7--------------7----------|

13.
E-|--------5-------------------------|----------------------------------|
B-|----5---5-5---3---0---------------|--5--5---7------0----0------------|
G-|---0---------0--------------------|----0------5p4p0----0-------------|
D-|--0---------0---------------------|---0-------0-------0--------------|
G-|----------------------------------|--7----7---0------6---------------|
D-|-4----4---0-----0-----------------|----------------------------------|

14.
E-|----------------------------------|----------------------------------|
B-|----0-----3-3---------------------|----0------5--------7-------------|
G-|---0-4p0--0-0---------------------|---0-4p0------0--------0----------|
D-|--0-------6-6--6------------------|--0------0------6--------7--------|
G-|-0--------------------------------|-0---------6-6----6-7-7----7------|
D-|-----0----0-----------------------|-----0----------------------------|

15.
E-|----------------------------------|
B-|-5-------3------------------------|
G-|----0--------0--------------------|
D-|-----6--------4-------------------|
G-|-6-6--6--4-4---4------------------|
D-|----------------------------------|

16.
E-|----------------------------------|----------------------------------|
B-|----0-----3-3---------------------|----0------5--------7-------------|
G-|---0-4p0--0-0---------------------|---0-4p0------0--------0----------|
D-|--0-------6-6--6------------------|--0------0------6--------7--------|
G-|-0--------------------------------|-0---------6-6----6-7-7----7------|
D-|-----0----0-----------------------|-----0----------------------------|

17.
E-|----------------------------------|----------------------------------|
B-|-5-------3------------------------|----0----3-3----------------------|
G-|----0--------0--------------------|---0-4p0-0-0----------------------|
D-|-----6--------4-------------------|--0------6-6--6-------------------|
G-|-6-6--6--4-4---4------------------|-0--------------------------------|
D-|----------------------------------|-----0---0------------------------|

18.
E-|----------------------------------|---0-4-5-4p0----------------------|
B-|----0---0---0---0-----------------|-5-----5----5---------------------|
G-|---0---0---0---0------------------|-0-----0--------------------------|
D-|--0---0---0---0-------------------|-0--------------------------------|
G-|-0-------0------------------------|----------------------------------|
D-|-----0-------6--------------------|4------0--------------------------|

19.
E-|----------------------------------|----------------------------------|
B-|-5---------3----------------------|-0---------0h3p0------------------|
G-|-----0---------0------------------|----0----4-------4----------------|
D-|--------6--------4----------------|------0--0------------------------|
G-|-6-6--6----4-4--4-----------------|-0-0-0----------------------------|
D-|----------------------------------|---------6------------------------|

20.
E-|---0-4-5-4p0----------------------|------4---------------------------|
B-|-5-----5-----5--------------------|--4-5-4--4------------------------|
G-|0------0--------------------------|--0-0-0--0------------------------|
D-|0---------------------------------|--4-4----4------------------------|
G-|----------------------------------|-0-0--0-0-0-----------------------|
D-|4------0--------------------------|----------------------------------|

21.
E-|-----0----------------------------|
B-|-3-5-3--3-------------------------|
G-|-0-0-0--0-------------------------|
D-|-0-0----0-------------------------|
G-|----------------------------------|
D-|0-0--0-0-0------------------------|

22.
E-|---0-4-5-4p0----------------------|----------------------------------|
B-|-5-----5-----5--------------------|-----------5--------7-------------|
G-|-0-----0--------------------------|--------------0--------0----------|
D-|-0--------------------------------|----------------6--------7--------|
G-|----------------------------------|-----------6-6----6-7-7----7------|
D-|4------0--------------------------|----------------------------------|

23.
E-|----------------------------------|
B-|-5-------3------------------------|
G-|----0--------0--------------------|
D-|-----6--------4-------------------|
G-|-6-6--6--4-4---4------------------|
D-|----------------------------------|

24.
E-|----------------------------------|----------------------------------|
B-|----0-----3-3---------------------|----0------5--------7-------------|
G-|---0-4p0--0-0---------------------|---0-4p0------0--------0----------|
D-|--0-------6-6--6------------------|--0------0------6--------7--------|
G-|-0--------------------------------|-0---------6-6----6-7-7----7------|
D-|-----0----0-----------------------|-----0----------------------------|

25.
E-|----------------------------------|----------------------------------|
B-|-5-------3------------------------|----0----3-3----------------------|
G-|----0--------0--------------------|---0-4p0-0-0----------------------|
D-|-----6--------4-------------------|--0------6-6--6-------------------|
G-|-6-6--6--4-4---4------------------|-0--------------------------------|
D-|----------------------------------|-----0---0------------------------|
===========

1.
E-|-----5-------5--------------------|-----7-------10-------------------|
B-|----0-0-----3-3-------------------|----5-5-----9--9------------------|
G-|---0-------0----------------------|---0-------0----------------------|
D-|--0-------0-----------------------|--0-------0-----------------------|
G-|-0-------0------------------------|-0-------0------------------------|
D-|----------------------------------|----------------------------------|

2.
E-|-----5-------5--------------------|-----7-------10-------------------|
B-|----0-0-----3-3-------------------|----5-5-----9--9------------------|
G-|---0-------0----------------------|---0-------0----------------------|
D-|--0-------0-----------------------|--0-------0-----------------------|
G-|-0-------0------------------------|-0-------0------------------------|
D-|----------------------------------|----------------------------------|


3.
E-|----------------------------------|----------------------------------|
B-|----0----------0------------------|----0------5---0---0--------------|
G-|---0--4p0--4-----4p0--------------|---0---4p0-------4----------------|
D-|--0------0------------------------|--0-------0-----------------------|
G-|-0-----------0--------------------|----------------------------------|
D-|------0----------0----------------|-4-----4-----4---4----------------|

4.
E-|----------------------------------|----------------------------------|
B-|----0------0----------------------|-3---3---------3------------------|
G-|---0-4p0-4---4p0------------------|-------0---------0----------------|
D-|--0-----0-------------------------|---0-----0-6-6-----6--------------|
G-|-7--------7--7--------------------|----------------------------------|
D-|----------------------------------|-0---------0----------------------|

5.
E-|----------------------------------|--------------5s7-7---------------|
B-|----0----------0------------------|----0------5--5s7-7---------------|
G-|---0--4p0--4-----4p0--------------|---0---4p0----0-0-0---------------|
D-|--0------0------------------------|--0-------0-----------------------|
G-|-0-----------0--------------------|----------------------------------|
D-|------0----------0----------------|-4-----4-----4--0-----------------|

6.
E-|--------5-------------------------|----------------------------------|
B-|----5---5-5-----------------------|-0-----0---3p0--------------------|
G-|---0----------7--6----------------|-----0----------4----0h3p0--------|
D-|--0---------0---------------------|---0------------0---------4-------|
G-|-7----7---7----7------------------|----------------------------------|
D-|----------------------------------|-0-------0------0---0-------------|

7.
E-|----------------------------------|----------------------------------|
B-|----0----------0------------------|----0------5---0---0--------------|
G-|---0--4p0--4-----4p0--------------|---0---4p0-------4----------------|
D-|--0------0------------------------|--0-------0-----------------------|
G-|-0-----------0--------------------|----------------------------------|
D-|------0----------0----------------|-4-----4-----4---4----------------|

8.
E-|----------------------------------|----------------------------------|
B-|----0------0----------------------|-3---3---------3------------------|
G-|---0-4p0-4---4p0------------------|-------0---------0----------------|
D-|--0-----0-------------------------|---0-----0-6-6-----6--------------|
G-|-7--------7--7--------------------|----------------------------------|
D-|----------------------------------|-0---------0----------------------|

9.
E-|----------------------------------|--------------5s7-7---------------|
B-|----0----------0------------------|----0------5--5s7-7---------------|
G-|---0--4p0--4-----4p0--------------|---0---4p0----0-0-0---------------|
D-|--0------0------------------------|--0-------0-----------------------|
G-|-0-----------0--------------------|----------------------------------|
D-|------0----------0----------------|-4-----4-----4--0-----------------|

10.
E-|--------5-------------------------|----------------------------------|
B-|----5---5-5-----------------------|-0-----0---3p0--------------------|
G-|---0----------7--6----------------|-----0----------4----0h3p0--------|
D-|--0---------0---------------------|---0------------0---------4-------|
G-|-7----7---7----7------------------|----------------------------------|
D-|----------------------------------|-0-------0------0---0-------------|

11.
E-|--------5-------------------------|----------------------------------|
B-|----5---5-5---3---0---------------|--5--5---7------0----0------------|
G-|---0---------0--------------------|----0------5p4p0----0-------------|
D-|--0---------0---------------------|---0-------0-------0--------------|
G-|----------------------------------|--7----7---0------6---------------|
D-|-4----4---0-----0-----------------|----------------------------------|

12.
E-|--------5-------------------------|-----------7--7h8p7-----7---------|
B-|----5---5-5---3---0---------------|-7h10-10----10------10------------|
G-|---0---------0--------------------|----------------------------------|
D-|--0---------0---------------------|-----7---7------------------------|
G-|----------------------------------|-7------------7-------------------|
D-|-4----4---0-----0-----------------|--------7--------------7----------|

13.
E-|--------5-------------------------|----------------------------------|
B-|----5---5-5---3---0---------------|--5--5---7------0----0------------|
G-|---0---------0--------------------|----0------5p4p0----0-------------|
D-|--0---------0---------------------|---0-------0-------0--------------|
G-|----------------------------------|--7----7---0------6---------------|
D-|-4----4---0-----0-----------------|----------------------------------|

14.
E-|----------------------------------|----------------------------------|
B-|----0-----3-3---------------------|----0------5--------7-------------|
G-|---0-4p0--0-0---------------------|---0-4p0------0--------0----------|
D-|--0-------6-6--6------------------|--0------0------6--------7--------|
G-|-0--------------------------------|-0---------6-6----6-7-7----7------|
D-|-----0----0-----------------------|-----0----------------------------|

15.
E-|----------------------------------|
B-|-5-------3------------------------|
G-|----0--------0--------------------|
D-|-----6--------4-------------------|
G-|-6-6--6--4-4---4------------------|
D-|----------------------------------|

16.
E-|----------------------------------|----------------------------------|
B-|----0-----3-3---------------------|----0------5--------7-------------|
G-|---0-4p0--0-0---------------------|---0-4p0------0--------0----------|
D-|--0-------6-6--6------------------|--0------0------6--------7--------|
G-|-0--------------------------------|-0---------6-6----6-7-7----7------|
D-|-----0----0-----------------------|-----0----------------------------|

17.
E-|----------------------------------|----------------------------------|
B-|-5-------3------------------------|----0----3-3----------------------|
G-|----0--------0--------------------|---0-4p0-0-0----------------------|
D-|-----6--------4-------------------|--0------6-6--6-------------------|
G-|-6-6--6--4-4---4------------------|-0--------------------------------|
D-|----------------------------------|-----0---0------------------------|

18.
E-|----------------------------------|---0-4-5-4p0----------------------|
B-|----0---0---0---0-----------------|-5-----5----5---------------------|
G-|---0---0---0---0------------------|-0-----0--------------------------|
D-|--0---0---0---0-------------------|-0--------------------------------|
G-|-0-------0------------------------|----------------------------------|
D-|-----0-------6--------------------|4------0--------------------------|

19.
E-|----------------------------------|----------------------------------|
B-|-5---------3----------------------|-0---------0h3p0------------------|
G-|-----0---------0------------------|----0----4-------4----------------|
D-|--------6--------4----------------|------0--0------------------------|
G-|-6-6--6----4-4--4-----------------|-0-0-0----------------------------|
D-|----------------------------------|---------6------------------------|

20.
E-|---0-4-5-4p0----------------------|------4---------------------------|
B-|-5-----5-----5--------------------|--4-5-4--4------------------------|
G-|0------0--------------------------|--0-0-0--0------------------------|
D-|0---------------------------------|--4-4----4------------------------|
G-|----------------------------------|-0-0--0-0-0-----------------------|
D-|4------0--------------------------|----------------------------------|

21.
E-|-----0----------------------------|
B-|-3-5-3--3-------------------------|
G-|-0-0-0--0-------------------------|
D-|-0-0----0-------------------------|
G-|----------------------------------|
D-|0-0--0-0-0------------------------|

22.
E-|---0-4-5-4p0----------------------|----------------------------------|
B-|-5-----5-----5--------------------|-----------5--------7-------------|
G-|-0-----0--------------------------|--------------0--------0----------|
D-|-0--------------------------------|----------------6--------7--------|
G-|----------------------------------|-----------6-6----6-7-7----7------|
D-|4------0--------------------------|----------------------------------|

23.
E-|----------------------------------|
B-|-5-------3------------------------|
G-|----0--------0--------------------|
D-|-----6--------4-------------------|
G-|-6-6--6--4-4---4------------------|
D-|----------------------------------|

24.
E-|----------------------------------|----------------------------------|
B-|----0-----3-3---------------------|----0------5--------7-------------|
G-|---0-4p0--0-0---------------------|---0-4p0------0--------0----------|
D-|--0-------6-6--6------------------|--0------0------6--------7--------|
G-|-0--------------------------------|-0---------6-6----6-7-7----7------|
D-|-----0----0-----------------------|-----0----------------------------|

25.
E-|----------------------------------|----------------------------------|
B-|-5-------3------------------------|----0----3-3----------------------|
G-|----0--------0--------------------|---0-4p0-0-0----------------------|
D-|-----6--------4-------------------|--0------6-6--6-------------------|
G-|-6-6--6--4-4---4------------------|-0--------------------------------|
D-|----------------------------------|-----0---0------------------------|

26.
E-|-----5-------5--------------------|-----7-------10-------------------|
B-|----0-0-----3-3-------------------|----5-5-----9--9------------------|
G-|---0-------0----------------------|---0-------0----------------------|
D-|--0-------0-----------------------|--0-------0-----------------------|
G-|-0-------0------------------------|-0-------0------------------------|
D-|----------------------------------|----------------------------------|

27.
E-|-----7------7---------------------|-----5------5---------------------|
B-|----7-7----5-5--------------------|----3-3----3-3--------------------|
G-|---0------7-----------------------|---0------0-----------------------|
D-|--0------0------------------------|--0------0------------------------|
G-|-0------0-------------------------|-0------0-------------------------|
D-|----------------------------------|----------------------------------|

28.
E-|-----5------5---------------------|
B-|----3-3----3-3--------------------|
G-|---0------0-----------------------|
D-|--3------3------------------------|
G-|-0------0-------------------------|
D-|----------------------------------|

29.
E-|----------------------------------|---0-4-5-4p0----------------------|
B-|----0---0---0---0-----------------|-5-----5----5---------------------|
G-|---0---0---0---0------------------|-0-----0--------------------------|
D-|--0---0---0---0-------------------|-0--------------------------------|
G-|-0-------0------------------------|----------------------------------|
D-|-----0-------6--------------------|4------0--------------------------|

30.
E-|----------------------------------|----------------------------------|
B-|-5---------3----------------------|-0---------0h3p0------------------|
G-|-----0---------0------------------|----0----4-------4----------------|
D-|--------6--------4----------------|------0--0------------------------|
G-|-6-6--6----4-4--4-----------------|-0-0-0----------------------------|
D-|----------------------------------|---------6------------------------|

31.
E-|---0-4-5-4p0----------------------|------4---------------------------|
B-|-5-----5-----5--------------------|--4-5-4--4------------------------|
G-|0------0--------------------------|--0-0-0--0------------------------|
D-|0---------------------------------|--4-4----4------------------------|
G-|----------------------------------|-0-0--0-0-0-----------------------|
D-|4------0--------------------------|----------------------------------|

32.
E-|-----0----------------------------|
B-|-3-5-3--3-------------------------|
G-|-0-0-0--0-------------------------|
D-|-0-0----0-------------------------|
G-|----------------------------------|
D-|0-0--0-0-0------------------------|

33.
E-|---0-4-5-4p0----------------------|----------------------------------|
B-|-5-----5-----5--------------------|-----------5--------7-------------|
G-|-0-----0--------------------------|--------------0--------0----------|
D-|-0--------------------------------|----------------6--------7--------|
G-|----------------------------------|-----------6-6----6-7-7----7------|
D-|4------0--------------------------|----------------------------------|

34.
E-|----------------------------------|
B-|-5-------3------------------------|
G-|----0--------0--------------------|
D-|-----6--------4-------------------|
G-|-6-6--6--4-4---4------------------|
D-|----------------------------------|

35.
E-|----------------------------------|----------------------------------|
B-|----0-----3-3---------------------|----0------5--------7-------------|
G-|---0-4p0--0-0---------------------|---0-4p0------0--------0----------|
D-|--0-------6-6--6------------------|--0------0------6--------7--------|
G-|-0--------------------------------|-0---------6-6----6-7-7----7------|
D-|-----0----0-----------------------|-----0----------------------------|

36.
E-|----------------------------------|----------------------------------|
B-|-5-------3------------------------|----0----3-3----------------------|
G-|----0--------0--------------------|---0-4p0-0-0----------------------|
D-|-----6--------4-------------------|--0------6-6--6-------------------|
G-|-6-6--6--4-4---4------------------|-0--------------------------------|
D-|----------------------------------|-----0---0------------------------|

37.
E-|-----5-------5--------------------|-----7-------10-------------------|
B-|----0-0-----3-3-------------------|----5-5-----9--9------------------|
G-|---0-------0----------------------|---0-------0----------------------|
D-|--0-------0-----------------------|--0-------0-----------------------|
G-|-0-------0------------------------|-0-------0------------------------|
D-|----------------------------------|----------------------------------|

38.
E-|-----5-------5--------------------|-----7-------10-------------------|
B-|----0-0-----3-3-------------------|----5-5-----9--9------------------|
G-|---0-------0----------------------|---0-------0----------------------|
D-|--0-------0-----------------------|--0-------0-----------------------|
G-|-0-------0------------------------|-0-------0------------------------|
D-|----------------------------------|----------------------------------|

39.
E-|-----5-------5--------------------|-----7-------10-------------------|
B-|----0-0-----3-3-------------------|----5-5-----9--9------------------|
G-|---0-------0----------------------|---0-------0----------------------|
D-|--0-------0-----------------------|--0-------0-----------------------|
G-|-0-------0------------------------|-0-------0------------------------|
D-|----------------------------------|----------------------------------|

40.
E-|------13--------16----------------|------17--------17----------------|
B-|----12--12----15--15--------------|----14--14----15--15--------------|
G-|---0---------0--------------------|---0---------0--------------------|
D-|--0---------0---------------------|--0---------0---------------------|
G-|-0---------0----------------------|-0---------0----------------------|
D-|----------------------------------|----------------------------------|

41.
E-|------17----------17--------------|----------------------------------|
B-|----14--14-----15---15------------|-----14-s-12-s-14-----------------|
G-|---0----------0-------------------|----0-----------------------------|
D-|--0----------0--------------------|---0------------------------------|
G-|-0----------0---------------------|--0-------------------------------|
D-|----------------------------------|-0--------------------------------|

ends
comments
We did not receive enough feedback on this tab! Please rate:
print report bad tab
1 2 3 4 5
I want to post or [tab]
guest
You may want to rate the tab now too:
select rating
Please do not post tabs as comments. Select "correction" instead!