Oops, an error
Loading. Please wait.

Big Ones Tab

11,014 views 12 this week
no commentswrite comment
1 2 3 4 5
excellent!
x 1
add to favorites launch autoscroll
font size
0
reset
Autoscroll
+/-
esc
set tempo
stop
Contributor
WARNING: You are trying to view
                                    content from Ultimate-Guitar.com
                                    in an unauthorized application,
                                    which is prohibited.

                                    Please use an official Ultimate
                                    Guitar Tabs application for iPhone,
                                    iPad or Android to access legitimate
                                    chords, guitar, bass, and drum tabs
                                    from Ultimate-Guitar.com database.

                                    Type "ultimate guitar tabs" in Apple
                                    App Store's or Android Market's
                                    search to find the application.
==============================================================================

                            "Big Ones" ----- Aerosmith

==============================================================================


Put Together By: [travis]


***I'm not taking any credit for any of these tabs, I just put together 
   this album tab since there wasn't one version of this great album.***



Contents:

1) Walk On Water ------------------------------- Unregistered
2) Love In An Elevator ------------------------- Mikhailo
   a) Love In An Elevator Solo ----------------- wilty00
3) Rag Doll ------------------------------------ tonedeafidiot
4) What It Takes ------------------------------- tonedeafidiot
5) Dude (Looks Like A Lady) -------------------- tonedeafidiot
6) Janie's Got A Gun --------------------------- mmcool5595
7) Cryin' -------------------------------------- Unregistered
8) Amazing ------------------------------------- Herni_motley
   a) Amazing Solo ----------------------------- -Rock-N'-Roll-
9) Blind Man ----------------------------------- Unregistered
10) Deuces Are Wild ---------------------------- tonedeafidiot
11) The Other Side ----------------------------- tonedeafidiot
12) Crazy -------------------------------------- Julian Loor
13) Eat The Rich ------------------------------- slush
14) Angel -------------------------------------- Unregistered
15) Livin' On The Edge ------------------------- Unregistered




++++++++++++++++++++++++++++++++++++++++++++++++++++++++++++++++++++++++++++++++++
++++++++++++++++++++++++++++++++++++++++++++++++++++++++++++++++++++++++++++++++++
Aerosmith - Walk on water. From the album "Big Ones"

b=Bend /=slide to ^=mute

Intro:

e|---------------------------------------------------|
B|---------------------------------------------------|
G|--b3---4---3---4-----------------------------------|
D|---------------------------------------------------|
A|-------------------2---3---4---5---5---5---5---5---|
E|---------------------------------------------------|

Main Riff:

e|---10---7---6---5---0---0-------------------|
B|--------------------------------------------|
G|--------------------------------------------|
D|--------------------------------------------|
A|--------------------------------------------|
E|----------------------------3---5---5---3---|

Verse:

Play this part 6 times.	       And this part 4 times
e|---------------------------| e-----------|
B|---------------------------| B-----------|
G|---------------------------| G-----------|
D|---7---9-------------------| D---7---9---|
A|---5---7-------------------| A---5---7---|
E|-----------0---0---0---0---| E-----------|
  High class......		Nose bleed...

Pre chorus:

e|-------------------------------------------------------------------|
B|-------------------------------------------------------------------|
G|-------------------------------------------------------------------|
D|---2---2---2---2---2---2-------2---2---2---2---2---2---4---5---6---|
A|---0---0---0---0---0---0---2---0---0---0---0---0---0---2---3---4---|
E|-------^---^-------^---^---0-------^---^-------^---^---------------|
  I never seen..... 

Chorus: Play each note several times, i don´t have the CD here so i don´t 
know how many.
     
e|---------------------------------------------------------------|
B|---------------------------------------------------------------|
G|---------------------------------------------------------------|
D|---7------------4-------------------2--------------------------|
A|---5------------2----------5--------0----------------------4---|
E|---------------------------3-------------------------------2---|
  Hey little......scuse......but......Walk on the water with you

Riff 2: Play it twice.
e|---------------------------------------------------|
B|---------------------------------------------------|
G|---11---14---9---9---4---4---11---14---9---4---4---|
D|---------------------------------------------------|
A|---------------------------------------------------|
E|---------------------------------------------------|

Then comes the main riff again 2 times.

Verse

Pre chorus

Chorus

Riff 2 four times

Here it´s a little solo, i haven´t figure it out yet, but the oher guitar play 
something like this:

e|-------------------------------|
B|-------------------------------|
G|-------------------------------|
D|-------------------------------|
A|---2---3---5---6---7---8---9---|
E|-------------------------------|

Then comes the main riff but in a lower key.

e|-------------------------------------------|
B|-------------------------------------------|
G|-------------------------------------------|
D|---0---------------------------------------|
A|-------2---1---0---------------------------|
E|-------------------0---0---3---5---5---3---|

Here is another part play it 3 times:

e|-------------------------------------------|
B|-------------------------------------------|
G|-------------------------------------------|
D|---6---6---6---7---7---7---8---8---8---9---|
A|---4---4---4---5---5---5---6---6---6---7---|
E|-------------------------------------------|
  Well the cook´s in the kitchen....

The end of that part goes like this:

e|-------------------------------------------|
B|-------------------------------------------|
G|-------------------------------------------|
D|---9---9---9---9---9---9--11--11--11--11---|
A|---7---7---7---7---7---7---9---9---9---9---|
E|-------------------------------------------|
  You know who I am......

In this part you just slide the lower E string like this:

E|---/8---/8---/8---/8---|
     Ah   Ah   Ah   Ah

Then you play chorus twice.

Riff 2

Main riff several times.


The whole song:

Intro
Main riff 
Verse
Pre Chorus
Chorus
Riff 2
Main riff
Verse
Pre Chorus
Chorus
Riff 2
Solo
Main riff in a lower key (D)

Middle part
Chorus 
Riff 2
Main riff
End


END
+++++++++++++++++++++++++++++++++++++++++++++++++++++++++++++++++
+++++++++++++++++++++++++++++++++++++++++++++++++++++++++++++++++
Aerosmith
Love in an Elevator

Figure 1	
  Intro:
Guitar 1
1(----------------------------------------) 
2(----------------------------------------)
3(----------------------------------------)
4(--4--0--2-----0-------------------------)
5(-----------2-----2--1--0-----0-----2----)
6(--------------------------3-----3-----0-)

   Play this 4 times and then we have:
1(-----------------------------------------------------)
2(--------------------------------------3-----3--------)
3(-----------2-----2-----------2-----------------------)
4(-2---------------------------0---4h5-----5-----5p4p0-)
5(-0----4h5-----5-----5p4p0----------------------------)
6(-----------------------------------------------------)

Figure 2
  Verse: 0:15
1(-------------------------------------------------------------)
2(-------------------------------------------------------------)
3(---------------------------------5------------------------5--)
4(---------------------------------5------------------------5--)
5(--2-----5--5---5--5---5----------3-----5--5-5-5-5------5--3--)
6(--0-----2--0---2--3---3----------------0--2-0-2-3------3-----)	
Work-in like a dog fo de boss man whoa! etc. 

Repeat this twice then play: 
1(--------------------------3---------------------------)  Play this
2(--------------------------3---------------------------)  twice
3(--------------------------0---------------------------)
4(--7----7--7--7--7---7-----0---7----7----7---7--7--7---)
5(--0----4--0--4--5---5-----X---0----4----0---4--5--5---)
6(--------------------------3---------------------------)
I kin-da hope we get stuck    Nobody gets out alive  etc.

Figure 3
  Interlude(2:13):    play this once        then repeat this
1(--------------------------------------I-----------------------------------)
2(--------------------------------------I-----------------------------------)
3(--------------------------------------I-----------------------------------)
4(--------------------------------------I-----------------------------------)
5(--------------------------------------I-----------------------------------)
6(-0-0-0-0--4p0--0-5p0-0-6p0--7p0--9-10-I-0--4p0--0--5p0--0--6p0--7p0--9-10-)


I'll have the rest out shortly. Enjoy!

END

++++++++++++++++++++++++++++++++++++++++++++++++++++++++++++++++++++++++++++
++++++++++++++++++++++++++++++++++++++++++++++++++++++++++++++++++++++++++++
Artist: Aerosmith
Song: Love In An Elevator


Alright I noticed there was a tab for the intro and all, but theres no solo! Well here
it is. This is from rockthisway.de and the author is at the bottom of the site. I take
no credit whatsoever for this tab, but I noticed it wasnt in the database and its an
awesome solo so here it is. Enjoy! -Wilty

[CODE]GUITAR SOLO
G1 (G2 w/ riff 1&2)
I-9-----10----12----10--9------10----12~~~~--I
I-10----10----10----10--10-------------------I
I--------------------------------------------I
I--------------------------------------------I
I--------------------------------------------I
I--------------------------------------------I

I-----------------------------------------7-----I
I--7^----7--8----10---8--7-----8-----10---7-----I
I--7^----7--7-----7---7--7-----7--7--10---------I
I-----------------------------------------------I
I-----------------------------------------------I
I-----------------------------------------------I

G1 (G2 w/ rhy. fig. 1)
I-0-0---12-0--0--10-0---------------12--------------------I
I-0--------------------15^------------15--12-14-----------I
I--------------------------------------------14--12-------I
I--------------------------------------------------14--12-I
I---------------------------------------------------------I
I---------------------------------------------------------I

I----------------------------------I-----5-----------9-9------10\----I
I-----12--------12----12-12---12---I--------------------------10\----I
I-----12--------12----12-12---12---I-4/6---6/7---4/9---9-9/11------9-I
I--14------14-14---14------14-\----I---------------------------------I
I----------------------------------I---------------------------------I
I----------------------------------I---------------------------------I

I---------------12------------14----14-14--------------------I
I------------------------------------------------------------I
I-11----11-11/12--12-12-12p14-14-14-14-14--14--14\-----------I
I------------------------------------------------------------I
I------------------------------------------------------------I
I------------------------------------------------------------I

I-------------------------------I
I---14--14--14--12^12^----------I
I---14--14--14--12^12^----------I
I-14--14---------------14-12-14-I
I-------------------------------I
I-------------------------------I

I-------------------------------------------I
I-------------------------------------------I
I-------------------------------------------I
I---14--12-12-12----------------------------I
I-----------------14-14-13-13-12-12-10------I
I---------------------------------------12\-I

I-------------------------------------------------------I
I-------------------------------------0-----------------I
I----------4^p2-4^p2-4^p2-4^p2-4^p2-4p0-4p2p0-4p2p0-2/--I
I-------------------------------------------------------I
I-0--0-0-0----------------------------------------------I
I-------------------------------------------------------I

G2 (G1 w/ riff 1)  (hold bend)_______]
I-19^------19^------19^--19----19--19--19--17-I
I---------------------------------------------I
I---------------------------------------------I
I---------------------------------------------I
I---------------------------------------------I
I---------------------------------------------I

I-----------------------------------19---------I
I-19----19^-------(19)p17-17--17--------17-----I
I----------------------------------------0-----I
I----------------------------------------------I
I----------------------------------------------I
I----------------------------------------------I

G1 (g2 pick scratches):
I-12---12-12---12-12--12--------------------------------------12-12I
I-15^-----15^-----15^----15^--12-14^-(14)p1214^-(14)p12-14-12-12-12I
I------------------------------------------------------------------I
I------------------------------------------------------------------I
I------------------------------------------------------------------I
I------------------------------------------------------------------I

I--------------------------12-12-12--------15-17^------------------I
I-----------14-14------15^-12-12-12-17-17--------------------------I
I-1214^--12-14-14----12--------------------------------------------I
I-----------------14-----------------------------------------------I
I------------------------------------------------------------------I
I------------------------------------------------------------------I
~~~~
I-17^-----------------------------------12-------------------------I
I--------15^-(15)p12-------12-15^-------12---12--------------------I
I----------------------15------------------------14p\p12--9--------I
I------------------------------------------------------------------I
I------------------------------------------------------------------I
I------------------------------------------------------------------I

I------------------------------------------------------------------I
I------------------------------------------------------------------I
I-12^~~~~-12-9-12p9------7^~~~---7---------------------------------I
I--------------------12-------------7p0-7p0------------------------I
I--------------------------------------------5---------------------I
I------------------------------------------------------------------I

I------------------------------------------------------------------I
I-------------------------------------0----------------------------I
I-------------------------------------0----2-----------------------I
I------------------------0--2---0--2-------------------------------I
I---7p5-----7p\p5--------------------------------------------------I
I--------7-------------------------------------3p\p0---------------I

I------------------------------------------------------------------I
I------------------------------------------------------------------I
I------------------------------------------------------------------I
I------------------------------------------------------------------I
I------------------------------------------------------------------I
I--4p/p7-----------------------------------------------------------I

G1&2      Riff 3
I------------------------------------------------------------------I
I------------------------------------------------------------------I
I------------------------------------------------------------------I
I------------------------------------------------------------------I
I------------------------------------------------------------------I
I-0-0-0-0-4p0-0-5p0-0-6p0-7p0-9-10--0-4p0-0-5p0-0-6p0-7p0-9-10-----I

Repeat x2

G1 (g2 w/ riff 3)
I------------------------------------------------------------------I
I---------------------------------------------------9-\7-----------I
I----12^--12~~~~---12^---12~--9------12-9-----9\7-9-9-\7--7--------I
I-------------------------------12--------7/9-9\7-9------------/12-I
I------------------------------------------------------------------I
I------------------------------------------------------------------I

I-12---------------------------------------------------------------I
I----12-------15^---------------------------------15-------15^p12--I
I----12----------------15---12-14-12-15-14--15^--------------------I
I------------------------------------------------------------------I
I------------------------------------------------------------------I
I------------------------------------------------------------------I

I-15^----15-15----15---15-15----15-15--15^----12-------------I
I-14^----14-14----14---14-14----14-14--14^----12-------------I
I----------------------------12------------------------------I
I------------------------------------------------------------I
I------------------------------------------------------------I
I------------------------------------------------------------I

I------------------------------------------------------------------I
I------------------------------------------------------------------I
I------------------------------------------------------------------I
I------------------------------------------------------------------I
I------------------------------------------------------------------I
I------------------------------------------------------------------I
  going_________________    down___________________________________

I-12-----------12--12--------------12-12----I
I-12-----------12--12--------------12-12----I
I-------------------------------------------I
I----14-----14--------------14--------------I
I-------------------------------------------I
I-------------------------------------------I

I------------------------------------------------------I
I--------------------------------------------14--------I
I---------------12------12^----12^-----------14--------I
I----11/12--14------14------------14---14-14-----14----I
I------------------------------------14----------------I
I------------------------------------------------------I

I------------------------------15-12----12--------15----I
I------------12h15--15p12------------12----15/17--------I
I----12^------------------14-12-------------------------I
I---------14--------------------------------------------I
I-------------------------------------------------------I
I-------------------------------------------------------I

I--------------15--------------15----15--17^----I
I----17--17~~-----17--17-17~~~----17------------I
I-----------------------------------------------I
I-----------------------------------------------I
I-----------------------------------------------I
I-----------------------------------------------I

I----17------------17------------17--------15^---(15)-----------I
I------------20^----------20^-------------------------12--------I
I---------------------------------------------------------12----I
I---------------------------------------------------------------I
I---------------------------------------------------------------I
I---------------------------------------------------------------I

I------------------------------------------------I
I----14--------0----------9----------------------I
I-12----12-----0----------9-----7--7~~~----------I
I-------------------7/9--------------------9/----I
I------------------------------------------------I
I------------------------------------------------I

I--------------------------------14------14------12----12----I
I---------14---------------------------------12----12--12----I
I--------------12----(12)\12/14-----14-----------------------I
I----/14-----------------------------------------------------I
I------------------------------------------------------------I
I------------------------------------------------------------I





I-------12------12-----------12--12-----------12--12---------12----I
I----15-----------15^--15^---------15^--15^---------15^--15^-------I
I------------------------------------------------------------------I
I------------------------------------------------------------------I
I------------------------------------------------------------------I
I------------------------------------------------------------------I

I----12------12-----------12----------12----------12---------12----I
I------15^-------12-15^-------12-15^-----12-15^------12-15^-----12-I
I------------------------------------------------------------------I
I------------------------------------------------------------------I
I------------------------------------------------------------------I
I------------------------------------------------------------------I

I-------19----19----19----19----19----19----19----19----I
I----20~~~~20~~~~20----20----20----20----20----20-------I
I-------------------------------------------------------I
I-------------------------------------------------------I
I-------------------------------------------------------I
I-------------------------------------------------------I[/CODE]

comments, corrections, thank-yous aerofan_tu@yahoo.com

END
+++++++++++++++++++++++++++++++++++++++++++++++++++++++++++++++++++++++++
+++++++++++++++++++++++++++++++++++++++++++++++++++++++++++++++++++++++++
RAG DOLL
As recorded by Aerosmith

Transcribed by tonedeafidiot
	

Words and Music by Tyler/Perry/Knight/Vallance

Gtr I (E A D G B E) - 'Clean'
Gtr II (E B E G# B E) - 'Lap Steel w/ Slide'

 Intro
  Moderate Rock Q=96(16=s16)
 4/4
  Gtr I
  W           E  e S E. S S  S S +S      E S
|----------|---------------------------------|
|----------|---------------------------------|
|----------|-----9-9p7--9-9-11-9-(9)-----9\--|
|----------|-----9-9p7--9-9-11-9-(9)-----9\--|
|----------|-/7----------------------------4s|
|----------|---------------------------------|
|
| Gtr II
| W           H.                  S   a  E.
|----------|---------------------------------|
|----------|---------------------------------|
|----------|---------------------------------|
|----------|-------------------------12s11s==|
|----------|---------------------------------|
|----------|---------------------------------|


    S  S S S S E.   S  S  S  S +S  S S S   S  S e S E. S S  S S +S    E  S
|----------------------------------------|------------------------------------|
|----------------------------------------|------------------------------------|
|--------9---9s7----9--9-11--9-(9)-9\----|--------9s7-------------------------|
|------9-9-9-9s7----9--9-11--9-(9)-9\----|------9-9s7--9-9-11-9-(9)---9\------|
|---7---------------7--------------------|----9-9------9-9-11-9-(9)---9\------|
|--------------------------------------4s|=7-----------7-7---------------5s===|
|
|   ~~~~~~~~~~~~~~~~~~~                    ~~
|   H              +E     E.       S S S   H.                    S  a E.
|----------------------------------------|------------------------------------|
|----------------------------------------|------------------------------------|
|----------------------------------------|--------------------------6s5-------|
|--12-------------(12)-------------6s7s6s|=7----------------------------------|
|-(12)------------(12)-------------------|------------------------------------|
|----------------------------------------|------------------------------------|


   E  e S E.     S S  S S +Q        E e S E.   S  S   S S +S  E     S






|--------------------------------|------------------------------------|
|--------------------------------|------------------------------------|
|--------------------------------|----9-9p7----9--9--11-9-(9)-9\------|
|-----9-9p7------9-9-11-9-(9)----|----9-9p7----9--9--11-9-(9)-9\------|
|-----9-9p7------9-9-11-9-(9)----|--7-------------------------------4s|
|--7-------------7-7----7-(7)----|------------------------------------|
|
|                ~~~~~~~~~~~~~      ~~
| +Q    E    S S Q        +S   E.   H         +E      E    S  S  S  S
|----------------7--------(7)----|------------------------------------|
|--------------7-----------------|------------------------------------|
|-(5)s==6s===7-------------------|------------------------------------|
|-----------------------------/9s|=12--------(12)----------------0----|
|--------------------------------|------------------/12---12p10----12-|
|--------------------------------|------------------------------------|


    E  e S E. S S  S S  +S   E  S
|-----------------------------------|
|-----------------------------------|
|-------------9-9-11-9--(9)--9\-----|
|------9-9p7--9-9-11-9--(9)--9\-----|
|---7--9-9p7--------------------4s==|
|-----------------------------------|
|
|   ~~~~~~~~~~~~~~~~~~~~~~~~
|  +H.                  +S   E  S
|-----------------------------------|
|-----------------------------------|
|-----------------------------------|
|---------------------------12s13---|
|-(12)-----------------(12)---------|
|-----------------------------------|


   E  e   S  E.     S  S  S  S  +S  E     S
|-------------------------------------------|
|-------------------------------------------|
|----11--11p=9-----11-11-13-11-(11)11\------|
|----11--11p=9-----11-11-13-11-(11)11\------|
|--9----------------9--9-----9--(9)-------4s|
|-------------------------------------------|
|
|  Q     +E.     S  E     S  S   E      E
|-------------------------------------------|
|---------------13--------------13s====14---|
|------------------13s===14s13--13s====14---|
|-14----(14)--------------------------------|
|-------------------------------------------|
|-------------------------------------------|


                                   Chorus
                                $
   E  e   S  S  e    Q     Q         S  S e Q  S S S S  S  E.
|-------------------------------||----------------------------|
|-------------------------------||o---------------------------|
|----11--11p=9-11---11\----7----||-------------------------2--|
|----11--11p=9-11---11\----7----||-------------0-1-2-3--4-----|
|--9-----------------9\----5----||o--0--1-2-2-----------------|
|-------------------------------||----------------------------|
|
|                                    ~~~
|  Q     +E.      S  Q     E. S      H.                +S  E.
|-14----(14)s=====9-------------||----------------------------|
|-14----(14)s=====9-------------||o---------------------------|
|--------------------9\--/10----||----------------------------|
|------------------------/10----||--/7-----------------(7)-7s=|
|-------------------------------||o------------------------7s=|
|-------------------------------||----------------------------|


   S S e Q  S S S S S E.    S   S e Q  S S S S S E.      S S e Q   E. S +Q



|------------------------|-----------------------------|---------------------|
|------------------------|-----------------------------|-----------0--0-(0)--|
|---------------------2--|-----------------------2-----|-----------0--1-(1)--|
|-----------0-1-2-3-4----|-------------0-1-2-3-4-------|-----------0--2-(2)--|
|--0-1-2-2---------------|--0---1-2-2------------------|-0-1-2-2---x--2-(2)--|
|------------------------|-----------------------------|-----------3--0-(0)--|
|
|  ~~~~~~~~~~~~~~~~~~~~~~~~~~~~~                               ~
|  W                        H..                     E    Q     Q   E. S +Q
|------------------------|-/5-----------------------5/-|----------/3--0-(0)--|
|------------------------|-/5-----------------------5/-|----------/3--0-(0)--|
|------------------------|-/5-----------------------5/-|-5s====7--/3--0-(0)--|
|-10---------------------|-/5-----------------------5/-|-5s====7--/3--0-(0)--|
|-10---------------------|-----------------------------|---------------------|
|------------------------|-----------------------------|---------------------|


   S   S e Q  S S S S S E.
|----------------------------|
|----------------------------|
|-----------------------2----|
|-------------0-1-2-3-4------|
|--0---1-2-2-----------------|
|----------------------------|
|
|  H..                     E
|----------------------------|
|----------------------------|
|----------------------------|
|-/7-----------------------7-|
|-/7-----------------------7-|
|----------------------------|


                        To Coda
    S  S e Q  S S S S   S   E.    S  S e Q  S S S S  S  E.
|------------------------------|-----------------------------|
|------------------------------|-----------------------------|
|---------------------------2--|------------------------2----|
|-------------0-1-2-3---4------|------------0-1-2-3--4-------|
|---0--1-2-2-------------------|--0--1-2-2-------------------|
|------------------------------|-----------------------------|
|
|   ~~~~~~~~~~~~~~~~~~~~~~~
|   H.                 +S   E.    H.                +S  E S
|------------------------------|-/5-----------------(5)-5s7--|
|------------------------------|-/5-----------------(5)-5s7--|
|------------------------------|-/5-----------------(5)-5s7--|
|-/10-----------------(10)-10\-|-/5-----------------(5)-5s7--|
|-/10-----------------(10)-10\-|-----------------------------|
|------------------------------|-----------------------------|


                            2/4
   S  S e Q      E. S +Q      E.S +E   E
|--------------------------|---------------||
|----------------0--0-(0)--|--7-5-(5)------||
|----------------0--1-(1)--|--7-6-(6)------||
|----------------0--2-(2)--|--7-7-(7)------||
|--0--1-2-2------x--2-(2)--|--5-7-(7)--2/--||
|----------------3--0-(0)--|----5-(5)------||
|
|  ~~~
|  Q.       +E   E. S +Q      E.S +E  +E
|----------------3--0-(0)--|---------------||
|----------------3--0-(0)--|---------------||
|----------------3--0-(0)--|-10S5-(5)-(5)/-||
|-/7--------(7)\-3--0-(0)--|-10S5-(5)-(5)/-||
|-/7--------(7)\-----------|---------------||
|--------------------------|---------------||


 Verse
 1.
 4/4

    E  e S E. S S  S S  +E         S S
|---------------------------------------|
|---------------------------------------|
|------9-9p7--9-9-11-9--(9)\------------|
|------9-9p7--9-9-11-9--(9)\------------|
|--/7--------------------------------5s=|
|---------------------------------------|
|
|   ~~~~~~~~~~~~~~~~~~~~~~~~~
|   H.                  +S    a  E.
|---------------------------------------|
|---------------------------------------|
|-/12------------------(12)-------------|
|-/12------------------(12)--12p10S=====|
|---------------------------------------|
|---------------------------------------|


   E  e S E.        S S  S S +S   E.
|--------------------------------------|
|--------------------------------------|
|-----9-9p7---------9-9-11-9-(9)--9\---|
|-----9-9p7---------9-9-11-9-(9)--9\---|
|--7-----------------------------------|
|--------------------------------------|
|
|  ~~~
|  Q.         a  E  Q         S   S  E
|--------------------------------------|
|--------------------------------------|
|------------------10s=======12--10s12-|
|-12---------12s10---------------10s12-|
|-12---------12s10---------------------|
|--------------------------------------|


   e e  S E.  S  S  S S +S    E.  e  e S E. S S  S S +S   E  S
|-------------------------------|-------------------------------|
|-------------------------------|-------------------------------|
|-------------------------------|-------------------------------|
|----9--9-7---9--9-11-9-(9)---9-|----9-9p7--9-9-11-9-(9)--9-----|
|----9--9-7---9--9-11-9-(9)---9-|----9-9p7--9-9-11-9-(9)--9--6--|
|-/7----------7-------7-(7)---7-|-7---------7-------------------|
|
|    ~~~~~~~~~~~~~~~~~
|  E Q.      +E     E   +S  a E.  H.                 +S   E  S
|-------------------------------|-------------------------------|
|-/7----------------------------|-------------------------------|
|-/7------------------------7s5s|=7------------------(7)-10-----|
|-/7-7-------(7)------------7s5s|=7------------------(7)-10s12--|
|-------------------7---(7)-----|-------------------------------|
|-------------------------------|-------------------------------|


   E  e S E. S S  S S  +S      E.
|-----------------------------------|
|-----------------------------------|
|-----9-9p7--9-9-11-9--(9)-----9\---|
|-----9-9p7--9-9-11-9--(9)-----9\---|
|--7--------------------------------|
|-----------------------------------|
|
|  ~~~
|  H.                  +S   a  E  S
|-----------------------------------|
|-----------------------------------|
|-12------------------(12)-12s10s12-|
|-12------------------(12)-12s10s12-|
|-----------------------------------|
|-----------------------------------|


   E e S E.  S S  S S  +S   E S   e  e S E.    S  S  S S +S  E.



|-------------------------------|-------------------------------|
|-------------------------------|-------------------------------|
|----9-9p7---9-9-11-9--(9)--9---|-------------------------------|
|----9-9p7---9-9-11-9--(9)--9-x-|----9-9-7-----9--9-11-9-(9)-9--|
|-/7--------------------------x-|----9-9-7-----9--9-11-9-(9)-9--|
|-------------------------------|-7------------7-------7-(7)-7--|
|
|  ~~~~~~~~~~~~~~~~~~~~~~~~       ~~~~~~~~~~~~~~~~~~~~~~~~~~~
|  H         Q         +S   E S   Q.        E +E     E   +S  E.
|-------------------------------|-------------------------------|
|-------------------------------|-------------------------------|
|--------------------------10-5s|=7--------------------------5s=|
|-12--------12--------(12)-10---|-----------7-(7)------------5s=|
|-----------12--------(12)------|--------------------7---(7)----|
|-------------------------------|-------------------------------|


  e  e S E. S S  S S +S  E S    E e   S  E.     S S  S  S  +S  E.
|----------------------------|---------------------------------------|
|----------------------------|---------------------------------------|
|----------------------------|----9---9p=7------9-9-11--9--(9)-9\----|
|----9-9p7--9-9-11-9-(9)-9---|----9---9p=7------9-9-11--9--(9)-9\----|
|----9-9p7--9-9-11-9-(9)-9-6s|==7------------------------------------|
|-7---------7----------------|---------------------------------------|
|
|                               ~~~~~~~~~
| H.                 +S  E.     Q    +E.     S  E    S  S  +E      E
|----------------------------|---------------------------------------|
|----------------------------|---------------------------------------|
|-7------------------(7)-9s==|=12---(12)-----------------------------|
|-7------------------(7)-9s==|=12---(12)-------10s==12-12-(12)----12-|
|----------------------------|--------------12---------12-(12)-------|
|----------------------------|---------------------------------------|


   E      e   S  E.        S S  S S  +S  E.
|-------------------------------------------------|
|-------------------------------------------------|
|---------9---9p=7---------9-9-11-9--(9)-9\-------|
|---------9---9p=7---------9-9-11-9--(9)-9\-------|
|-/7----------------------------------------------|
|-------------------------------------------------|
|
|         ~~~~~~~          ~~
|  S  S   E  +E      a  E  Q         +S  S   E
|-------------------------------------------------|
|-------------------------12--------(12)-x--------|
|-------/12-(12)----12p11-12--------(12)-x--------|
|-12p10-/12-(12)----------------------------12s===|
|-12p10-/12-(12)----------------------------12s===|
|-------------------------------------------------|


   e   e  S E.       S  S   S   S  +S   E.
|------------------------------------------|
|------------------------------------------|
|-----11-11-9-------11-11--13--11-(11)-11\-|
|-----11-11-9-------11-11--13--11-(11)-11\-|
|-/9-----------------9--9---9---9--(9)--9\-|
|------------------------------------------|
|
|  Q.           E    E      E       Q
|------------------------------------------|
|--------------14\-------------------------|
|--------------14\-/14----(14)-----14------|
|-14-----------14\-/14----(14)-----14------|
|-14-----------------------14--------------|
|------------------------------------------|


   S  S  e     Q        E. S  +Q





|-----------------------------------||
|-----------------------0--0--(0)--o||
|-----------------------0--1--(1)---||
|-----------------------0--2--(2)---||
|--0--1--2-----2--------x--2--(2)--o||
|-----------------------3--0--(0)---||
|
|  S  S  S  S  S  S  E  Q      Q
|-----------------------------------||
|----------------------------------o||
|-14s13s14s13-14s13s14-14\----------||
|-14s13s14s13-14s13s14-14\---/10----||
|----------------------------/10---o||
|-----------------------------------||


 Verse
  2.
    E  e   S  E.   S  S  S S  +E      S  S
|------------------------------------------|
|------------------------------------------|
|------9---9p=7----9--9-11-9--(9)\---------|
|------9---9p=7----9--9-11-9--(9)\---------|
|--/7------------------------------------5s|
|------------------------------------------|
|
|   E  E   Q      +E     E    +S    E    S
|------------------------------------------|
|----------------------------------11s==12-|
|------------------------------------------|
|-/12-----12-----(12)----------------------|
|-/12-12-(12)----(12)---12---(12)----------|
|------------------------------------------|


    E  e S E. S S  S S  +S  E.     e  e S E. S S  S S +S  E.
|-------------------------------|-----------------------------|
|-------------------------------|-----------------------------|
|------9-9p7--9-9-11-9--(9)-9\--|-----------------------------|
|------9-9p7--9-9-11-9--(9)-9\--|-----9-9-7--9-9-11-9-(9)-9---|
|---7---------------------------|-----9-9-7--9-9-11-9-(9)-9---|
|-------------------------------|-/7---------7------7-(7)-7---|
|
|   ~~~~~~~~~~~~~~~~~~~~~~~~       ~~~~~~~~~~~~~~~~~~~~~~~
|   H.                  +S  E S    H.                 +S  E S
|--12------------------(12)-----|--7------------------(7)-----|
|-(12)-----------------(12)-5s7-|--7------------------(7)-5s7-|
|-------------------------------|-----------------------------|
|-------------------------------|-----------------------------|
|-------------------------------|-----------------------------|
|-------------------------------|-----------------------------|


  e  e S E. S S  S S +S  E  S     E e S E.     S  S  S  S +S   E.
|-----------------------------|----------------------------------------|
|-----------------------------|----------------------------------------|
|-----------------------------|-----9-9p7------9--9-11--9-(9)--9\------|
|----9-9p7--9-9-11-9-(9)-9----|-----9-9p7------9--9-11--9-(9)--9\------|
|----9-9p7--9-9-11-9-(9)-9--6s|===7------------------------------------|
|-7---------7-----------------|----------------------------------------|
|
| ~~~~~~~~~~~~~~~~~~~~~~~         ~~~
| H.                 +S  E  S     H         a  E.       S  S   S  S  S
|-7------------------(7)------|-/12------------------------------------|
|-7------------------(7)-8s12-|-/12--------10s12-----------------------|
|-----------------------------|------------------------11s12--11s12s11s|
|-----------------------------|----------------------------------------|
|-----------------------------|----------------------------------------|
|-----------------------------|----------------------------------------|


   E e S E.   S  S  S  S  +S  E  S




|-----------------------------------|
|-----------------------------------|
|----9-9p7----9--9-11--9--(9)-9-----|
|----9-9p7----9--9-11--9--(9)-9--x--|
|-/7-----------------------------x--|
|-----------------------------------|
|
|  H          E.       S  +E.    S
|-----------------------------------|
|-12--------/12---------------------|
|-12--------/12-------12-(12)s==14--|
|-----------------------------------|
|-----------------------------------|
|-----------------------------------|


                                                                 D.S. al Coda
    e  e     S  E.  S  S  S  S  +S   E.           S  S  e   Q      E. S  +Q
|---------------------------------------------|-------------------------------||
|---------------------------------------------|--------------------0--0--(0)--||
|-----11----11--9--11-11-13-11-(11)-11\-------|--------------------0--1--(1)--||
|-----11----11--9--11-11-13-11-(11)-11\-------|--------------------0--2--(2)--||
|--/9---------------9--9--9--9--(9)--9\-------|---0--1--2---2------x--2--(2)--||
|---------------------------------------------|--------------------3--0--(0)--||
|
|                                                    ~~~
|   E  S  S  S  E.  S  S  E      S   E   +S       S  E.     E  E   Q      Q
|---------------------------------------------|-----14--------14-/14\---/10---||
|-/14----------14--14s13s14----/14--14--(14)\-|-/14-------/14----/14\---/10---||
|-/14-14s13s14-----14s13s14----/14--14--(14)\-|-/14-------/14----/14\---/10---||
|---------------------------------------------|-------------------------/10---||
|---------------------------------------------|-------------------------------||
|---------------------------------------------|-------------------------------||


  &
                                                         2/4
   S  S e Q  S S S S  S  E.     S  S e Q      E. S +Q      E.S +E   E
|----------------------------|--------------------------|---------------||
|----------------------------|----------------0--0-(0)--|--7-5-(5)------||
|------------------------2---|----------------0--1-(1)--|--7-6-(6)------||
|------------0-1-2-3--4------|----------------0--2-(2)--|--7-7-(7)------||
|--0--1-2-2------------------|--0--1-2-2------x--2-(2)--|--5-7-(7)--2/--||
|----------------------------|----------------3--0-(0)--|----5-(5)------||
|
|                               ~~~
|  H.                +S  E S    Q.       +E   E. S +Q      E.S +E  +E
|-/5-----------------(5)-5s7-|----------------3--0-(0)--|---------------||
|-/5-----------------(5)-5s7-|----------------3--0-(0)--|---------------||
|-/5-----------------(5)-5s7-|----------------3--0-(0)--|-10S5-(5)-(5)s=||
|-/5-----------------(5)-5s7-|-/7--------(7)\-3--0-(0)--|-10S5-(5)------||
|----------------------------|-/7--------(7)\-----------|---------------||
|----------------------------|--------------------------|---------------||


 Guitar Solo
 4/4
   e  e  S E.  S  S  S  S  +S   E.        E        E     E        E        Q    Q
|-------------------------------------|--------------------------------------------|
|-------------------------------------|--------------------------------------------|
|----11-11-9--11-11----11-(11)-11\----|-/11-------11----------------------11---13--|
|----11-11-9--11-11-13-11-(11)-11\----|-/11-------11----13-------13-------11---13--|
|-/9-----------9--9--9--9--(9)--9\----|--/9--------9-----9--------9--------9---11--|
|-------------------------------------|--------------------------------------------|
|
|                                                                     ~~~~~~~~
|                                         |--3--|
|  H           Q           +E.      S     S  S  S  s  S  S  S  a  S   S   +H
|-------------------------------------|--------------------------------------------|
|-------------------------------------|--14s13----13----14s12--------14--(14)------|
|-10----------13----------(13)s====14-|--------13----14-------12s14-(14)-(14)------|
|-------------------------------------|--------------------------------------------|
|-------------------------------------|--------------------------------------------|
|-------------------------------------|--------------------------------------------|


      E  E        E       E  E        E      E      E
|--------------------------------------------------------|
|--------------------------------------------------------|
|----14-14------------------14-------14------------------|
|----14-14-------16------16-14-------14-----16-----16----|
|----12-12-------12------12-12-------12-----12-----12----|
|--------------------------------------------------------|
|
|                     ~~~~
|  a  E  S  S  a  S   E.     S  S  a  S  S  +S   S  E
|--------------------------------------------------------|
|-15h17----15--------17-----17s15-------17-(17)-17-17/---|
|-------17----15h17-(17)----------15s17-17-(17)----------|
|--------------------------------------------------------|
|--------------------------------------------------------|
|--------------------------------------------------------|


   e  E      e      E     Q         Q         E     E     S   E.  E  E     S  E S
|-----------------------------------------|---------------------------------------|
|-----------------------------------------|----------------------------------11---|
|-14-14------------------14--------13-----|--------11----11s==9--11-11-----x-11-x-|
|-14-14-----16-----16----14--------13-----|--------11----11s==9--11-11-----x-11-x-|
|-12-12-----12-----12----12--------11-----|--/9-------------------9--9-----x--9-x-|
|-----------------------------------------|---------------------------------------|
|
|               ~~~             ~~~~~~~                       ~~~~         ~~
|  E  S  S   S  E.     a  E  S  S  +E  E      E  a  E  a  S   E.  E  S  S  Q
|----17s15--------------------------------|-/14-----------------------------------|
|----------/17-17-----17s15---------------|-/14-14s12--------14-------------------|
|---------------------17s15----17-(17)-9/-|-----------12s14-(14)-14s12-12-14------|
|---------------------------17---------9/-|-------------------------------14------|
|-----------------------------------------|---------------------------------------|
|-----------------------------------------|---------------------------------------|


   E     E      E       E     Q         Q
|-------------------------------------------------|
|-------------------------------------------------|
|-11----11-------------------11--------13---------|
|-11----11-----13------13----11--------13---------|
|--9-----9------9-------9-----9--------11---------|
|-------------------------------------------------|
|
|                   ~~~
|  S  S  S  S  +S   E.     a  e  S  S   E   S  S
|-------------------------------------------------|
|--------------------------------------14---------|
|-------------------------14s15-13s14-(14)-14s17--|
|-14s12----14-(14)-14-----------------------------|
|-------14----------------------------------------|
|-------------------------------------------------|


    e   E  S  E.  e  E  e  E       e  E  e  E  Q    Q
|----------------------------|----------------------------|
|----------------------------|----------------------------|
|--14--14-14p12--14-14-------|----14-14-------14---13-----|
|--14--14-14p12--14-14-16-16-|----14-14-16-16-14---13-----|
|--12--12--------12-12-12-12-|----12-12-12-12-12---11-----|
|----------------------------|----------------------------|
|
|   ~~~~
|   H             E  e  E  e    a  Q     E  E  Q   +E   e
|----------------------------|----------------------------|
|--17------------17s22-15s17-|-------------17-17--(17)s14-|
|-(17)-----------------------|-17s15----17----------------|
|----------------------------|----------17----------------|
|----------------------------|----------------------------|
|----------------------------|----------------------------|


    e  E  S  E.  e     E      e   E



|------------------------------------|
|------------------------------------|
|-/11-11--------11----11-------------|
|-/11-11-13-13--11----11-----13--13--|
|--/9--9--9--9---9-----9------9---9--|
|------------------------------------|
|
|   E  E  S  E.  S  S  S  S  +E   E
|-/14--------------------------------|
|-/14s11----14--14s12----------------|
|-----------14--14s12----------------|
|--------14-----14s12----14-(14)s12--|
|---------------------14-------------|
|------------------------------------|


                                      Verse
      e     E     e     E  Q    Q        W                 W
|-----------------------------------||------------------|-------------------|
|-----------------------------------||------------------|-------------------|
|----11----11-------------11----7\--||------------------|-------------------|
|----11----11----13----13-11----7\--||------------------|-------------------|
|-----9-----9-----9-----9--9----5\--||------------------|-------------------|
|-----------------------------------||------------------|-------------------|
|
|                                        ~~~~~~~~~~~~~     ~~~~~~~~~~
|  a  S  S  S  S  S  S  E  Q    Q        H.       +S  E.   H     +E   E Q
|-----------------------------------||------------------|-------------------|
|-------------------------14--------||------------------|-------------------|
|-12h14-13-14-13-14s12--------/10\--||------------------|------------12-----|
|----------------------14-----/10\--||-/12-------(12)-7s|=12----(12)-12-2s==|
|-----------------------------------||------------------|-------------------|
|-----------------------------------||------------------|-------------------|


  Gtr II
  ~~
  H.      S E.  H.      +S  E.   H.       +S  E.
|-------------|---------------|------------------|
|-------------|---------------|------------------|
|---------x---|-------------7s|=12-------(12)-7s=|
|-7-------x-2s|=7-------(7)-7s|=12-------(12)-7s=|
|---------x---|---------------|------------------|
|-------------|---------------|------------------|


  Gtr I
   W                    e  e      S  E.    S  S  S   S  +S    E.
|-------------------|-------------------------------------------------|
|-------------------|-------------------------------------------------|
|-------------------|-----11-----11--9----11-11-13--11-(11)--11\------|
|-------------------|-----11-----11--9----11-11-13--11-(11)--11\------|
|-------------------|--/9------------------9--9--9---9--(9)---9\------|
|-------------------|-------------------------------------------------|
|
| Gtr II
|  H.       +S   E.     E  S  S   S  E  S  E     E       S    S  S  S
|-------------------|-------------------------------------------------|
|-------------------|-----------/14-14/---14----14\----/14--/14-------|
|-12-------(12)-----|-/14-------/14-14/---14----14\----/14--/14----14-|
|-12-------(12)-12--|-/14-14s13---------------------------------------|
|-------------------|-------------------------------------------------|
|-------------------|-------------------------------------------------|


                                              Chorus
    S  S  e     Q        E.     S  +Q           S  S E E E S S S S  S  E.
|------------------------------------------||-----------------------------|
|------------------------0------0--(0)-----||o----------------------------|
|------------------------0------1--(1)-----||--------------------------2--|
|------------------------0------2--(2)-----||--------------0-1-2-3--4-----|
|---0--1--2-----2--------x------2--(2)-----||o--0--1-2-2-2----------------|
|------------------------3------0--(0)-----||-----------------------------|
|
|                                        T      ~~~

|   E     S  S  S  E  s  e   E      E    E      H.                 +S  E.
|---------------------------------/10--/10-||-----------------------------|
|--14-------------------14--14\---/10---10-||o----------------------------|
|-(14)---------14s13s14-14--14\---/10---10-||-----------------------------|
|--------12s14-14s13s14--------------------||--/7------------------(7)-7s=|
|------------------------------------------||o-------------------------7s=|
|------------------------------------------||-----------------------------|


   S S E E E S S S S S E.    S   S E E E S S S S S E.      S S E Q   E. S +Q
|-------------------------|------------------------------|---------------------|
|-------------------------|------------------------------|-----------0--0-(0)--|
|----------------------2--|------------------------2-----|-----------0--1-(1)--|
|------------0-1-2-3-4----|--------------0-1-2-3-4-------|-----------0--2-(2)--|
|--0-1-2-2-2--------------|--0---1-2-2-2-----------------|-0-1-2-2---x--2-(2)--|
|-------------------------|------------------------------|-----------3--0-(0)--|
|
|  ~~~~~~~~~~~~~~~~~~~~~~~~~~~~~~                                ~
|  W                         H..                      E    Q     Q   E. S +Q
|-------------------------|-/5------------------------5/-|----------/3--0-(0)--|
|-------------------------|-/5------------------------5/-|----------/3--0-(0)--|
|-------------------------|-/5------------------------5/-|-5s====7--/3--0-(0)--|
|-10----------------------|-/5------------------------5/-|-5s====7--/3--0-(0)--|
|-10----------------------|------------------------------|---------------------|
|-------------------------|------------------------------|---------------------|


  S S E E E S S S S S E.   S S E E E S S S S S E.
|------------------------|------------------------|
|------------------------|------------------------|
|---------------------2--|---------------------2--|
|-----------0-1-2-3-4----|-----------0-1-2-3-4----|
|-0-1-2-2-2--------------|-0-1-2-2-2--------------|
|------------------------|------------------------|


                                               1.
                                               2/4
  S S E E E S S S S S E.   S S E Q  E. S +Q     H
|------------------------|--------------------|-------||
|------------------------|----------0--0-(0)--|------o||
|---------------------2--|----------0--1-(1)--|-------||
|-----------0-1-2-3-4----|----------0--2-(2)--|-------||
|-0-1-2-2-2--------------|-0-1-2-2--x--2-(2)--|------o||
|------------------------|----------3--0-(0)--|-------||


               Outro
  2.
               4/4
   E. S +Q      +W                +W
|------------||----------------|--------------------------------|
|--7--5-(5)--||-(5)------------|--(5)---------------------------|
|--7--6-(6)--||-(6)------------|--(6)---------------------------|
|--7--7-(7)--||-(7)------------|--(7)---------------------------|
|--5--7-(7)--||-(7)------------|--(7)---------------------------|
|-----5-(5)--||-(5)------------|--(5)---------------------------|
|
| Gtr II
|     ~~~~~~~~~~~~~~               ~~~~                      ~~~~
|  E. S +Q      +Q.   E Q.   E    +H      S  S  S  S  S  S   E
|------------||----------------|--------------------------------|
|-10--5-(5)--||-(5)------------|--------------------------------|
|-10--5-(5)--||-(5)---3s5s==13-|-(13)-------------17s15-----17--|
|-10--5-(5)--||-(5)------------|---------15-16-17-------17-(17)-|
|------------||----------------|--------------------------------|
|------------||----------------|--------------------------------|


   +W






|------------------------------------------------|
|--(5)-------------------------------------------|
|--(6)-------------------------------------------|
|--(7)-------------------------------------------|
|--(7)-------------------------------------------|
|--(5)-------------------------------------------|
|
|   ~~~~~        ~~~~~~~~
|  +E   S  S  S  E.  +E   S  S  a  S  S  a  S  S
|------------------------------------------------|
|------------------------------------------------|
|-(17)s15-------17--(17)-------------------------|
|-(17)s15-------17--(17)-------16s17----17s15s17-|
|---------15s17----------17s16-------17----------|
|------------------------------------------------|


   +W
|------------------------------------------|
|--(5)-------------------------------------|
|--(6)-------------------------------------|
|--(7)-------------------------------------|
|--(7)-------------------------------------|
|--(5)-------------------------------------|
|
|  +S   S  S  S  S  a  E  S  E  S  S  +Q
|------------------------------------------|
|------------------------------------------|
|---------15s17----16s17s16s17----17-(17)--|
|-(17)----15s17----16s17s16s17----17-(17)--|
|------17-------17-------------17----------|
|------------------------------------------|


                           Begin Fade
  Gtr II
   +H.      Q    W          Wx6
|--------------|----------|--------*|
|--------------|----------|--------*|
|-(17)---------|----------|--------*|
|-(17)---------|----------|--------*|
|--------------|----------|--------*|
|--------------|----------|--------*|



Duration Legend
---------------
W - whole; H - half; Q - quarter; E - 8th; S - 16th; T - 32nd; X - 64th; a - acciaccatura
+ - note tied to previous; . - note dotted; .. - note double dotted
Uncapitalized letters represent notes that are staccato (1/2 duration)
Irregular groupings are notated above the duration line
Duration letters will always appear directly above the note/fret number it represents the
duration for.  Duration letters with no fret number below them represent rests.  Multi-
bar rests are notated in the form Wxn, where n is the number of bars to rest for.  Low
melody durations appear below the staff


Tablature Legend
----------------
 h   - hammer-on
 p   - pull-off
 b   - bend
 pb  - pre-bend
 r   - bend release (if no number after the r, then release immediately)
 /\  - slide into or out of (from/to "nowhere")
 s   - legato slide
 S   - shift slide
 - natural harmonic
[n]  - artificial harmonic
n(n) - tapped harmonic
 ~   - vibrato
 tr  - trill
 T   - tap
 TP  - trem. picking
 PM  - palm muting
\n/  - tremolo bar dip; n = amount to dip
 \n  - tremolo bar down
 n/  - tremolo bar up
/n\  - tremolo bar inverted dip
 =   - hold bend; also acts as connecting device for hammers/pulls
 <> - volume swell (louder/softer)
 x   - on rhythm slash represents muted slash
 o   - on rhythm slash represents single note slash

Misc Legend
-----------
 |  - bar
||  - double bar
||o - repeat start
o|| - repeat end
*|  - double bar (ending)
 :  - bar (freetime)
 $  - Segno
 &  - Coda
Tempo markers -  = BPM(8/16=s8/s16), where s8 = swing 8ths, s16 = swing 16ths



END
++++++++++++++++++++++++++++++++++++++++++++++++++++++++++++++++
++++++++++++++++++++++++++++++++++++++++++++++++++++++++++++++++
WHAT IT TAKES
As recorded by Aerosmith
(From the 1990 Album PUMP)

Transcribed by tonedeafidiot
	

Words and Music by Tyler/Perry/Child

D
x x 0 2 3 2
	
C
x 3 2 0 1 0
	
F
1 3 3 2 1 1
	
Dm
x x 0 2 3 1
Bb
x 1 3 3 3 x
	
G
3 2 0 0 0 3
	
Fm
x 8 10 10 9 8
	
Eb
x 6 8 8 8 x
C#
x 4 6 6 6 x
	
G#
4 6 6 5 4 4
	
C(type 2)
x 3 5 5 5 x
	
A
x 0 2 2 2 0
Dm(type 2)
x 5 7 7 6 5
	
Dm/B
x 2 3 2 3 x
	
D/Ab
x x x 1 3 2
	
Bbm
x 1 3 3 2 1

Gtr I (E A D G B E) - 'Clean'
Gtr II (E A D G B E) - 'Clean 2'
Gtr III (E A D G B E) - 'Acoustic Nylon'

 Intro
  Moderately Slow Rock Q=76
 2/4    4/4
  Gtr I
  H      E E E E E E E E   E E E E E E E E
|------|-----3-------3---|-----3-------3---|
|------|---3---3---3---3-|---3---3---3---3-|
|------|-0-------0-------|-0-------0-------|
|------|-----------------|-----------------|
|------|-----------------|-----------------|
|------|-----------------|-----------------|


  E E E E E E E E   E E E E E E E E
|-----3-------3---|-----3-------3----||
|---3---3---3---3-|---3---3---3---3--||
|-0-------0-------|-0-------0--------||
|-----------------|------------------||
|-----------------|------------------||
|-----------------|------------------||


 Verse
  H    H      Wx7          H.      S S S S
|-----------|------------|------------------|
|-----------|------------|-3----------------|
|-0---------|------------|-2-------2--------|
|-----------|------------|-0-------0---0----|
|-----------|------------|-----------0---0--|
|-----------|------------|------------------|


  H.      E E   E E E E E E Q    Q  Q  E E S S E
|-------------|----------------|------------------||
|-3-----------|---------0---0--|---------5--------||
|-0-----------|-------0---0----|-5--5--5-5---5-5\-||
|-0-----------|-----2----------|-5--5--5---5-5-5\-||
|-x-------0---|---2------------|-3--3--3---3---5\-||
|-3---------3-|-0--------------|------------------||


 Chorus
  H    Q  E E   Q  E. S E E S S E   H    E E Q    Q  E. S E E S S E
|-------------|-------1-----------|-------------|-------1-------------|
|-------------|----1--1-----------|-------------|----1--1-------------|
|-3-------3---|----2----3-3-3p2---|-3----3---3--|----2----3-3-3-2-----|
|-3----3--3---|-3--3----3-3-3---3-|-3----3-3-3--|-3--3----3-3-3-3-3---|
|-1----1--1p0-|-3---------------3-|-1----1---1--|-3---------------3---|
|-------------|-1-----------------|-------------|-1-------------------|


  Q  E E Q  Q    H    Q.   E   W          +H     E E E E
|--------------|-------------|----------|----------------|
|----3------2--|-6----5------|-3--------|-(3)----------3-|
|-3--3------2--|-7----5------|-2--------|-(2)--------2---|
|-3----3-2-----|-7----5------|-3--------|-(3)------3-----|
|-1----1-0-----|-5----3------|-2--------|-(2)----2-------|
|--------------|-------------|----------|----------------|
|
| Gtr II
| W              W             W           H     E E E E
|--------------|-------------|----------|----------------|
|--------------|-------------|----------|--------------3-|
|--------------|-------------|----------|------------2---|
|--------------|-------------|----------|----------3-----|
|--------------|-------------|----------|--------2-------|
|--------------|-------------|----------|----------------|


                                       Verse
                                        G
                                        Gtr III
  W               W                     E E E E  E E E E
                                        | | | |  | | | |
                                        / / / /  / / / /

  Q  Q   Q  Q     Q  E S S E E S s E    Q   e Q.     e E
|---------------|----1-1-----1---1---||-----3--------3---|
|---------------|----1-1-1---1---1---||-----3--------3---|
|---------------|----2---------------||-----4--------4---|
|-3--3--/6--6\--|----------3---3---3-||------------------|
|-1--1--/4--4\--|--------------------||------------------|
|---------------|-1------------------||------------------|
|
| H      H        W                     W
|-1-------------|--------------------||------------------|
|---------------|--------------------||------------------|
|---------------|--------------------||------------------|
|---------------|--------------------||------------------|
|---------------|--------------------||------------------|
|---------------|--------------------||------------------|


  D                      Em            D      C
  E E  E E  E E  E S S   E E  E E  E E  E E   E E E E  E E E E
  | |  | |  | |  | | |   | |  | |  | |  | |   | | | |  | | | |
  / /  / /  / /  / / /   / /  / /  / /  / /   / / / /  / / / /

  Q    e Q.      e E     Q    e Q.      e E   Q   e Q.     e E
|-----10--------10-----|-----12--------10---|-----8--------8---|
|-----10--------10-----|-----12--------10---|-----8--------8---|
|-----11--------11-----|-----12--------11---|-----9--------9---|
|----------------------|--------------------|------------------|
|----------------------|--------------------|------------------|
|----------------------|--------------------|------------------|


  G                  D
  E E E E  E E E E   E E  E E  E E  E S S
  | | | |  | | | |   | |  | |  | |  | | |
  / / / /  / / / /   / /  / /  / /  / / /

  Q   e Q.     e E   Q    e Q.      e E
|-----3--------3---|-----10--------10-----|
|-----3--------3---|-----10--------10-----|
|-----4--------4---|-----11--------11-----|
|------------------|----------------------|
|------------------|----------------------|
|------------------|----------------------|


  Em            D      C
  E E  E E  E E  E E   E E E E  E E E E
  | |  | |  | |  | |   | | | |  | | | |
  / /  / /  / /  / /   / / / /  / / / /

  Q    e Q.      e E   Q   e Q.     e E
|-----12--------10---|-----8--------8---||
|-----12--------10---|-----8--------8---||
|-----12--------11---|-----9--------9---||
|--------------------|------------------||
|--------------------|------------------||
|--------------------|------------------||


 Chorus
  H    Q  E E   Q  E. S E E S S E   H    E E Q    Q  E. S E E S S E
|-------------|-------1-----------|-------------|-------1-------------|
|-------------|----1--1-----------|-------------|----1--1-------------|
|-3-------3---|----2----3-3-3p2---|-3----3---3--|----2----3-3-3-2-----|
|-3----3--3---|-3--3----3-3-3---3-|-3----3-3-3--|-3--3----3-3-3-3-3---|
|-1----1--1p0-|-3---------------3-|-1----1---1--|-3---------------3---|
|-------------|-1-----------------|-------------|-1-------------------|


  Q  E E Q  Q    H    Q.   E   E E H.        +H     E E E E   Q  Q   Q  Q






|--------------|-------------|-------------|----------------|---------------|
|----3------2--|-6----5------|-----3-------|-(3)----------3-|---------------|
|-3--3------2--|-7----5------|---2---------|------------2---|---------------|
|-3----3-2-----|-7----5------|-3-----------|----------3-----|-3--3--/6--6\--|
|-1----1-0-----|-5----3------|-1-----------|--------2-------|-1--1--/4--4\--|
|--------------|-------------|-------------|----------------|---------------|
|
| Gtr II
| W              W             W              H     E E E E   H      H
|--------------|-------------|-------------|----------------|-1-------------|
|--------------|-------------|-------------|--------------3-|---------------|
|--------------|-------------|-------------|------------2---|---------------|
|--------------|-------------|-------------|----------3-----|---------------|
|--------------|-------------|-------------|--------2-------|---------------|
|--------------|-------------|-------------|----------------|---------------|


                       Guitar Solo
  F                     C
  Gtr III
  Q  Q  E E E  E          E    E  E E   E   E     E         E
  |  |  | | |  |          |    |  | |   |   |     |         |
  /  /  / / /  /          /    /  / /   /   /     /         /

  Q  Q  Q   E  E         +E   +Q.      +E   S  S  S  S     +E
|----1---------------||----------------------------------------|
|----1--1-----13b15==||=(13)r(13)-----(13)-10-13-10------------|
|----2--2------------||-----------------------------12b14-(12)-|
|-------3------------||----------------------------------------|
|--------------------||----------------------------------------|
|-1------------------||----------------------------------------|


  Dm                                   C       Bb
   E     E             E        E   E   E  E   E
   |     |             |        |   |   |  |   |
   /     /             /        /   /   /  /   /

   S  S  S  S  a      +S   +S   E  +E   E  S S S S
|-10------------------------------------------------|
|----10-13p10---------------------------------------|
|-------------12b14==(12)r(12)-10-(10)-----------5--|
|--------------------------------------12\---5s7----|
|---------------------------------------------------|
|---------------------------------------------------|


  Bb
   E  E   E         E    E  E        E    S S
   |  |   |         |    |  |        |    | |
   /  /   /         /    /  /        /    / /

   E  S S S a   +E    S +E  S S a   +S  S S S
|---------------------------------------------|
|---------------------------------------------|
|-(5)-----------------------------------------|
|--7--6-5-3-5b6-(5)---5-(5)-3-5-5b7-(5)-3-5-3-|
|---------------------------------------------|
|---------------------------------------------|


  G
   E  E   E   E    E    E    E     S S
   |  |   |   |    |    |    |     | |
   /  /   /   /    /    /    /     / /

  +E.   S S S S S  S  S S S +S  E.
|---------------------------------------|
|---------------------------------------|
|-----------7s5----5s=3---2-(2)---------|
|-(3)---5s7-----5-(5)s3-3---------------|
|---------------------------------------|
|-------------------------------1-------|



  C
    E     E     E            E         E      E   E         E
    |     |     |            |         |      |   |         |
    /     /     /            /         /      /   /         /

    S  S  S  S  S  S  a     +S   +S   +S   E.    +S   T  T  S  S
|-----------------------------------------13----(13)-------10-13b15==|
|-----------10----13---------------------------------10-10-----------|
|--------------10----10b12-(10)-(10)-(10)----------------------------|
|-----10-------------------------------------------------------------|
|-/12----12----------------------------------------------------------|
|--------------------------------------------------------------------|


  Dm                                   C                Bb
    E  E   E  E                E        E            E   E
    |  |   |  |                |        |            |   |
    /  /   /  /                /        /            /   /

                                                     ~~~~
   +Q     +E.    +S   a       +S   +S   S  S  a     +E   S  S
|-(13)---(13)r==(13)-13pb15==(13)r(13)-10----13b14-(13)-10-----|
|-----------------------------------------10---------------10--|
|--------------------------------------------------------------|
|--------------------------------------------------------------|
|--------------------------------------------------------------|
|--------------------------------------------------------------|


        Bb
          E        E            E        E            E        E            E        E
          |        |            |        |            |        |            |        |
          /        /            /        /            /        /            /        /

   a     +S   +S   S  S  a     +S   +S   S  S  a     +S   +S   S  S  a     +S   +S   S  S
|-13b15-(13)r(13)-10----13b15-(13)r(13)-10----13b15-(13)r(13)-10----15b17-(15)r(15)-13----||
|--------------------10--------------------10--------------------10--------------------15-||
|-----------------------------------------------------------------------------------------||
|-----------------------------------------------------------------------------------------||
|-----------------------------------------------------------------------------------------||
|-----------------------------------------------------------------------------------------||
|
| Gtr II
|         W
|-----------------------------------------------------------------------------------------||
|-----------------------------------------------------------------------------------------||
|-----------------------------------------------------------------------------------------||
|-----------------------------------------------------------------------------------------||
|-----------------------------------------------------------------------------------------||
|-----------------------------------------------------------------------------------------||


 Bridge
        C
          E  E E E E E  E            E
          |  | | | | |  |            |
          /  / / / / /  /            /

          ~~~~
   a     +H.            E   a       +E
|-19b20-(19)---------------19pb20==(19)r==|
|-----------------------------------------|
|-----------------------------------------|
|-----------------------------------------|
|-----------------------------------------|
|-----------------------------------------|
|
|         E  E E E E E  E.              S
|----------------8------------------------|
|--------------8---8----------------------|
|------------9-------9--------------------|
|--------10------------10-----------------|
|-----------------------------------------|
|-----------------------------------------|


  G                                 Bb
    E  E E E  E  E E           E      E  E E E E E E           E
    |  | | |  |  | |           |      |  | | | | | |           |
    /  / / /  /  / /           /      /  / / / / / /           /

    ~~~~
   +H         Q.      a       +E     +H.           E  a       +E
|-(19)---------------18pb19==(18)r|=(18)-------------17pb18==(17)-|
|---------------------------------|-------------------------------|
|---------------------------------|-------------------------------|
|---------------------------------|-------------------------------|
|---------------------------------|-------------------------------|
|---------------------------------|-------------------------------|
|
|   E  E E E +Q.               E      E  E E E E E E           E
|----------3-(3)------------------|-------------------------------|
|--------3------------------------|----------3--------------------|
|------4--------------------------|--------3---3------------------|
|---5-----------------------------|------3-------3-------------3--|
|------------------------------0--|---1------------1--------------|
|---------------------------------|-------------------------------|


                         Pre-Chorus
  F                       Fm            Eb
   E E E E  E  E  E  E     E  E E E E E E E
   | | | |  |  |  |  |     |  | | | | | | |
   / / / /  /  /  /  /     /  / / / / / / /

   H        Q     Q        H        E E Q
|-17-------17\---17\---||--------------------|
|----------15\---15\---||--------------------|
|----------------------||---------------8----|
|----------------------||-[3]-------3s8-8----|
|----------------------||-[3]-------3---6----|
|----------------------||-[1]-------1---6----|
|
|  E E E E +Q.       E     W
|--------1-(1)---------||--------------------|
|------1---------------||--------------------|
|----------------------||--------------------|
|----3-----------------||--------------------|
|----------------------||--------------------|
|--1-------------------||--------------------|


  C#                G#                C(type 2)
  E E E E E E E E   E E E E E E E E   E E E E E E E E
  | | | | | | | |   | | | | | | | |   | | | | | | | |
  / / / / / / / /   / / / / / / / /   / / / / / / / /

  Q   Q   Q   Q     H       Q   Q     Q   Q   Q   Q
|-----------------|-----------------|-----------------||
|-----------------|-----------------|-----------------||
|-6---6---6---6---|-----------------|-----------------||
|-6---6---6---6---|-6-------6---6---|-5---5---5---5---||
|-4---4---4---4---|-6-------6---6---|-3---3---3---3---||
|-4---4-----------|-4-------4---4---|-----------------||


 Chorus
  Bb                F
  E E E E E E E E   E E E E E   E  E  E
  | | | | | | | |   | | | | |   |  |  |
  / / / / / / / /   / / / / /   /  /  /

  Q   Q   Q   E E   H       S S E  E  E
|-----------------|-------------5-(5)----|
|-------------3---|----------------------|
|-3---3---3---3---|---------3s5----5--5\-|
|-3---3---3---3-3-|-3--------------------|
|-1---1---1-------|-3--------------------|
|-----------------|-1--------------------|



  Bb                  F
   E E E E E E  E E   E E E E E E   E E
   | | | | | |  | |   | | | | | |   | |
   / / / / / /  / /   / / / / / /   / /

   H       E Q.       Q   Q   E S S E E
|-------------------|-----1---------5------|
|-------------------|-----1---1------------|
|-\3-------3--------|-----2---0-2s5---5\---|
|--3-------3-3------|-----3----------------|
|--1-------1--------|----------------------|
|-------------------|-1--------------------|


                                                  H.=H
  Bb      A         Dm(type C(type 2)  Dm/B
                                                 2/4
  E E E E E E E E   E E E E E  E E E   W           H
  | | | | | | | |   | | | | |  | | |   |
  / / / / / / / /   / / / / /  / / /   /

  H       H         H       Q.     E   W          +H
|-----------------|------------------|----------|--------|
|-----------------|------------------|-3--------|-(3)----|
|-3-------2-------|-7-------5--------|-2--------|-(2)----|
|-3-------2-------|-7-------5--------|-3--------|-(3)----|
|-1-------0-------|-5-------3--------|-2--------|-(2)----|
|-----------------|------------------|----------|--------|


  A Tempo Q=76
                   Bb      C#        F       D/Ab
 4/4
   W               E E E E E E E E   E E E E E E E E
                   | | | | | | | |   | | | | | | | |
                   / / / / / / / /   / / / / / / / /

  +W               H       Q   Q     E E E E E E E E
|----------------|-----------------|---------4---4----|
|-(3)------------|-------------6---|-----1---5---5----|
|-(2)------------|-3-------6---6---|---2---2-4-4-4-4--|
|-(3)------------|-3-------6---6---|-3----------------|
|-(2)------------|-1-------4-------|------------------|
|----------------|-----------------|------------------|
|
| Gtr II
|  H     E E E E   W                 H       E E E E
|----------------|-1---------------|---------4---4----|
|--------------3-|-----------------|---------5---5----|
|------------2---|-----------------|---------4-4-4-4--|
|----------3-----|-----------------|------------------|
|--------2-------|-----------------|------------------|
|----------------|-----------------|------------------|


  Bbm      Bb        F                 Dm                Bb
  E E E  E E E E E   E E E E E E E E   E E E E E E E E   E E E E E E E E
  | | |  | | | | |   | | | | | | | |   | | | | | | | |   | | | | | | | |
  / / /  / / / / /   / / / / / / / /   / / / / / / / /   / / / / / / / /

  Q   Q    Q   Q     E E E E E E E E   E E E E E E E E   E E E E E E E E
|------------------|-----1-----------|-----1-------1---|-----1-------1---|
|------------------|---1---1---------|---1---1---1---1-|---1---1---1---1-|
|------------------|-----------0-----|-----------------|-----------------|
|-3---3/---6---6---|-3-------3---5s3-|-3-------3-------|-3-------3-------|
|-1---1/---4---4---|-----------------|-----------------|-----------------|
|------------------|-----------------|-----------------|-----------------|


                     Outro
  F                   Dm
  E E E E E E E E     E E E E E E E E
  | | | | | | | |     | | | | | | | |
  / / / / / / / /     / / / / / / / /


  E E E E E E E E     E E E E E E E E
|-----1-------1---||------1-------1---|
|---1---1---1---1-||o---1---1---1---1-|
|-----------------||------------------|
|-3-------3-------||--3-------3-------|
|-----------------||o-----------------|
|-----------------||------------------|


  Bb                F
  E E E E E E E E   E E E E E E E E     W
  | | | | | | | |   | | | | | | | |     |
  / / / / / / / /   / / / / / / / /     /

  E E E E E E E E   E E E E E E E E  5x W
|-----1-------1---|-----1-------1----||------*|
|---1---1---1---1-|---1---1---1---1-o||------*|
|-----------------|------------------||------*|
|-3-------3-------|-3-------3--------||------*|
|-----------------|-----------------o||------*|
|-----------------|------------------||------*|



Duration Legend
---------------
W - whole; H - half; Q - quarter; E - 8th; S - 16th; T - 32nd; X - 64th; a - acciaccatura
+ - note tied to previous; . - note dotted; .. - note double dotted
Uncapitalized letters represent notes that are staccato (1/2 duration)
Irregular groupings are notated above the duration line
Duration letters will always appear directly above the note/fret number it represents the
duration for.  Duration letters with no fret number below them represent rests.  Multi-
bar rests are notated in the form Wxn, where n is the number of bars to rest for.  Low
melody durations appear below the staff

Tablature Legend
----------------
 h   - hammer-on
 p   - pull-off
 b   - bend
 pb  - pre-bend
 r   - bend release (if no number after the r, then release immediately)
 /\  - slide into or out of (from/to "nowhere")
 s   - legato slide
 S   - shift slide
 - natural harmonic
[n]  - artificial harmonic
n(n) - tapped harmonic
 ~   - vibrato
 tr  - trill
 T   - tap
 TP  - trem. picking
 PM  - palm muting
\n/  - tremolo bar dip; n = amount to dip
 \n  - tremolo bar down
 n/  - tremolo bar up
/n\  - tremolo bar inverted dip
 =   - hold bend; also acts as connecting device for hammers/pulls
 <> - volume swell (louder/softer)
 x   - on rhythm slash represents muted slash
 o   - on rhythm slash represents single note slash

Misc Legend
-----------
 |  - bar
||  - double bar
||o - repeat start
o|| - repeat end
*|  - double bar (ending)
 :  - bar (freetime)
 $  - Segno
 &  - Coda
Tempo markers -  = BPM(8/16=s8/s16), where s8 = swing 8ths, s16 = swing 16ths



END
+++++++++++++++++++++++++++++++++++++++++++++++++++++++++++
+++++++++++++++++++++++++++++++++++++++++++++++++++++++++++
DUDE (LOOKS LIKE A LADY)
As recorded by Aerosmith

Transcribed by [metal.death]
	



Gtr I (E A D G B E) - 'Joe Perry'
Gtr II (E A D G B E) - 'Untitled'

 Intro
  Moderate Rock Q=126
 4/4
  Gtr I
                                                            ~
  S E E E. S E E E.   S E E E. S E E E.   E E E E E E E E   Q  E E E E Q
|-------------------|-------------------|-5-5-5-3-3-5-5---|-2----3---2---|
|-5-5-5----5-5-5----|-5-5-5----5-5-5----|-5-5-5-3-3-5-5---|-3----3---3---|
|---2-2------2-2----|---2-2------2-2----|-2-2-2-0-0-2-2---|------0---2---|
|-------------------|-------------------|-x-x-x-0-0-x-x---|----0---0-----|
|-------------------|-------------------|-0-0-0-----0-0---|--------------|
|-------------------|-------------------|-----------------|--------------|


  E E E E E E E E   E E E E E E Q    E E E E E E E E   E E E E E E Q
|-5-5-5-3-3-5-5---|---2-----3---2--|-5-5-5-3-3-5-5---|---2-----3---2--|
|-5-5-5-3-3-5-5---|---3-----3---3--|-5-5-5-3-3-5-5---|---3-----3---3--|
|-2-2-2-0-0-2-2---|---2---------2--|-2-2-2-0-0-2-2---|---2---------2--|
|-x-x-x-0-0-x-x---|-0---0-0---0----|-x-x-x-0-0-------|-0---0-0---0----|
|-0-0-0-----0-0---|----------------|-0-0-0-----------|----------------|
|-----------------|----------------|-----------------|----------------|


  E E E E E E E E   E E E Q  E Q
|-5-5-5-3-3-5-5---|-2-----3----2--|
|-5-5-5-3-3-5-5---|-3-----3----3--|
|-2-2-2-0-0-2-2---|-2----------2--|
|-x-x-x-0-0-----0-|---0-0----0----|
|-0-0-0-----------|---------------|
|-----------------|---------------|


    e e e e e e Q   e e e e E E Q   e e e e e e Q
||--5-5-5-3-3-5-5-|---2-----3---2-|-5-5-5-3-3-5-5-|
||o-5-5-5-3-3-5-5-|---3-----3---3-|-5-5-5-3-3-5-5-|
||--2-2-2-0-0-2-2-|---2-----2---2-|-2-2-2-0-0-2-2-|
||----------------|-0---0-0---0---|---------------|
||o---------------|---------------|---------------|
||----------------|---------------|---------------|


                                          Verse
  1.                  2.
                                           $
                                  ~~~
  E. E. E E E E E     e e e e E E Q        e e e e e e e e   e e e e e e Q

|----2------3---2--||---2-----3--------||--5-5-5---3-5-5-2-|-2-2-3-3---2-----|
|----3------3---3-o||---3-----3--------||o-5-5-5---3-5-5-3-|-3-3-3-3-3-3-----|
|----2------2---2--||---2-----2--------||--2-2-2-0-0-2-2-2-|-2-2-x-x-2-x-----|
|-0-----0-0---0----||-0---0-0---0------||--x-x-x-0---x-x-0-|-0-0-0-0-0-0-0---|
|-----------------o||-------------2b4--||o-0-0-0-----0-0---|-----------------|
|------------------||------------------||------------------|-----------------|


  E E E E E E Q   E E E E E E E E   E E E E E E Q   E E E E E E Q
|-5-5-5-3-3-5-5-|---2-2-3-3-2-2-0-|-5-5-5-3-3-5-5-|-2-2-3-3-2-2-0-|
|-5-5-5-3-3-5-5-|---3-3-3-3-3-3-3-|-5-5-5-3-3-5-5-|-3-3-3-3-3-3-3-|
|-2-2-2-0-0-2-2-|---2-2-x-x-x-2---|-x-x-2-0-0-2-2-|-2-2-2-2-x-2-2-|
|-x-x-x-0-0-2-2-|---0-0-0-0-0---0-|-x-x---0-0-x-x-|-0-0-0-0-0-0---|
|-0-0-0-----0-0-|-----------------|-0-0-------0-0-|---------------|
|---------------|-----------------|---------------|---------------|


                                      1.
  E E E E E E Q    E E E E E E E E    E E E E E E Q   E E E E E E Q
|-5-5-5-3-3-5-5--|---2-2-3-3-2-2p0-||-5-5-5-3-3-5-5-|---2-----3---2-|
|-5-5-5-3-3-5-5--|---3-3-3-3-3-3---||-5-5-5-3-3-5-5-|---3-----3---3-|
|-2-2-2-0-0-2-2--|---2-2-2-2-2-2---||-2-2-2-0-0-2-2-|---2---------2-|
|-x-x-0-0-0-x-x--|---0-0-0-0-0-0---||-x-x-x-0-0-x---|-0---0-0---0---|
|-0-0-0-----0-0--|-----------------||-0-0-0-----0---|---------------|
|----------------|-----------------||---------------|---------------|


                                     Chorus
                                     2.
  E E E E E E E E   E E E Q  E Q      E E E E E E Q   E E E E E E Q
|-5-5-5-3-3-5-5---|-2-----3----2---||-5-5-5-3-3-5-5-|---2-----3---2-|
|-5-5-5-3-3-5-5---|-3-----3----3--o||-5-5-5-3-3-5-5-|---3-----3---3-|
|-2-2-2-0-0-2-2---|-2----------2---||-2-2-2-0-0-2-2-|---2---------2-|
|-x-x-x-0-0-x---0-|---0-0----0-----||-x-x-x-0-0-x-x-|-0---0-0---0---|
|-0-0-0-----0-----|---------------o||-0-0-0-----0-0-|---------------|
|-----------------|----------------||---------------|---------------|


                                            To Coda    D.S. al Coda
  E E E E E E E E   E E E Q  E Q    E E E E E E Q    E E E E E E E E
|-5-5-5-3-3-5-5---|-2-----3----2--|-5-5-5-3-3-5-5--|---2-----3---2---||
|-5-5-5-3-3-5-5---|-3-----3----3--|-5-5-5-3-3-5-5--|---3-----3---3-3-||
|-2-2-2-0-0-2-2---|-2----------2--|-2-2-2-0-0-2-2--|---2-----2---2-2-||
|-x-x-x-0-0-x-x-0-|---0-0----0----|-x-x-x-0-0-x-x--|-0---0-0---0-----||
|-0-0-0-----0-0---|---------------|-0-0-0-----0-0--|-----------------||
|-----------------|---------------|----------------|-----------------||


                    Interlude
  &
                     A5    G5  A5     F
  Gtr II
  W                  E E E E E E Q    H.      +E E
                     | | | | | | |    |        | |
                     / / / / / / /    /        / /

  E E E E E E E E    E E E E E E Q    H.       Q
|---2-----3---2---||-5-5-5-3-3-5-5--|-1------------|
|---3-----3---3-3-||-5-5-5-3-3-5-5--|-1------------|
|---2-----2---2-2-||-2-2-2-0-0-2-2--|-2------------|
|-0---0-0---0-----||-x-x-x-0-0-x-x--|-3------------|
|-----------------||-0-0-------0-0--|-3------------|
|-----------------||----------------|-1------------|


  A5    G5  A5     F            A5    G5  A5     F
  E E E E E E Q    H.      Q    E E E E E E Q    H.      Q
  | | | | | | |    |            | | | | | | |    |
  / / / / / / /    /            / / / / / / /    /

  E E E E E E Q    H.      Q    E E E E E E Q    H.      Q





|-5-5-5-3-3---5--|-1----------|-5-5-5-3-3-5-5--|-1----------|
|-5-5-5-3-3---5--|-1----------|-5-5-5-3-3-5-5--|-1----------|
|-2-2-2-0-0---2--|-2----------|-2-2-2-0-0-2-2--|-2----------|
|-x-x-x-0--------|-3----------|-----------x-x--|-3----------|
|-0-0-0-----0----|-3----------|-----------0-0--|-3----------|
|----------------|-1----------|----------------|-1----------|


  D5    C5    D5E                 G   G
  E E E E Q   E  E     +H.      E E   H.      Q
  | | | | |   |  |      |       | |   |
  / / / / /   /  /      /       / /   /

  E E E E E E E +E      H.      E E   W
|--------------------|--0-----------|-3----------||
|--------------------|--0-----------|-3----------||
|-7-7-7S5-5-5-7-(7)\-|--1-------1s4-|-4----------||
|-7-7-7S5-5---7-(7)\-|--2-------2s5-|-5----------||
|-5-5-5S3-3---5-(5)\-|--2-------2s5-|-5----------||
|--------------------|--0-----------|-3----------||


 Guitar Solo
      ~~~
  e E Q     E S S S E.
|----------------------|
|----------------------|
|-------------2p0---0--|
|----------------------|
|-0-0-2b4---0----------|
|----------------------|
|
| Gtr II
| E E E   E E E   Q
|-5-5-5---3-3-5---5----|
|-5-5-5---3-3-5---5----|
|-2-2-2---0-0-2---2----|
|-x-x-0---0-0-x---x----|
|-0-0-0-------0---0----|
|----------------------|


                                                ~~~~        ~
  S S S S E S S S     S S     S S     S E   E E Q     E E E E
|-----------------------------------------|-------------------|
|-----------------------------------------|-------------------|
|-4p2-0---0-4p0-------------------------2-|-------------2-----|
|-------4---------------------------------|-------------------|
|---------------3b3.5p0-3b3.5p0-3b3.5p0---|-0-0-2b3p==0-------|
|-----------------------------------------|---------------0-3-|
|
| E   E   E E   E       E       E       E   E E E   E E E Q
|-----2---2-3---3-------2-------2p======0-|-5-5-5---3-3-5-5---|
|-----3---3-3---3-------3-------3---------|-5-5-5---3-3-5-5---|
|-----2---2-2---2-------2-------2---------|-2-2-2---0-0-2-2---|
|-----0---0-0---0-------0-------0---------|-x-x-x---0-0-x-----|
|-----------------------------------------|-0-0-0-------0-----|
|-----------------------------------------|-------------------|


        ~~~~
  +S  S Q     E S S S S +E  a E
|-------------------------------|
|-------------------------------|
|---------------2p0---0-(0)-----|
|---------------------------4s5-|
|-------2b3p==0-----0-----------|
|-(3)p0-------------------------|
|
|  E    E   E E E   E    Q
|-------2-------3--------2------|
|-------3-------3--------3------|
|-------2----------------2------|
|--0--------0-0-----0-----------|
|-------------------------------|
|-------------------------------|


  S S S S S S S S +E  E E    S S   +E  S +S  E E E E S S e
|----------------------------8-8-|-------------------------|
|-5-5-5-5-7p5---7-(7)-5-7b8====7-|-(7)-7r(7)-7-7-5-5-7p5---|
|-5-5-5-5-7p5---7-(7)-5-7b9====7-|-(7)-7r(7)-7-7-5-5-7p5---|
|-------------7------------------|-----------------------7-|
|-----------------------0--------|-------------------------|
|--------------------------------|-------------------------|
|
| E   E   E   E    E  E Q           E  E     E E E E E   E
|-5---5---5---3----3--5-5--------|-----2-----2-3-3-2-2p==0-|
|-5---5---5---3----3--5-5--------|-----3-----3-3-3-3-3-----|
|-2---2---2---0----0--2-2--------|-----2-----2-2-2-2-2-----|
|-x---x---0---0----0--x-x--------|-----0-----0-0-0-0-0-----|
|-0---0---0-----------0-0--------|-------------------------|
|--------------------------------|-------------------------|


  E S S S E    S S S S S E  a E
|-------------------------------|
|-5-----5-5\---x-----5-5-5\-----|
|-5-----5-5\---x-----5-5-5\-----|
|-------------------------------|
|---5s7----------5s7--------5s7-|
|-------------------------------|
|
| E E   E    E   E   E   Q
|-5-5---5----3---3---5---5------|
|-5-5---5----3---3---5---5------|
|-2-2---2----0---0---2---2------|
|-x-x---x----0---0---x----------|
|-0-0---0------------0----------|
|-------------------------------|


  E E E E E   E E E   E   S S E E   S S E E. S
|-------------------|-----8-8-8-----8-8-8-8s10--|
|---------7b8-5-7-5-|-----8-8-8-----8-8-8-8s10--|
|-7-7-5-7-7b8-5-7-5-|-7b9-------7b9-------------|
|-7-7-5-7-----------|---------------------------|
|-------------------|---------------------------|
|-------------------|---------------------------|
|
| E E E E E   E Q     E   E   E E   E   E Q
|---2-----3-----2---|-5---5---5-3---3---5-5-----|
|---3-----3-----3---|-5---5---5-3---3---5-5-----|
|---2-----------2---|-2---2---2-0---0---2-2-----|
|-0---0-0-----0-----|-x---x---0-0---0---x-x-----|
|-------------------|-0---0---0---------0-0-----|
|-------------------|---------------------------|


  E E   +E  E E   S S E E     E S S s S S s E E   S E.
|-----------------5-5-5-----|---------------------8-8--|
|-5-7b8r(7)-5-7b8-5-5-5-7b8-|-5-7p5---7p5---5-----8-8--|
|-5-7b9r(7)-5-7b9-------7b9-|-5-7p5---7p5---5-7b9------|
|---------------------------|-------7-----7------------|
|---------------------------|--------------------------|
|---------------------------|--------------------------|
|
| E E    E  E E   E   E E     E E   E   E   E E   Q
|---2----2--3-3---2---2p0---|-5-5---5---3---3-5---5----|
|---3----3--3-3---3---3-----|-5-5---5---3---3-5---5----|
|---2----2--2-2---2---2-----|-2-2---2---0---0-2---2----|
|---0----0--0-0---0---0-----|-x-x---x---0---0-x--------|
|---------------------------|-0-0---0---------0--------|
|---------------------------|--------------------------|


  E    S S S +S  E   S E.   S S  E





|------8-8-----------8-----------------|
|------8-8-------8---8-8----7----------|
|-7b9======7r(7)-7b9--------7-5-20b21--|
|--------------------------------------|
|--------------------------------------|
|--------------------------------------|
|
| E    E   E     E   E    E Q
|------2-------------3------2----------|
|------3-------------3------3----------|
|------2--------------------2----------|
|-0--------0-----0--------0------------|
|--------------------------------------|
|--------------------------------------|


   S  S  S  S  S     S  E  S  S  E     S  S  S  S
|-17----17-------------17-------------17-------17-|
|----17----17-------17-17-20-17----------17h20----|
|-------------20b21-------------20b21-------------|
|-------------------------------------------------|
|-------------------------------------------------|
|-------------------------------------------------|
|
|  E     E     E        E  E     E     Q
|--5-----5-----5--------3--3-----5-----5----------|
|--5-----5-----5--------3--3-----5-----5----------|
|--2-----2-----2--------0--0-----2-----2----------|
|--x-----x-----0--------0--0-----x-----x----------|
|--0-----0-----0-----------------0-----0----------|
|-------------------------------------------------|


   S     +S   E  +S   S  S     +S   E  E  S  S  S     +S
|------------17-(17)-17------------17---------------------|
|-------------------------------------17-20p17------------|
|-20b21-(20)------------20b21-(20)-------------20b21-(20)-|
|---------------------------------------------------------|
|---------------------------------------------------------|
|---------------------------------------------------------|
|
|  E          E   E      E          E  E  E     E
|-------------2---2------3----------3--2--2p====0---------|
|-------------3---3------3----------3--3--3---------------|
|-------------2---2------2----------2--2--2---------------|
|-------------0---0------0----------0--0--0---------------|
|---------------------------------------------------------|
|---------------------------------------------------------|


   E  E  S  S  S     +S   S  S  S  S  S  S  e
|-17---------------------17-------17----------|
|----17-20p17---------------17-20p17-20p17-20-|
|-------------20b21-(20)----------------------|
|---------------------------------------------|
|---------------------------------------------|
|---------------------------------------------|
|
|  E  E  E     E          E     E     Q
|--5--5--5-----3----------3-----5-----5-------|
|--5--5--5-----3----------3-----5-----5-------|
|--2--2--2-----0----------0-----2-----2-------|
|--x--x--x-----0----------0-----x-------------|
|--0--0--0----------------------0-------------|
|---------------------------------------------|


                                                      ~~~~~
   E     S  S     +S   S  E     S  E       S  E       E







|-------17------------17-------17---------17---------------||
|-20b22----20b22-(20)----20b22----20b22------20b21.5-20b22-||
|----------------------------------------------------------||
|----------------------------------------------------------||
|----------------------------------------------------------||
|----------------------------------------------------------||
|
|  E     E         E      E     E       E     Q
|--------2----------------------3-------------2------------||
|--------3----------------------3-------------3------------||
|--------2------------------------------------2------------||
|--0---------------0------0-------------0------------------||
|----------------------------------------------------------||
|----------------------------------------------------------||


  E E E E E E E E   E E Q  E E E  E
|-----------------|------------------|
|-9-9-9-7-7-9-9---|-x-x----x-x-x-(0)-|
|-9-9-9-7-7-9-9---|-x-x----x-x-x-----|
|-9-9-9-7-7-9-9---|------------------|
|-7-7-7-5-5-7-7s0-|------------------|
|-----------------|------------------|


  E E E E E E Q     E   E   E   E   E   E  E E
|----------------|---------------------------0-|
|-9-9-9-7-7s9-9--|---------------------------0-|
|-9-9-9-7-7s9-9--|---------------------------x-|
|-9-9-9-7-7s9-9--|-----------------------------|
|-7-7-7-5-5s7-7--|-------0---|
|----------------|-<7>-<7>-<7>-<7>-<7>-<7>-----|


  E E E E E E E E   E E    +Q    +S  S +Q   E   E E E E E E E E   Q  H.
|-----------------|---------------------------|-----------------|----3----|
|-9-9-9-7-7-9-9---|---------------------------|-9-9-9-7-7-9-9---|----3----|
|-9-9-9-7-7-9-9---|---------------------------|-9-9-9-7-7-9-9---|----4----|
|-9-9-9-7-7-9-9---|---------------------------|-9-9-9-7-7-9-9---|----5----|
|-7-7-7-5-5-7-7---|---------------------------|-7-7-7-5-5-7-7---|----5----|
|-----------------|---2b3r=(2)---(2)p0-(0)----|-----------------|----3----|


               Chorus
  +W            E E E E E E Q   E E E E Q Q    E E E E E E E E
|-(3)--------||-5-5-5-3-3-5-5-|---2-----3-0--|-5-5-5---3-3-5-5---|
|-(3)--------||-5-5-5-3-3-5-5-|---3-----3-0--|-5-5-5---3-3-5-5---|
|-(4)--------||-2-2-2-0-0-2-2-|---0-----0----|-2-2-2p0-0-0-2-2---|
|-(5)--------||-x-x-----0-x-x-|-0---0-0------|-x-x-x-----0-------|
|-(5)--------||-0-0-------0-0-|--------------|-0-0-0-------------|
|-(3)--------||---------------|--------------|-------------------|


  E E E E Q Q    E E S S E E E Q    E E E E Q Q   E E E E E E E E
|---2-----3-0--|-5-5-5---3-3-5-5--|---2-----5---|-5-5-5---3-3-5-5---|
|---3-----3-0--|-5-5-5---3-3-5-5--|---3-----3-0-|-5-5-5---3-3-5-5---|
|---2-----0-0--|-2-2-2p0-0-0-2-2--|---2-----0-0-|-2-2-2p0-0-0-2-2---|
|-0---0-0------|-x-x-x-----0------|-0---0-0-----|---------0-0-2-2---|
|--------------|-0-0-0------------|-------------|-------------------|
|--------------|------------------|-------------|-------------------|


                   Outro
  E E E E Q E E     E E E E E E Q    E E E E E E Q    E E E E E E Q
|---2-----3-2---||--5-5-5-3-3-5-5--|---2-----3---2--|-5-5-5-3-3-5-5---|
|---3-----3-3---||o-5-5-5-3-3-5-5--|---3-----3---3--|-5-5-5-3-3-5-5---|
|---2-----0-2p0-||--2-2-2-0-0-2-2--|---2-----2---2--|-2-2-2-0-0-2-2---|
|-0---0-0-------||--x-x------------|-0---0-0---0----|-x-x-------------|
|---------------||o-0-0------------|----------------|-0-0-------------|
|---------------||-----------------|----------------|-----------------|


  E E E E E E Q     E E E E E E Q    Q E E E E E E     E E E E E E E E



|---2-----3---2--||-5-5-5-3-3-5-5--|---2-----3---3-||--5-5-5-3-3-5-5-----|
|---3-----3---3-o||-5-5-5-3-3-5-5--|---3-----3---3-||o-5-5-5-3-3-5-5-----|
|---2-----2---2--||-2-2-2-0-0-2-2--|---2-----2---2-||--2-2-2-0-0-2-2-----|
|-0---0-0---0----||-x-x------------|-0---0-0---0---||----------------0---|
|---------------o||-0-0------------|---------------||o-------------------|
|----------------||----------------|---------------||--------------------|


  +E  E E E E E Q         E E E E E E Q
|-----2-----3---2--||-||--5-5-5-3-3-5-5-|
|-----3-----3---3-o||-||o-5-5-5-3-3-5-5-|
|-----2-----2---2--||-||--2-2-2-0-0-2-2-|
|-(0)---0-0---0----||-||----------------|
|-----------------o||-||o---------------|
|------------------||-||----------------|
|
| Gtr II
|  W                      W
|------------------||-||----------------|
|-----------------o||-||o---------------|
|------------------||-||----------------|
|------------------||-||----------------|
|-----------------o||-||o---------------|
|------------------||-||----------------|


  E E E E E E Q     Q   E  E  E E  E   E
|---2-----3---2--||----15s14----------------|
|---3-----3---3-o||----------17-------------|
|---2-----2---2--||-------------0-----14----|
|-0---0-0---0----||-------------------------|
|---------------o||-0-----------------------|
|----------------||-------------------------|
|
| W                 H.                 E  E
|----------------||-------------------------|
|---------------o||-------------------------|
|----------------||-------------------------|
|----------------||-------------------------|
|---------------o||-0-----------------12-12-|
|----------------||-------------------------|


        ~~
   E E  Q  E E  E  E    E  E  E  E  Q  E E
|-15-------0-0-------|---------------------|
|-15-x-17---------15-|-14-14-14-12-12--5s7-|
|--------------14----|-14-14-14-12-12------|
|--------------12----|-14-14-14-12-12--5s7-|
|--------------------|---------------------|
|--------------------|---------------------|
|
|  H       Q    E  E    E  E  E  E  Q  Q
|--------------------|---------------------|
|--------------14s12-|-14-14-14-12-12------|
|--------------------|---------------------|
|--------------14s12-|-14-14-14-12-12------|
|--------------------|-----------------2s==|
|--------------------|---------------------|


  Q  E E E E +E  E   Q   Q  E E E    E
|------------------|--------------------|
|-7s=5-5-3-3-(3)s1-|-2---3--2-2-3s===5--|
|------------------|-----0--------------|
|-7s=5-5-4-4-(4)s2-|-2---4--4-2-4s===5--|
|------------------|-0------------------|
|------------------|--------------------|
|
| Q  E E E E  E  E   H.         S E.
|------------------|--------------------|
|------------------|--------------------|
|----0-------------|--------------------|
|------9-----------|--------------------|
|-9------9-9--9s=7-|-0----------7s9-----|
|------------------|--------------------|


  E Q a E E  E  E E   Q  E E  E  E   +Q
|-------------------|---------------------|
|-7-------7-<7>-7-8-|-8-10---12-12--(12)--|
|---0---------------|------0--------------|
|-7---5s7-7-----7-9-|-9-11---12-12--(12)--|
|-------------------|---------------------|
|-------------------|---------------------|
|
| Q   Q   Q     E E   W
|-------------------|---------------------|
|-------------------|---------------------|
|-------------------|---------------------|
|-9-----------------|---------------------|
|---------7-----0-0-|-0-------------------|
|-------------------|---------------------|


         ~~           ~~        ~~                ~~
   a  E  Q   S     S  E  S   S  Q      +E   S  S  Q   Q  S  E.
|-----------------------------------|-----------------------------|
|-------14-----------15--------17---|-(17)-------19--17-----------|
|-----------------------------------|-----------------0-----------|
|-12s14-----14s===16----16s=17------|------17s19--------17s16-----|
|-----------------------------------|-----------------------------|
|-----------------------------------|-----------------------------|
|
|                                 ~
|  Q     E   E          +Q        Q     W
|-----------------------------------|-----------------------------|
|-----------------------------------|-----------------------------|
|-----------------------------------|-----------------------------|
|------------9b11r======(9)-------7-|-----------------------------|
|-----------------------------------|-----------------------------|
|-----------------------------------|-----------------------------|


   S  E.  E  E  E  E  E  E    E  E  E  E  E  E  Q
|--------------------------|-----------------------|
|--------14s12-12-13-13s14-|-14-14-14-12-12-14-14\-|
|--------------------------|-----------------------|
|-16s14--14s12-12-13-13s14-|-14-14-14-12-12-14-14\-|
|--------------------------|-----------------------|
|--------------------------|-----------------------|


  E E E E Q E E   Q.E +E  E E E   a E  Q  E Q E E
|---------------|---------------|-----------------*|
|---------------|-2p0-(0)-2-----|------3----5-----*|
|---2-4-----4-0-|-0-------0-----|-------------0-0-*|
|---0-0-0-0---0-|-2-------2-2-2-|-2s4-(4)s5-------*|
|---------------|---------------|-----------------*|
|---------------|---------------|-----------------*|



Duration Legend
---------------
W - whole; H - half; Q - quarter; E - 8th; S - 16th; T - 32nd; X - 64th; a - acciaccatura
+ - note tied to previous; . - note dotted; .. - note double dotted
Uncapitalized letters represent notes that are staccato (1/2 duration)
Irregular groupings are notated above the duration line
Duration letters will always appear directly above the note/fret number it represents the
duration for.  Duration letters with no fret number below them represent rests.  Multi-
bar rests are notated in the form Wxn, where n is the number of bars to rest for.  Low
melody durations appear below the staff

Tablature Legend







----------------
 h   - hammer-on
 p   - pull-off
 b   - bend
 pb  - pre-bend
 r   - bend release (if no number after the r, then release immediately)
 /\  - slide into or out of (from/to "nowhere")
 s   - legato slide
 S   - shift slide
 - natural harmonic
[n]  - artificial harmonic
n(n) - tapped harmonic
 ~   - vibrato
 tr  - trill
 T   - tap
 TP  - trem. picking
 PM  - palm muting
\n/  - tremolo bar dip; n = amount to dip
 \n  - tremolo bar down
 n/  - tremolo bar up
/n\  - tremolo bar inverted dip
 =   - hold bend; also acts as connecting device for hammers/pulls
 <> - volume swell (louder/softer)
 x   - on rhythm slash represents muted slash
 o   - on rhythm slash represents single note slash

Misc Legend
-----------
 |  - bar
||  - double bar
||o - repeat start
o|| - repeat end
*|  - double bar (ending)
 :  - bar (freetime)
 $  - Segno
 &  - Coda
Tempo markers -  = BPM(8/16=s8/s16), where s8 = swing 8ths, s16 = swing 16ths



END
++++++++++++++++++++++++++++++++++++++++++++++++++++++++++++++++++++++++++
++++++++++++++++++++++++++++++++++++++++++++++++++++++++++++++++++++++++++
JANIE'S GOT A GUN
As recorded by Aerosmith
(From the 1989 Album PUMP
	

Words and Music by Steven Tyler and Tom Hamilton

Gtr I (F Bb Eb Ab C F) - 'Clean w/ chorus'
Gtr II (F Bb Eb Ab C F) - 'Distortion'
Gtr III (F Bb Eb Ab C F) - 'Clean '

 Intro
  Moderately Q=112
 4/4
  Gtr I
  H    E Q.     Q.   E +H       Q  Q.   Q.     H    H
|-------------|---------------|--------------|-----------|
|-------------|---------------|--------------|-----------|
|-------------|---------------|--------------|-----------|
|--------9----|-9----9-(9)----|-9-------9----|-9----9----|
|--------7----|-7----7-(7)----|-7-------7----|-7----7----|
|-------------|---------------|--------------|-----------|


  Q  Q.   Q.     Q.   E +Q   Q    Q  Q.   Q.     H    H
|--------------|----------------|--------------|-----------|
|--------------|----------------|--------------|-----------|
|--------------|----------------|--------------|-----------|
|-9-------9----|-9----9-(9)--9--|-9-------9----|-9----9----|
|-7-------7----|-7----7-(7)--6--|-7-------7----|-7----7----|
|--------------|----------------|--------------|-----------|


  Q  Q  Q  Q    E Q  E H      Q  Q  Q  Q    E E E E H
|-------------|-------------|-------------|--------------|
|-------------|-------------|-------------|--------------|
|-------------|-------------|-------------|---9----------|
|----9-----9--|---9----9----|----9-----9--|---9-----9----|
|----7-----7--|---7----7----|----7-----7--|-9-7-----9----|
|-------------|-------------|-------------|-7---7-7------|


  Q  Q  Q  Q    E Q  E H      Q  Q  Q  Q    E E E E E E E  E
|-------------|-------------|-------------|-------------------|
|-------------|-------------|-------------|-------------------|
|-------------|-------------|-------------|---9---------------|
|----9-----9--|---9----9----|----9-----9--|---9-----9------9--|
|----7-----7--|---7----7----|----7-----7--|-9-7-----9-----11--|
|-------------|-------------|-------------|-7---7-7---7-7-----|


                      Verse
  E E  E E  E E  Q     Q  Q  Q  Q    E Q    E   H
|-------------------||-------------|-----------------------|
|-------------------||-------------|-----------------------|
|-------------------||-------------|-----------------------|
|------9----9----9--||----9-----9--|---9--------9----------|
|-----12---12---12--||----7-----7--|---7--------9----------|
|-9-9----9----9-----||-------------|-7------7--------------|
|
| Gtr II
|                                         <

| W                    W             Q    Q    +Q.    +E
|-------------------||-------------|-----------------------|
|-------------------||-------------|-----16---(16)---(16)\-|
|-------------------||-------------|-----16---(16)---(16)\-|
|-------------------||-------------|-----16---(16)---(16)\-|
|-------------------||-------------|-----14---(14)---(14)\-|
|-------------------||-------------|-----------------------|


  Q  Q  Q  Q    E Q    E   H
|-------------|--------------------------|
|-------------|--------------------------|
|-------------|--------------------------|
|----9-----9--|---9--------9-------------|
|----7-----7--|---7--------9-------------|
|-------------|-7------7-----------------|
|
|                    <
| W             Q    Q    +Q.    +E
|-------------|--------------------------|
|-------------|-----16---(16)---(16)\----|
|-------------|-----16---(16)---(16)\----|
|-------------|-----16---(16)---(16)\----|
|-------------|-----14---(14)---(14)\----|
|-------------|--------------------------|


  Q  Q  Q  Q    E Q    E   H            Q  Q  Q  Q    E Q    E   H
|-------------|-----------------------|-------------|------------------------||
|-------------|-----------------------|-------------|------------------------||
|-------------|-----------------------|-------------|------------------------||
|----9-----9--|---9--------9----------|----9-----9--|---9--------9-----------||
|----7-----7--|---7--------9----------|----7-----7--|---7--------9-----------||
|-------------|-7------7--------------|-------------|-7------7---------------||
|
|                    <                                     <
| W             Q    Q    +Q.    +E     W             Q    Q    +Q.    +E
|-------------|-----------------------|-------------|------------------------||
|-------------|-----16---(16)---(16)\-|-------------|-----16---(16)---(16)\--||
|-------------|-----16---(16)---(16)\-|-------------|-----16---(16)---(16)\--||
|-------------|-----16---(16)---(16)\-|-------------|-----16---(16)---(16)\--||
|-------------|-----14---(14)---(14)\-|-------------|-----14---(14)---(14)\--||
|-------------|-----------------------|-------------|------------------------||


 Pre-Chorus
  PM|   PM  PM      PM|   PM    PM------|   PM  PM      PM|   PM    PM|
  e e E e E e E E   e e E e E E e e   e e E e E e E E   e e E e E E e e
|-----------------|-----------------|-----------------|------------------||
|-----------------|-----------------|-----------------|------------------||
|-----4---1-2---4-|-----4---2-4-----|-----4---1-2---4-|-----4---2-4------||
|-----4---2-2---4-|-----4---2-4-----|-----4---2-2---4-|-----4---2-4------||
|-2-2---2---0-0---|-2-2---2-----2-2-|-2-2---2---0-0---|-2-2---2-----2-2--||
|-0-0---0---------|-----------------|-0-0---0---------|------------------||


 Chorus
  E E E E E E Q     E E E E E E Q    Q  Q.   Q.
|-4s5-4s5-4s5-4---|-4s5-4s5-4s5-4--|--------------|
|-4s5-4s5-4s5-4---|-4s5-4s5-4s5-4--|--------------|
|-----------------|----------------|--------------|
|-----------------|----------------|----2----0----|
|-----------------|----------------|----2----0----|
|-----------------|----------------|-0------------|
|
| Gtr II
| H.          E E   W                Q  Q.   Q.
|-----------------|----------------|--------------|
|-----------------|----------------|--------------|
|-6---------------|-2--------------|--------------|
|-6---------------|-2--------------|----2----0----|
|-4-------------0-|-0--------------|----2----0----|
|-----------------|----------------|-0------------|



  Q.   Q.   Q    E E E E E E Q     E E E E E E Q
|--------------|-4s5-4s5-4s5-4---|-4s5-4s5-4s5-4--|
|--------------|-4s5-4s5-4s5-4---|-4s5-4s5-4s5-4--|
|--------------|-----------------|----------------|
|-5----0----2--|-----------------|----------------|
|-5----0----2--|-----------------|----------------|
|--------------|-----------------|----------------|
|
| Q.   Q.   Q    H.          E E   W
|--------------|-----------------|----------------|
|--------------|-----------------|----------------|
|--------------|-6---------------|-2--------------|
|-5----0----2--|-6---------------|-2--------------|
|-5----0----2--|-4-------------0-|-0--------------|
|--------------|-----------------|----------------|


  E E E  E E  E E E   Q  Q    Q    Q    Q  Q    Q     Q
|-4s5-4s=5-4s=5-4s5-|-----------------|-----------------------||
|-4s5-4s=5-4s=5-4s5-|-----------------|-----------------------||
|-------------------|-4--4----4----4--|-4--4----4-----4-------||
|-------------------|-4--4----4----4--|-4--4----4-----4-------||
|-------------------|-2--2----2----2--|-2--2----2-----2-------||
|-------------------|-----------------|-----------------------||
|
| W                   Q  Q    Q    Q    Q  Q    Q     Q
|-------------------|-----------------|-----------------------||
|-------------------|-----------------|-----------------------||
|-------------------|-4--4----4----4--|-4--4----4-----4-------||
|-4-----------------|-4--4----4----4--|-4--4----4-----4-------||
|-4-----------------|-2--2----2----2--|-2--2----2-----2-------||
|-2-----------------|-----------------|-----------------------||
|
| Gtr III
| Q   E  E E  E Q     Q  E  E E  E Q    Q  E  E E  E  E  S  S
|----------9--------|---------9-------|---------9----11-------||
|-----9h10---10p9---|----9h10---10p9--|----9h10---------------||
|-------------------|-----------------|-----------11----11s13-||
|-------------------|-----------------|-----------------------||
|-------------------|-----------------|-----------------------||
|-------------------|-----------------|-----------------------||


 Verse
  $
    Q   Q  Q  Q    E   Q   E    H
|----------------|---------------------|
|----------------|---------------------|
|----------------|---------------------|
|-------9-----9--|-----9--------9------|
|-------7-----7--|-----7--------9------|
|----------------|-7-------7-----------|
|
|   W              E   Q.      +H
|----------------|---------------------|
|----------------|---<12>----(<12>)----|
|----------------|---------------------|
|----------------|---------------------|
|----------------|---------------------|
|----------------|---------------------|
|
|   H      H       W
|--12------------|---------------------|
|----------------|---------------------|
|-(13)-----------|---------------------|
|----------------|---------------------|
|----------------|---------------------|
|----------------|---------------------|


     Q    Q  Q  Q    E  Q   E   H





|------------------|------------------------|
|------------------|------------------------|
|------------------|------------------------|
|---------9-----9--|----9-------9-----------|
|---------7-----7--|----7-------9-----------|
|------------------|-7------7---------------|
|
|   +H       H       E  Q.     +Q      Q
|------------------|------------------------|
|-(<12>)-----------|-----------------<12>---|
|------------------|------------------------|
|------------------|------------------------|
|------------------|---<7>----(<7>)---------|
|------------------|------------------------|
|
|    W               W
|------------------|------------------------|
|------------------|------------------------|
|------------------|------------------------|
|------------------|------------------------|
|------------------|------------------------|
|------------------|------------------------|


     Q    Q  Q  Q       E   Q  E H
|------------------|------------------|
|------------------|------------------|
|------------------|------------------|
|---------9-----9--|--------9----9----|
|---------7-----7--|--------7----9----|
|------------------|----7------7------|
|
|   +W                 +H        H
|------------------|------------------|
|-(<12>)-----------|-(<12>)-----------|
|------------------|------------------|
|------------------|------------------|
|------------------|------------------|
|------------------|------------------|


  Q   Q   Q      Q      E  Q   E    H
|-------------------|----------------------||
|-------------------|----------------------||
|-------------------|----------------------||
|-----9----------9--|------9--------9------||
|-----7----------7--|------7--------9------||
|-------------------|---7------7-----------||
|
| Q   Q.      Q.        Q.     E   +H
|-------------------|-<12>-----------------||
|-----------<12>----|---------<7>-(<7>)----||
|-------------------|----------------------||
|-------------------|----------------------||
|----<7>------------|----------------------||
|-------------------|----------------------||


 Pre-Chorus
  PM|   PM  PM      PM|   PM    PM------|   PM  PM      PM|   PM      PM
  e e E e E e E E   e e E e E E e e   e e E e E e E E   e e E e E E E e
|-----------------|-----------------|-----------------|------------------||
|-----------------|-----------------|-----------------|------------------||
|-----4---1-2---4-|-----4---2-4-----|-----4---1-2---4-|-----4---2-4------||
|-----4---2-2---4-|-----4---2-4-----|-----4---2-2---4-|-----4---2-4------||
|-2-2---2---0-0---|-2-2---2-----2-2-|-2-2---2---0-0---|-2-2---2-------0--||
|-0-0---0---------|-----------------|-0-0---0---------|------------------||


 Chorus
  E E E E E E Q     E E E E E E Q    Q  Q.      Q.      Q.   Q.   Q





|-4s5-4s5-4s5-4---|-4s5-4s5-4s5-4--|------------------|---------------|
|-4s5-4s5-4s5-4---|-4s5-4s5-4s5-4--|------------------|---------------|
|-----------------|----------------|------------------|---------------|
|-----------------|----------------|----2-------0-----|-5----0----2---|
|-----------------|----------------|----2-------0-----|-5----0----2---|
|-----------------|----------------|-0----------------|---------------|
|
| Gtr II
| H.          E E   W                Q  Q   +Q.     E   H.        Q
|-----------------|----------------|------------------|---------------|
|-----------------|----------------|------------------|---------------|
|-6---------------|-2--------------|------------------|---------------|
|-6---------------|-2--------------|------------------|---------------|
|-4-------------0-|-0--------------|------------------|---------------|
|-----------------|----------------|-0--0---(0)-----0-|-0-------------|


  Q  E E E E Q     Q  E E E E Q     +Q   E E E E Q
|----4s5-4s5-4---|----4s5-4s5-4---|-(4)--4s5-4s5-4--|
|----4s5-4s5-4---|----4s5-4s5-4---|-(4)--4s5-4s5-4--|
|----------------|----------------|-----------------|
|----------------|----------------|-----------------|
|----------------|----------------|-----------------|
|----------------|----------------|-----------------|
|
| Q  Q   Q   E E   Q  Q   Q   E E    Q   Q   Q   Q
|----------------|----------------|-----------------|
|----------------|----------------|-----------------|
|----------------|----------------|-----------------|
|-6--6---6---6---|-2--2---2---2---|--4---4---4---4--|
|-4--4---4---4---|-0--0---0---0---|--4---4---4---4--|
|----------------|----------------|--2---2---2---2--|


  Q  E  E E  E Q    Q  E  E E  E Q    Q  E  E E  E Q    E  E E  E E  E  E  E
|---------9-------|---------9-------|---------9-------|-----------9----11-----||
|----9h10---10p9--|----9h10---10p9--|----9h10---10p9--|---10-9h10---10--------||
|-----------------|-----------------|-----------------|-------------------11--||
|-----------------|-----------------|-----------------|-----------------------||
|-----------------|-----------------|-----------------|-----------------------||
|-----------------|-----------------|-----------------|-----------------------||
|
| Q  Q    Q    Q    Q  Q    Q    Q    Q  Q    Q    Q    Q    Q    Q     Q
|-----------------|-----------------|-----------------|-----------------------||
|-----------------|-----------------|-----------------|-----------------------||
|-----------------|-----------------|-----------------|-----------------------||
|-4--4----4----4--|-4--4----4----4--|-4--4----4----4--|-4----4----4-----4-----||
|-2--2----2----2--|-2--2----2----2--|-2--2----2----2--|-2----2----2-----2-----||
|-----------------|-----------------|-----------------|-----------------------||


 Bridge
          E  E         E  E         E  E         E  E
|-----------------------------------------------------|
|-----------------------------------------------------|
|-----------------------------------------------------|
|------------9--------10p=9--------10p=9--------10p=9-|
|-----------------------------------------------------|
|-----------------------------------------------------|
|
|         H.                                    +E  E
|-----------------------------------------------------|
|-----------------------------------------------------|
|---------5-------------------------------------(5)---|
|---------5-------------------------------------(5)---|
|---------3-------------------------------------(3)---|
|-----------------------------------------------------|
|
| Gtr IIGtr III
|  a      Q     a      Q     a      Q     a      Q
|--------12-----------12-----------12-----------12----|
|-15b17-(15)---15b17-(15)---15b17-(15)---15b17-(15)---|
|-----------------------------------------------------|
|-----------------------------------------------------|
|-----------------------------------------------------|
|-----------------------------------------------------|


          E  E         E  E         E  E         E  E           W           +H.           Q
|-----------------------------------------------------|-------------------|--------------------|
|-----------------------------------------------------|-------------------|--------------------|
|-----------------------------------------------------|-------------------|--------------------|
|--------10p=9--------10p=9--------10p=9--------10p=9-|---------9---------|-(9)----------------|
|-----------------------------------------------------|-------------------|--------------------|
|-----------------------------------------------------|-------------------|--------------------|
|
|         H.                                    +E  E           W            E  Q.   +Q   Q
|-----------------------------------------------------|-------------------|--------------------|
|-----------------------------------------------------|-------------------|-----7----(7)-------|
|---------7-------------------------------------(7)-7-|-------------------|-----7----(7)-------|
|---------7-------------------------------------(7)-7-|---------2---------|-----7----(7)-------|
|---------5-------------------------------------(5)---|---------2---------|--------------------|
|-----------------------------------------------------|---------0---------|--------------------|
|
|  a      Q     a      Q     a      Q     a      Q       a      W            W
|--------12-----------12-----------12-----------12----|--------12---------|--------------------|
|-15b17-(15)---15b17-(15)---15b17-(15)---15b17-(15)---|-15b17-(15)--------|--------------------|
|-----------------------------------------------------|-------------------|--------------------|
|-----------------------------------------------------|-------------------|--------------------|
|-----------------------------------------------------|-------------------|--------------------|
|-----------------------------------------------------|-------------------|--------------------|


          E  E         E  E         E  E         E  E
|-----------------------------------------------------|
|-----------------------------------------------------|
|-----------------------------------------------------|
|--------10p=9--------10p=9--------10p=9--------10p=9-|
|-----------------------------------------------------|
|-----------------------------------------------------|
|
|         H.                                    +E  E
|-----------------------------------------------------|
|-----------------------------------------------------|
|---------5-------------------------------------(5)---|
|---------5-------------------------------------(5)---|
|---------3-------------------------------------(3)---|
|-----------------------------------------------------|
|
|  a      Q     a      Q     a      Q     a      Q
|--------12-----------12-----------12-----------12----|
|-15b17-(15)---15b17-(15)---15b17-(15)---15b17-(15)---|
|-----------------------------------------------------|
|-----------------------------------------------------|
|-----------------------------------------------------|
|-----------------------------------------------------|


          E  E         E  E         E  E         E  E   Q   Q.                 Q.
|-----------------------------------------------------|------------------------------|
|-----------------------------------------------------|------------------------------|
|-----------------------------------------------------|------------------------------|
|--------10p=9--------10p=9--------10p=9--------10p=9-|-----2------------------0-----|
|-----------------------------------------------------|-----2------------------0-----|
|-----------------------------------------------------|------------------------------|
|
|         H.                                    +E  E   W
|-----------------------------------------------------|------------------------------|
|-----------------------------------------------------|------------------------------|
|---------7-------------------------------------(7)-7-|------------------------------|
|---------7-------------------------------------(7)-7-|-2----------------------------|
|---------5-------------------------------------(5)---|-2----------------------------|
|-----------------------------------------------------|-0----------------------------|
|
|  a      Q     a      Q     a      Q     a      Q      Q.      a      E   +H
|--------12-----------12-----------12-----------12----|---------------12--(12)-------|
|-15b17-(15)---15b17-(15)---15b17-(15)---15b17-(15)---|--------15b17-(15)-(15)r======|
|-----------------------------------------------------|------------------------------|
|-----------------------------------------------------|------------------------------|
|-----------------------------------------------------|------------------------------|
|-----------------------------------------------------|------------------------------|


    Q.     Q.      Q            E  E         E  E         E  E         E  E
|---------------------|-----------------------------------------------------|
|---------------------|-----------------------------------------------------|
|---------------------|-----------------------------------------------------|
|---5------0-------2--|--------10p=9--------10p=9--------10p=9--------10p=9-|
|---5------0-------2--|-----------------------------------------------------|
|---------------------|-----------------------------------------------------|
|
|   E  Q.     +Q   Q            Q.              E         Q            Q
|---------------------|-----------------------------------0-----------------|
|------7------(7)-----|-------------------------0----------------------0----|
|------7------(7)-----|---------5-------------------------------------------|
|------7------(7)-----|---------5-------------------------------------------|
|---------------------|---------3-------------------------------------------|
|---------------------|-----------------------------------------------------|
|
|  +H.             Q     a      Q     a      Q     a      Q     a      Q
|-(12)----------------|--------12-----------12-----------12-----------12----|
|-(15)----------------|-15b17-(15)---15b17-(15)---15b17-(15)---15b17-(15)---|
|---------------------|-----------------------------------------------------|
|---------------------|-----------------------------------------------------|
|---------------------|-----------------------------------------------------|
|---------------------|-----------------------------------------------------|


          E  E         E  E         E  E         E  E
|------------------------------------------------------|
|------------------------------------------------------|
|------------------------------------------------------|
|--------10p=9--------10p=9--------10p=9--------10p=9--|
|------------------------------------------------------|
|------------------------------------------------------|
|
|         Q.              E         Q            E  E
|-----------------------------------0------------------|
|-------------------------0----------------------------|
|---------7--------------------------------------------|
|---------7--------------------------------------7--0--|
|---------5--------------------------------------5--0--|
|------------------------------------------------------|
|
|  a      Q     a      Q     a      Q     a      Q
|--------12-----------12-----------12-----------12-----|
|-15b17-(15)---15b17-(15)---15b17-(15)---15b17-(15)----|
|------------------------------------------------------|
|------------------------------------------------------|
|------------------------------------------------------|
|------------------------------------------------------|


          E  E         E  E         E  E         E  E           E  E         E  E      E  E  E  E
|-----------------------------------------|-----------------------------------------------------|
|-----------------------------------------|-----------------------------------------------------|
|-----------------------------------------|-----------------------------------------------------|
|10p=9----10p=9--------10p=9--------10p=9-|--------10p=9--------10p=9--------10p=9----10p=9-----|
|---------------------------------------------|-------------------------------------------------|
|---------------------------------------------|-------------------------------------------------|
|
|         Q.              E         H                           Q            Q          Q   Q
|---------------------------------------------|-----------------------------------0-------------|
|---------------------------------------------|----------------------0-------------------------0|
|-2---------------2---------2-----------------|-------------------------------------------------|
|-2---------------2---------2-----------------|---------4---------------------------------------|
|-0---------------0---------0-----------------|---------2---------------------------------------|
|---------------------------------------------|-------------------------------------------------|
|
|  a      Q     a      Q     a      Q     a      Q       a      Q     a      Q     a    Q  a  Q
|-------12-------12-----------12-----------12-|--------12-----------12-----------12-----------12-|
|15b17-(15)-15b17-(15)-15b17-(15)---15b17-(15)|-15b17-(15)---15b17-(15)---15b17-(15)---15b17-(15)|
|---------------------------------------------|--------------------------------------------------|
|-------------------------------------------------|----------------------------------------------|
|-------------------------------------------------|----------------------------------------------|
|-------------------------------------------------|----------------------------------------------|


                                                   To Coda
          E  E         E  E         E  E         E    E
|------------------------------------------------------------||
|------------------------------------------------------------||
|------------------------------------------------------------||
|--------10p=9--------10p=9--------10p=9--------10p===9------||
|------------------------------------------------------------||
|------------------------------------------------------------||
|
|         Q            Q            Q            Q
|---------0-------------------------0------------------------||
|----------------------0-------------------------0-----------||
|------------------------------------------------------------||
|------------------------------------------------------------||
|------------------------------------------------------------||
|------------------------------------------------------------||
|
|  a      Q     a      Q     a      Q     a      E   +E
|--------12-----------12-----------12-----------12--(12)\----||
|-15b17-(15)---15b17-(15)---15b17-(15)---15b17-(15)-(15)\----||
|------------------------------------------------------------||
|------------------------------------------------------------||
|------------------------------------------------------------||
|------------------------------------------------------------||


 Guitar Solo
  Gtr III
  |3| |-3-| |3|   |3|
  Q E E E E E Q   E Q     S S S S S S S S +T  T S S S +Q
|-----------------------|-----------------------------------|
|-----------------------|-----------------------------------|
|-----------------------|-----------------------------------|
|-2-2-2-2-2-2-2---2-2---|-2p0-------2---------0-------------|
|-----------------------|-----0h2-0---0h2-(2)---------------|
|-----------------------|-----------------------3p0-3-(3)p==|
|
| Gtr I
| Q   Q     E   Q     E   Q       E   E   +Q           E  E
|-----------------------|-----------------------------------|
|-----------------------|-----------------------------------|
|-----4-----------------|-0-----------2---(2)----------2----|
|-----2-----0---0-----0-|-0-----------2---(2)----------2--0-|
|-2---------0---0-------|-----------------------------------|
|-0---------------------|-----------------------------------|


  E. S +E  S   +S  +E.   a    +S  +S  S E
|----0-(0)----------------------------0----|
|----0-(0)----------------------------0----|
|----------2b4-(2)-(2)---2pb4-(2)-(2)---2--|
|------------------------------------------|
|------------------------------------------|
|-0----------------------------------------|
|
| Q     Q           E  Q                E
|------------------------------------------|
|------------------------------------------|
|-------4----------------------------------|
|-------2-----------0--0----------------0--|
|-2-----------------0--0-------------------|
|-0----------------------------------------|


            |-3-|
  +S  E S E S S S E a   +S  +S  S S E
|-----2p0-0-------0-------------------|
|-----0-0-0-3p0---0-----------------0-|
|-(2)-----------2---2b4-(2)r(2)p0---0-|
|---------------------------------2---|
|-------------------------------------|
|-------------------------------------|
|
|  Q      E Q.                  E   E


|-------------------------------------|
|-------------------------------------|
|--0--------2-------------------2-----|
|--0--------2-------------------2---0-|
|-------------------------------------|
|-------------------------------------|


                                                              ~~~~~~~
           |-3--| |-3--| |3|
  a Q.    +S  S S S  S S E S +S  S E   +S  S S S +S  S S  S S E. +E  S S
|------------------------------------|--------------------------------------|
|------------------------------------|-----2--------------0-----------------|
|------------------------------------|-----2---------0-2--0----------7S9----|
|-2s4-----(4)-2-0-4--2-0---0-(0)-----|---------------0-2--------------------|
|------------------------2-------0-4-|-(4)--------------------7--(7)--------|
|------------------------------------|-------3p0-(0)------------------------|
|
|   Q   Q         Q.               E    Q         E    Q.         E  E
|------------------------------------|--------------------------------------|
|------------------------------------|--------------------------------------|
|-------4----------------------------|--0--------------2----------2---------|
|-------2---------0----------------0-|--0--------------2----------2--0------|
|---2-------------0------------------|--------------------------------------|
|---0--------------------------------|--------------------------------------|


      |-3-| |-3--| |--3--|     |-3-| |--3---|  |--3--|  |--3---|
  E E E E E E  E E E E   E   a E E E E E    E  E  E  E  E  E   E
|--------------------------|-----------------------------------0-|
|-7---7---7----7---7-----7-|-----------------------------------0-|
|-7---7---7----7---7-----7-|-7s9-9-9-9-9----9-12-12-12-12-12-----|
|---9---9---9----9---9-----|-7s9-9-9-9-9----9-12-12-12-12-12-----|
|--------------------------|-------------------------------------|
|--------------------------|-------------------------------------|
|
| Q   Q     Q.         E       Q     E   Q.             E    E
|--------------------------|-------------------------------------|
|--------------------------|-------------------------------------|
|-----4--------------------|---0---------2--------------2--------|
|-----2-----0----------0---|---0---------2--------------2----0---|
|-2---------0--------------|-------------------------------------|
|-0------------------------|-------------------------------------|


   |--3--|  |--3--|  |--3---|  |---3---|
   E  E  E  E  E  E  E   E  E  E  E    E
|------------------------------------------|
|-12-12-12-12-12-12-12--12-12-12-12---12---|
|-12-12-12-12-12-12-12--12-12-12-12---12---|
|------------------------------------------|
|------------------------------------------|
|------------------------------------------|
|
|  Q        Q        Q.             E
|------------------------------------------|
|------------------------------------------|
|-----------4------------------------------|
|-----------2--------0--------------0------|
|--2-----------------0---------------------|
|--0---------------------------------------|


   a     +S   +S   E  S  S  E   E  E     +E   E
|------------------------------12------------12-|
|-14b15-(14)r(14)-12-14p12--------15b17-(15)----|
|-14b15-(14)r(14)-12-14p12-14-------------------|
|--------------------------14-------------------|
|-----------------------------------------------|
|-----------------------------------------------|
|
|         Q           E     Q.            E   E




|-----------------------------------------------|
|-----------------------------------------------|
|---------0-----------------2-------------2-----|
|---------0-----------------2-------------2---0-|
|-----------------------------------------------|
|-----------------------------------------------|


   E.  S  S  S  a     +S   S  E.  T  T  S  a     +S   E    E.  S  S  E    S S S E a   +E  S S
|-15--12---------------------12--12------------------12-|--------------------------------------|
|--------15p12------------12--------15p12------------12-|-15--12------------5p3p0-----------0--|
|--------------14b16-(14)-----------------14b16-(14)----|--------14p12------------2b4-(2)-2-0--|
|-------------------------------------------------------|--------------------------------------|
|-------------------------------------------------------|--------------------------------------|
|-------------------------------------------------------|--------------------------------------|
|
|  Q      Q                   Q.                      E    Q      E    Q.              E  E
|-------------------------------------------------------|--------------------------------------|
|-------------------------------------------------------|--------------------------------------|
|---------4---------------------------------------------|--0-----------2---------------2-------|
|---------2-------------------0-----------------------0-|--0-----------2---------------2--0----|
|--2--------------------------0-------------------------|--------------------------------------|
|--0----------------------------------------------------|--------------------------------------|


  a Q.     a E +E  E a E E   +E  a Q   E a Q.     a E
|--------------------------|--------------------------|
|------------------------3-|-(3)----------------------|
|-2s4------4s2-(2)-0-2s4---|-----4s2---0-2s4------4s2-|
|--------------------------|--------------------------|
|--------------------------|--------------------------|
|--------------------------|--------------------------|
|
|   PM-------------------------------------------------
|   e  e e   e  e  e   q      e    e e e   e  e e   E
|--------------------------|--------------------------|
|--------------------------|--------------------------|
|--------------------------|--------------------------|
|--------9---------9-------|---------9--------9-----9-|
|--------9------7--9-------|---------9-----7--9-----9-|
|---7--7-----7---------7---|--7----7---7--------7-----|
|
| Gtr II
|   E  E E   E +E  E   E E   +E    E E E   E  Q     E
|---0----0---0-(0)-------0-|-(0)-----0--------0-----0-|
|---0--0-----------0---0-0-|-(0)---0---0---0----------|
|--------------------------|--------------------------|
|--------------------------|--------------------------|
|--------------------------|--------------------------|
|--------------------------|--------------------------|


                                            D.S. al Coda
   E  E  a E E a E E a E E   a  E  E a E E a E E Q
|------------0-----0-----0-|-------0-----0-----0----------||
|----------0-----0-----0---|----0------0-----0---0--------||
|--2--0--2s4---2s4---2s4---|-2s=4----2s4---2s4------------||
|--------------------------|------------------------------||
|--------------------------|------------------------------||
|--------------------------|------------------------------||
|
|---------------------------------------------------|
| +E  e    q     e e   e e     +E  e   e e   e e e  e
|--------------------------|------------------------------||
|--------------------------|------------------------------||
|------------------------7-|---(7)-7---7-7---7-7-7--7-----||
|-(9)------9-------9-----7-|---(7)-7---7-7---7-7-7--7-----||
|-(9)------9-------9-------|------------------------------||
|-----7----------7-----7---|------------------------------||
|
| +E  Q.         Q     Q        Q      Q     Q   E.   S





|-(0)------------0---------|----0------------0------------||
|-----0----------------0---|----0------0-----0---0----0---||
|--------------------------|------------------------------||
|--------------------------|------------------------------||
|--------------------------|------------------------------||
|--------------------------|------------------------------||


  &
  Gtr I
  Q  Q  Q  Q     E  Q  E  H       Q    Q   Q     Q     E  Q  E  H
|-------------|-----------------|-------------------|-----------------|
|-------------|-----------------|-------------------|-----------------|
|-------------|-----------------|-------------------|-----------------|
|----9-----9--|-----9-----9-----|------9---------9--|-----9-----9-----|
|----7-----7--|-----7-----9-----|------7---------7--|-----7-----9-----|
|-------------|--7-----7--------|-------------------|--7-----7--------|
|
| Gtr II
| W              H        H       Q    Q.     Q.       H        H
|-------------|-<7>-------------|-------------------|-<7>-------------|
|-------------|-----------------|----<12>----<7>----|-----------------|
|-------------|-----------------|-------------------|-----------------|
|-------------|----------<4>----|-------------------|----------<4>----|
|-------------|----------<4>----|-------------------|----------<4>----|
|-------------|-----------------|-------------------|-----------------|


  Q    Q   Q     Q     E  Q  E  H
|-------------------|-----------------|
|-------------------|-----------------|
|-------------------|-----------------|
|------9---------9--|-----9-----9-----|
|------7---------7--|-----7-----9-----|
|-------------------|--7-----7--------|
|
| Q    Q.     Q.       H        H
|-------------------|-<7>-------------|
|----<12>----<7>----|-----------------|
|-------------------|-----------------|
|-------------------|----------<4>----|
|-------------------|----------<4>----|
|-------------------|-----------------|


  Q    Q   Q     Q      E    Q   E  H
|-------------------|---------------------||
|-------------------|---------------------||
|-------------------|---------------------||
|------9---------9--|--------9------9-----||
|------7---------7--|--------7------9-----||
|-------------------|---7--------7--------||
|
| Q    Q.     Q.       +E    Q.     H
|-------------------|---------------------||
|----<12>----<7>----|-(<7>)---------------||
|-------------------|---------------------||
|-------------------|-------<4>-----------||
|-------------------|--------------<4>----||
|-------------------|---------------------||


 Outro
  Q  Q  Q  Q    E Q  E H      Q  Q  Q  Q    E Q   E H
|-------------|-------------|-------------|-----------------|
|-------------|-------------|-------------|-----------------|
|-------------|-------------|-------------|-----------------|
|----9-----9--|---9----9----|----9-----9--|---9-----9-------|
|----7-----7--|---7----9----|----7-----7--|---7-----9-------|
|-------------|-7----7------|-------------|-7-----7---------|
|
| W             W             W             E Q.    Q.   E




|-------------|-------------|-------------|---0----------0--|
|-------------|-------------|-------------|---------0-------|
|-------------|-------------|-------------|-----------------|
|-------------|-------------|-------------|-----------------|
|-------------|-------------|-------------|-----------------|
|-------------|-------------|-------------|-----------------|


  Q      Q  Q  Q     E  Q  E H          Q     Q    Q   Q    E Q  E H
|-----------------|-----------------|---------------------|---------------|
|-----------------|-----------------|---------------------|---------------|
|-----------------|-----------------|---------------------|---------------|
|--------9-----9--|-----9----9------|---------9--------9--|---9----9------|
|--------7-----7--|-----7----9------|---------7--------7--|---7----9------|
|-----------------|--7-----7--------|---------------------|-7----7--------|
|
| E   Q.    H        H       Q  E E     Q     Q    H        H      Q  Q
|-----------------|-<7>------0----0-|-------<12>--<7>-----|--------0------|
|---<12>----------|-------------0---|-<12>----------------|-----------0---|
|-----------------|-----------------|---------------------|---------------|
|-----------------|-----------------|---------------------|---------------|
|-----------------|-----------------|---------------------|---------------|
|-----------------|-----------------|---------------------|---------------|


    Q  Q  Q  Q    E Q  E H      Q  Q  Q  Q    E Q  E H
||--------------|-------------|-------------|-------------|
||o-------------|-------------|-------------|-------------|
||--------------|-------------|-------------|-------------|
||-----9-----9--|---9----9----|----9-----9--|---9----9----|
||o----7-----7--|---7----9----|----7-----7--|---7----9----|
||--------------|-7----7------|-------------|-7----7------|


  Q  Q  Q  Q    E Q  E H      Q  Q  Q  Q    E Q  E H
|-------------|-------------|-------------|--------------||
|-------------|-------------|-------------|-------------o||
|-------------|-------------|-------------|--------------||
|----9-----9--|---9----9----|----9-----9--|---9----9-----||
|----7-----7--|---7----9----|----7-----7--|---7----9----o||
|-------------|-7----7------|-------------|-7----7-------||



Duration Legend
---------------
W - whole; H - half; Q - quarter; E - 8th; S - 16th; T - 32nd; X - 64th; a - acciaccatura
+ - note tied to previous; . - note dotted; .. - note double dotted
Uncapitalized letters represent notes that are staccato (1/2 duration)
Irregular groupings are notated above the duration line
Duration letters will always appear directly above the note/fret number it represents the
duration for.  Duration letters with no fret number below them represent rests.  Multi-
bar rests are notated in the form Wxn, where n is the number of bars to rest for.  Low
melody durations appear below the staff

Tablature Legend




















----------------
 h   - hammer-on
 p   - pull-off
 b   - bend
 pb  - pre-bend
 r   - bend release (if no number after the r, then release immediately)
 /\  - slide into or out of (from/to "nowhere")
 s   - legato slide
 S   - shift slide
 - natural harmonic
[n]  - artificial harmonic
n(n) - tapped harmonic
 ~   - vibrato
 tr  - trill
 T   - tap
 TP  - trem. picking
 PM  - palm muting
\n/  - tremolo bar dip; n = amount to dip
 \n  - tremolo bar down
 n/  - tremolo bar up
/n\  - tremolo bar inverted dip
 =   - hold bend; also acts as connecting device for hammers/pulls
 <> - volume swell (louder/softer)
 x   - on rhythm slash represents muted slash
 o   - on rhythm slash represents single note slash

Misc Legend
-----------
 |  - bar
||  - double bar
||o - repeat start
o|| - repeat end
*|  - double bar (ending)
 :  - bar (freetime)
 $  - Segno
 &  - Coda
Tempo markers -  = BPM(8/16=s8/s16), where s8 = swing 8ths, s16 = swing 16ths




END
+++++++++++++++++++++++++++++++++++++++++++++++++++++++++++++++++++++
+++++++++++++++++++++++++++++++++++++++++++++++++++++++++++++++++++++
CRYIN
AROSMITH
 


 -Intro-

  A#5  C5   F5   G5                           
e:-x----x----x----x----I------------------I
B:-x----x----x----x----I------------------I
G:-3----5----x----x----I---6h7-7-7-6-5----I 
D:-3----5----3----5----I---------------8--I 
A:-1----3----3----5----I------------------I
E:-x----x----1----3----I------------------I 


e:-x----x----x----x----I-------------------------I
B:-x----x----x----x----I-------------------------I
G:-3----5----x----x----I----6h7-7-7-6-5----------I
D:-3----5----3----5----I----------------8h10-8---I
A:-1----3----3----5----I-------------------------I
E:-x----x----1----3----I-------------------------I


  A#5  C5   F5   G5                            
e:-x----x----x----x----I-------------------I
B:-x----x----x----x----I-------------------I
G:-3----5----x----x----I---6h7-7-7-6-5-----I
D:-3----5----3----5----I---------------8---I
A:-1----3----3----5----I-------------------I
E:-x----x----1----3----I-------------------I


e:-x----x----x----x----I---------------------I
B:-x----x----x----x----I---------------------I
G:-3----5----x----x----I---6h7-7-7-6-5-------I
D:-3----5----3----5----I---------------10-8--I
A:-1----3----3----5----I---------------------I
E:-x----x----1----3----I---------------------I
 
-Verse 1-

              There was a time                when i was so brokenhearted
         A                E             F#m                 C#m
e:-------0----------------0------I--------2------------------4------I
B:-----2---2------------0---0----I------2---2--------------5---5----I
G:---2-------2--------1-------0--I----2-------2----------6-------6--I
D:-2-----------------------------I-------------------6--------------I
A:------------------2------------I--4-------------------------------I
E:-------------------------------I----------------------------------I


                love wasn´t much of a friend of mine 
         D                  A            E
e:-------2------------------0------------0------0------0------I
B:-----3---3--------------2---2--------0---0------0------0----I
G:---2-------2----------2-------2----1-------1------1------1--I
D:-0------------------2---------------------------------------I
A:---------------------------------2--------------------------I
E:------------------------------------------------------------I   


             the tables have turned, yeah   
        A                   E             
e:-------0-------------------0---------I
B:-----2---2---------------0---O-------I
G:---2-------2-----------1-------1-----I
D:-2-----------------------------------I
A:---------------------2---------------I
E:-------------------------------------I

                couse me and them ways have parted 
          F#m                     C#m  
e:---------2-----------------------4-------I 
B:-------2---2-------------------5---5-----I
G:-----2-------2---------------6-------6---I
D:---------------------------6-------------I
A:---4-------------------------------------I
E:-----------------------------------------I



               that kind of love was the killin´ kind 
          D                 A              E
e:--------2-----------------0--------------0------0-------O------I
B:------3---3-------------2---2----------0---0------0-------O----I
G:----2-------2---------2-------2------1-------1------1-------1--I
D:--O-----------------2------------------------------------------I
A:------------------------------2--------------------------------I
E:---------------------------------------------------------------I



  G          D           G              D  
       all i want is someone I can´t resist 
 
e:-------------------------------------------------------------I
B:-------------------------------------------------------------I
G:-------------------------------------------------------------I
D:-----4-7-4---------4-7-4-0-------4-7-4-5-------4-5-7---------I
A:-5-5-------0-----5-------------5-------------5---------------I
E:-------------------------------------------------------------I        

 C                G                    E             
       I know all I need to know by the way that I got kissed 

e:--------------------------------------------------------------I
B:--------------------------------------------------------------I
G:-------------------------------------1--1--1--1--1--1--1--1---I
D:-------4-5-7-----------3-4-6---------2--2--2--2--2--2--2--2---I
A:---5-5-------------4-4---------------2--2--2--2--2--2--2--2---I
E:--------------------------------------------------------------I

 -Chorus-
        A             E          
 I was cryin´ when I met you 

e:-------0------------0--------I
B:-----2---2--------0---0------I
G:---2-------2----1-------1----I
D:-2---------------------------I
A:--------------2--------------I
E:-----------------------------I
 
         F#m           D             A  
  now I´m tryin´ to forget you

e:--------2------------2--------------O---------I
B:------2---2--------3---3----------2---2-------I
G:----2-------2----2-------2------2-------2-----I
D:---------------0--------------2---------------I
A:-4--------------------------------------------I
E:----------------------------------------------I

                E        D    
 your love is sweet misery


e:-------------0-----------2-------2------2----------I
B:-----------0---0-------3---3-------3------3--------I
G:---------1-----------2-------2-------2------2------I
D:-------------------0-------------------------------I
A:-------2-------------------------------------------I
E:---------------------------------------------------I

         A             E
 I was cryin´ just to get you 

e:-------0-------------0---------I
B:-----2---2---------0---0-------I
G:---2-------2-----1-------1-----I
D:-2-----------------------------I
A:---------------2---------------I
E:-------------------------------I
       C#m               D             A     
 now i´m dyin´ ´couse I let you

e:-------4--------------2---------------0---------I
B:-----5---5----------3---3-----------2---2-------I
G:---6-------6------2-------2-------2-------2-----I
D:-6--------------0---------------2---------------I
A:------------------------------------------------I
E:------------------------------------------------I

           E             D
 do what you do, down on me 

e:---------0---------------2-----------2-------I
B:-------0---0-----------3---3---------3-------I
G:-----1-------1-------2-------2-------2-------I
D:-------------------0-----------------0-------I
A:---2-----------------------------------------I
E:---------------------------------------------I



 -Intro-

 now there´s not even breathin´room
 between pleasure and plain
 yeah, you cry when we´re makin´ love
 must be one and the same 



 -Verse 2-

 it´s down on me 
 yeah I got to tell you one thing 
 it´s been on my mind, girl I gotta say 
 we´re partners in crime 
 you got that certain something 
 what you give to me takes my breath away
 now the world out onthe street is the devil´s in your kiss 
 if our love goes up in flames it´s a fire I can´t resist


 -Chorus-

 -Intro-
  


 -Bridge-
      D#              A#
 Couse what you got inside 
       D#                     A#
 ain´t where your love should stay
      G#                 D#     
 yeah, our love, sweet love, ain´t love  
         E
 till you give your heart away


 -Alt. Chorus-
        A           E
 I was cryin when I met you
        C#m          D          A
 now I´m tryn´ to forget you
               E          D  
 your love is sweet misery    
        A            E        
 I was cryin just to get you 
         F#m               D          A 
 now I´m dy---in´ just to let you 
          E                        D
 do what you do what you do down to me,

     baby, baby, baby


 -Harmonic solo-

 A - E - C#m - D - A - E - D 

 A - E - F#m - D - A - E - D

 Etc.....



 


END
++++++++++++++++++++++++++++++++++++++++++++++++++++++++++++++++++
++++++++++++++++++++++++++++++++++++++++++++++++++++++++++++++++++
Artist: Aerosmith
Song: Amazing


-----------------------------------------------------------------------------
			     AMAZING - Aerosmith
-----------------------------------------------------------------------------

Tabbed by:	Herni_motley
Email: herni_motley@yahoo.com.ar

Tuning: A (440 hz.)

Note: If you don't know any of the chords used, you'll find them at the end of the tab

Intro: [Am] - [G/A] - [Am] - [G/A]

	       Am		     G/A
I kept the right ones out and let the wrong ones in
	C7					F
Had an angel of mercy to see me through all my sins
	Fm/G#				C/G
There were times in my life when I was goin' insane
Am/F#			    F
Tryin' to walk through the pain

	Am		  G/A
When I lost my grip and I hit the floor
	C7						F
Yeah, I thought I could leave but couldn't get out the door
	Fm/G#		    C/G
I was so sick and tired of livin' a lie
	Am/F#		    F
I was wishin' that I would die

CHORUS
      C	  Em		F		Em		   G	G7
It's amazing, with the blink of an eye you finally see the light
      C	  Em		F			Em		   G	G7
It's amazing when the moment arrives that you know you'll be alright
      F   Em		D7		G7(III)			C	C/B
It's amazing and I'm sayin' a prayer for the desperate hearts tonight

     Am				    D7
That one last shot's a permanent vacation
   F					C	C/B
And how high can you fly with broken wings?
Am			   D7
Life's a journey not a destination
F					 G
And I just can't tell just what tomorrow brings


(Same as VERSE)
You have to learn to crawl before you learn to walk
But I just couldn't listen to all that righteous talk
Well, I was out on the street, just tryin' to survive
Scratchin' to stay alive

CHORUS


CHORDS used:

	Am	G/A	C7	F	Fm/G#	C/G	Am/F#	C	Em


e|------0--------X------0-------1--------4-------0-------0------0-------0----|
b|------1--------3------1-------1--------6-------1-------1------1-------0----|
g|------2--------4------3-------2--------5-------0-------2------0-------0----|
D|------2--------5------2-------3--------6-------2-------2------2-------2----|
A|------0--------0------3-------3--------X-------3-------0------3-------2----|
E|------X--------X------X-------1--------4-------3-------2------X-------0----|


	G	 G7	D7    G7(III)	C/B
e|------3--------1------2-------3--------0------|
b|------3--------0------1-------3--------1------|
g|------0--------0------2-------4--------0------|
D|------0--------0------0-------3--------2------|
A|------2--------2------X-------5--------2------|
E|------3--------3------X-------3--------X------|

Well, that's all folks... Any question, mail me; there's no problem, feel free to ask.
herni_motley@yahoo.com.ar

END
+++++++++++++++++++++++++++++++++++++++++++++++++++++++++++++++++++++++++++++
+++++++++++++++++++++++++++++++++++++++++++++++++++++++++++++++++++++++++++++
Amazing                                     
Aerosmith

Outro Solo
Just the solo 


                                                             
E||--------------------------|------------------------------|
B||--------------------------|------------------------------|
G||---------5-5-5---5/7b-10r-|---------------------5h7-7b---|
D||--------------------------|-----------------5/7----------|
A||--3-----------------------|----3-3-3--3-3-3--------------|
E||--------------------------|------------------------------|


                                                                   
---------------------------------|--------------------------------|
---------------------------------|--------------------------------|
-------------------5-7-7b7r5-7h5-|-----5-5---5-5---5-5-3---3h2----|
---------------5/7---------------|---7-----7-----7-------5-----3--|
----3-3-3--3-3-------------------|--------------------------------|
---------------------------------|--------------------------------|


                                                        
---------------------------|--6------------------------|
------------------------6b-|--8----6r----4---6b4-------|
----5---5---5--5-5---------|---------------5-------5-5-|
---------------------------|---------------------------|
--3---3---3----------------|---------------------------|
---------------------------|---------------------------|


                                                                  
--------------------------|--------------------------------------|
----6b-----6r-4---6b6-4---|--------------------------------------|
----------------5-------5-|-------------5-5/2------0h2h0-5-5---5-|
--------------------------|----7h5--5h7--------------------------|
--------------------------|--------------------3/5-----------3---|
--------------------------|--------------------------------------|


                                                                     
--------6---8-----------------|---11b-8-----8-----8-----------------|
----6b----6b--6b6b6-4---------|---------11b-------8-----------11/13-|
--5-------------------5----5--|---------------10b---9---------10/12-|
-------------------------7----|-----------------------10-10/7-------|
------------------------------|-------------------------------------|
------------------------------|-------------------------------------|


                                                 
------------------------------------------------|
--13-13-13----13-13-----13----13----13----13-11b|
--12-12----12--------12----12----12----12-------|
------------------------------------------------|
------------------------------------------------|
------------------------------------------------|


                                           
------12-12-12-14b12----12-8-8-8-10r-8----|
---13-13-13----------13-13-8-8---------10-|
---------------------12-------------------|
------------------------------------------|
------------------------------------------|
------------------------------------------|


                                            
--10h8------8---------8------8----8----8---|
-------8-11b8-10h8----8------8-11b8----8---|
-------------------10---8-----------10b--8-|
--------------------------10---------------|
-------------------------------------------|
-------------------------------------------|


                                                                                
--------------------------------------|---------------15r--12-10r-8----10r8----|
--------------------------------------|--------15r-13---------------10------10-|
-----8-8-10-10r-8h10-8-10b---8--------|---12r----------------------------------|
--10----------------------------10-10-|----------------------------------------|
--------------------------------------|----------------------------------------|
--------------------------------------|----------------------------------------|


                                                            
--10r-8----8-10r8----8h10h8----8h10h8----10h8----8-10h8----|
--------10--------10--------10--------10------10-8------10-|
-----------------------------------------------------------|
-----------------------------------------------------------|
-----------------------------------------------------------|
-----------------------------------------------------------|


                                                        
--8----------------------------------------------------|
--8----------------------------------------------------|
----10r8----8-----------8-10r-8----8-------------------|
---------10---10h8-10-----------10---10-8----10h8----8h|
------------------------------------------10------10---|
-------------------------------------------------------|


                                                 
------------------------------------------------|
------------------------------------------------|
--------------------------------------------5-7-|
--10h8----8-----------------------------5h7-----|
-------10---10-9-8h6h8h6---6---6h8h6------------|
-------------------------8---8------------------|


                                                                          
------------------------------------|------8-----8-----8-----8----8-8-11-|
----------------------8b8-7-6-5-----|--11r-8-11r---11r---11r-8-11b--8-11-|
--7b-5-7---5-7r-5-7-5-------------5-|------------------------------------|
---------7----------------------7---|------------------------------------|
------------------------------------|------------------------------------|
------------------------------------|------------------------------------|


                                          
-----------------------------8-----------|
-------8----8----8----8----8-8----8-8----|
--8----8-10b8-10b--10b--10b----10b----10b|
----10-----------------------------------|
-----------------------------------------|
-----------------------------------------|


                                                 




--8-----------------------8---------------------|
--8----8---11b-8----------8-8h11h8----8h11h8----|
----10b--8-10b-8-10r-8-10b---------11--------11-|
------------------------------------------------|
------------------------------------------------|
------------------------------------------------|


                                                                
--8------------------------------------------------------------|
--8------------------------------------------------------------|
----10b8-10b8-----8h10h8----10h8----8h10h8---------------------|
---------------10--------10------10--------10h9h8----10h8----8-|
--------------------------------------------------10------10---|
---------------------------------------------------------------|


                                                     
----------------------------------------------------|
----------------------------------------------------|
----------------------------------------------------|
--10h8----------------------------------------------|
-------10h9h8/6h8h6h8h6---8h6---6-8-6-8-6-8b6-8-6h8h|
------------------------8-----8---------------------|


                                                        
-------------------------------------------------------|
---------------------------------------------8h11h8----|
--------------------------------10h8----8-10b-------11-|
----------------------8h10h8---------10----------------|
--6---6-8-8h6-----6-8b-------10------------------------|
----8---------8-6b-------------------------------------|


                                                                                
--------------------------11h8----11h8----11h8h11-11h8--------------------------
--11h8----11h8----11h8---------11------11-----------------8-8-----11h8----8h11h8
-------11------11------10------------------------------10b-----11------10b------
--------------------------------------------------------------------------------
--------------------------------------------------------------------------------
--------------------------------------------------------------------------------


                                                                    
-------------------------------------------------------------------|
----------------8h11h8----8---------10-8----------------------8--8-|
--11h10h8h10h11--------11---11-10h8-10-8-10h8----10h8----8-10b-----|
----------------------------------------------10------10-----------|
-------------------------------------------------------------------|
-------------------------------------------------------------------|


                                                          
---------------------------------------------------------|
--8----10-8----------------------------------------------|
----11-10-8-10b8h10h8----10h8----8-10b11-11/10h8h10h8----|
----------------------10------10----------------------10-|
---------------------------------------------------------|
---------------------------------------------------------|


                                                     
------------------------------12-11-10----8---------|
------------------------------------------8---------|
--8---------------------10h12-12-11----10---8b------|
----10-10-10-10-10-10-8-----------------------10-10-|
----------------------------------------------------|
----------------------------------------------------|


                                                   




---------------------11-12-12-11-10-10------------|
-----------------------------------------------11b|
----------------9h11-11-12-------------8b---------|
---8h10-10-8b10--------------------------10-10----|
--------------------------------------------------|
--------------------------------------------------|


                                                     
-----------8----------------------------------------|
-----------8-11h8----8---------------------------11b|
------8h11--------11---11h10h8h10h8----8-10b-10-----|
------------------------------------10--------------|
----------------------------------------------------|
----------------------------------------------------|


                                               
----------------------------------------------|
--11b11b11b11b11b11b11b11b11r--11r--11r--11r--|
----------------------------------------------|
----------------------------------------------|
----------------------------------------------|
----------------------------------------------|


                                                                   
--------------------------------------|---------------------------|
--11r--11r-11r------------------------|---------------------------|
-----------------------5--------------|--------------5h3----------|
----------------0--2h5-5-5h7h5--------|--5h-7/-2------------------|
--------------------------------6h7-x-|----------1h3--------------|
--------------------------------------|---------------------------|


Hope you enjoy it, It took me forever to type it :P

END
+++++++++++++++++++++++++++++++++++++++++++++++++++++++++++++++++++++
+++++++++++++++++++++++++++++++++++++++++++++++++++++++++++++++++++++
Blind Man
Aerosmith

{sot}
 E-F#-A          E-F#-D         E-F#-A        E-F#-D       E-F#-
e---------------------------------------------------------------
B---------------------------------------------------------------
G-----2---------------7--------------2-------------7------------
D-----2---------------7--------------2-------------7------------
A-----0---------------5--------------0-------------5------------
E-0-2-------------0-2------------0-2-----------0-2---------0-2--
{eot}

[A]I took a course in Halle[D]lujah
[A]  I went to night school for the [D]blues
[A] I took some stuff they said would [D]cool ya, heh hah
[A] But nothing seemed to light my [D]fuse

But it's all[F#m] in the pas[B]t like a che[D]ck that's in the mai[E]l
She was a tall w[F#m]hiskey glass[B]
I was an old[D] hound dog that just loved to chase his tai[E]l

Until I met a   blin[D]d man wh[A]o taught[E] me how to see, y[B]eah
[D]  A blind [A]man who could [E]change night into day
And if-a    [D]I can[A], I'm gonna mak[E]e you come with me,[B] yeah
Cause a-her[D]e comes the sun and we'll be chasin' all the clouds away

{sot}
 E-F#-A          E-F#-D         E-F#-A        E-F#-D       E-F#-
+---------------------------------------------------------------
+---------------------------------------------------------------
+-----2---------------7--------------2-------------7------------
+-----2---------------7--------------2-------------7------------
+-----0---------------5--------------0-------------5------------
+-0-2-------------0-2------------0-2-----------0-2---------0-2--
 Yeah yeah yeah yeah yeah yee yeah yeah

  A                        E-F#-D       F#m
+---------------------------------------------------------------
+---------------------------------------------------------------
+-2-----------------------------7-------------------------------
+-2-----------------------------7-------4-----------------------
+-0-----------------------------5-------4-----------------------
+---------------------------0-2---------2-----------------------
    I've had some lovers like a joy   ride
{eot}

[B] Some thing are never what they [E]seem[F#]
[A] My heaven's turned into a l[D]andslid[F#m]e
[B] Thank God I woke up from that dr[A]eam[G]

I met a   b[D]lind man[A] who tau[E]ght me how to see[B], yeah
[D]    Blind [A]man who could [E]change night into day
And if-a    [D]I can[A], I'm gonna mak[E]e you come with me,[B] yeah
Because a-h[D]ere comes the sun and we'll be chasin' all the clouds away

[E]  So please chase [F#m]harder and [E]drink all the flowers [D]dry
We'll be sav[E]in' us a little money[F#m]   
And if tha[G]t doesn't do it, yeah, I know the reason why[A]

Don't make no sense lightin' candles, ah        [D] 
[B] There's too much moonlight in your [A]eyes  [G] 

I met a   b[E]lind man[B] who tau[F#]ght me how to see[C#], yeah
[E]    Blind [B]man who could [F#]change night into day
And if-a    [E]I can[B], I'm gonna mak[F#]e you come with me,[C#] oh oh oh oh yeah

Because a-here c[E]omes the sun, ain't no surprise
Ain't no doubt about it, gonna open up my eyes

{sot}
F#-G#-B         F#-G#-E        F#-G#-C#      F#-G#-E
+---------------------------------------------------------------
+---------------------------------------------------------------
+-----4------------------------------6--------------------------
+-----4---------------2--------------6-------------2------------
+-----2---------------2--------------4-------------2------------
+-2-4-------------2-4-0----------2-4-----------2-4-0------------
REPEAT till end
{eot}


END
+++++++++++++++++++++++++++++++++++++++++++++++++++++++++++++++++++
+++++++++++++++++++++++++++++++++++++++++++++++++++++++++++++++++++
DEUCES ARE WILD
As recorded by Aerosmith

Transcribed by tonedeafidiot
	

Words and Music by Steven Tyler and Jim Vallance

G5
3 x 0 0 3 3
	
D
x x 0 2 3 2
	
C
x 3 2 0 1 0
	
G
3 2 0 0 0 3

Fadd9
x 8 5 5 6 5
	
F5
1 3 3 x 1 1
	
C5
x 3 x 0 1 x
	
Bb5
x 1 3 3 x x

Gtr I (E A D G B E) - 'Acoustic'
Gtr II (E A D G B E) - '12 String Acoustic'
Gtr III (E A D G B E) - 'Distortion '
Gtr IV (E A D G B E) - 'Clean'
Gtr V (E A D G B E) - 'Dobro'

 Intro
  Moderately Slow  Q=76
  G5
 4/4
  Gtr III
  W                                       +W
  |                                        |
  /                                        /

  Gtr I
  E.     S +S  E   S E.     S +S  E   S    E.     S +S  E   S E.     S +S  S E
|---------------------------------------|--------------------------------------|
|--------------3------------------3-----|---------------3------------------3---|
|-0------------------0------------------|--0------------------0----------------|
|--------0-(0)-----0--------0-(0)-----0-|---------0-(0)-----0--------0-(0)---0-|
|---------------------------------------|--------------------------------------|
|-3----3----3----3---3----3----3----3---|--3----3----3----3---3----3----3------|
| E    E    E    E   E    E    E    E      E    E    E    E   E    E    Q
|

| Gtr II
| S  S S S  S  S S S S  S S S  S  S S S    S  S S S  S  S S S S  S S S  S  S E
|-----------3----3-------------3----3---|------------3----3-------------3----3-|
|--------3-----3---3--------3-----3---3-|---------3-----3---3--------3-----3---|
|------0------------------0-------------|-------0------------------0-----------|
|----0------------------0---------------|-----0------------------0-------------|
|---------------------------------------|--------------------------------------|
|-3------------------3------------------|--3------------------3----------------|


          S  S S S  S  S   S  S   S  S S  S  S  S S S
|-----------------------------------------------------|
|----------------3-(3)--------------------3-(3)-------|
|--------------0-----------0-----------0----------0---|
|------------0---------0------0--(0)-0----------0---0-|
|-----------------------------------------------------|
|---------3---------3-------------3----------3--------|
|
|         S  S S S  S  S   S  S   S  S S  S  S  S S S
|-------------------3------3-----------------3----3---|
|----------------3-----3------3-----------3-----3---3-|
|--------------0-----------------------0--------------|
|------------0-----------------------0----------------|
|-----------------------------------------------------|
|---------3-----------------------3-------------------|
|
| Gtr IV
|  a     +Q.              +E     +E    Q.
|-----------------------------------------------------|
|-10b12-(10)-------------(10)r==(10)------------------|
|-----------------------------------------------------|
|-----------------------------------------------------|
|-----------------------------------------------------|
|-----------------------------------------------------|


   S    S   S    S    S  S  S  S  S  S S S  S  S S S
|-----------------------------------------------------|
|----------------3---(3)-----------------3-(3)--------|
|-----------0---------------0----------0---------0----|
|-------0----------------0-----0-(0)-0---------0---0--|
|-----------------------------------------------------|
|--3------------------3-----------3---------3---------|
|
|  S    S   S    S    S  S  S  S  S  S S S  S  S E
|---------------------3-----3---------------3----3----|
|----------------3-------3-----3---------3-----3------|
|-----------0--------------------------0--------------|
|-------0----------------------------0----------------|
|-----------------------------------------------------|
|--3------------------------------3-------------------|
|
|                ~~~~~~~~~~~~~~
|  E       +S   +S   +E     Q.              Q
|-----------------------------------------------------|
|-12b14---(12)r(12)-(12)------------------------------|
|--------------------------12-------------------------|
|-----------------------------------------------------|
|-----------------------------------------------------|
|-----------------------------------------------------|


  S S S S  S  S S S S S S S  S  S S S
|-------------------------------------|
|-------0-(0)-------------3-(3)-------|
|-----0---------0-------0---------0---|
|---0---------0---0---0---------0---0-|
|-3--------3--------3--------3--------|
|-------------------------------------|
|
| S S S S  S  S S S S S S S  S  S E





|----------3----3------------3----3---|
|-------3-----3---3-------3-----3-----|
|-----0-----------------0-------------|
|---0-----------------0---------------|
|-------------------------------------|
|-3-----------------3-----------------|
|
| W
|-------------------------------------|
|-------------------------------------|
|-------------------------------------|
|-------------------------------------|
|-------------------------------------|
|-------------------------------------|


   S S  S  S   S  S  S  S  S  S S S  S S S S
|--------------------------------------------||
|----------3--(3)-----------------3-(3)------||
|-------0------------0----------0--------0---||
|----2------------2-----2-(2)-2--------2---2-||
|--------------------------------------------||
|--0-----------0-----------0---------0-------||
|
|  S S  S  S   S  S  S  S  S  S S S  S S E
|--------------------------------------------||
|--------------------------------------------||
|----0---------0-----0--------0------0---0---||
|-------2---------2-----2-------2------2-----||
|----------5----------------------5----------||
|--0-----------------------0-----------------||
|
|              ~~~~~~~~~
|  E    S  S  +E     Q.              S S E
|--------------------------------------------||
|-12s==13s12-(12)----------------------------||
|-------------------12---------------7s9s7---||
|--------------------------------------------||
|--------------------------------------------||
|--------------------------------------------||


   Verse
    G5
    Gtr III
    W
    |
    /

    S S S S  S  S S S  S  S S S  S  S S S
||----------------------------------------|
||o-------3-(3)---------------3-(3)-------|
||------0---------0---------0---------0---|
||----0---------0---0-(0)-0---------0---0-|
||o---------------------------------------|
||--3--------3---------3---------3--------|
|
|   S S S S  S  S S S  S  S S S  S  S S S
||-----------3----3--------------3----3---|
||o-------3-----3---3---------3-----3---3-|
||------0-------------------0-------------|
||----0-------------------0---------------|
||o---------------------------------------|
||--3------------------3------------------|


  +W
   |
   /

   S S S S  S  S S S  S  S S S  S  S S S





|-----------------------------------------|
|--------3-(3)---------------3-(3)--------|
|------0---------0---------0---------0----|
|----0---------0---0-(0)-0---------0---0--|
|-----------------------------------------|
|--3--------3---------3---------3---------|
|
|  S S S S  S  S S S  S  S S S  S  S E
|-----------3----3--------------3----3----|
|--------3-----3---3---------3-----3------|
|------0-------------------0--------------|
|----0-------------------0----------------|
|-----------------------------------------|
|--3------------------3-------------------|


  S S S S  S  S S S S S S S  S  S S S
|-------------------------------------|
|-------0-(0)-------------3-(3)-------|
|-----0---------0-------0---------0---|
|---0---------0---0---0---------0---0-|
|-3--------3--------3--------3--------|
|-------------------------------------|
|
| S S S S  S  S S S S S S S  S  S E
|----------3----3------------3----3---|
|-------3-----3---3-------3-----3-----|
|-----0-----------------0-------------|
|---0-----------------0---------------|
|-------------------------------------|
|-3-----------------3-----------------|
|
| Gtr IV
| W
|-------------------------------------|
|-------------------------------------|
|-------------------------------------|
|-------------------------------------|
|-------------------------------------|
|-------------------------------------|


   S S  S  S   S  S  S  S  S  S S S  S S S S
|--------------------------------------------|
|----------3--(3)-----------------3-(3)------|
|-------0------------0----------0--------0---|
|----2------------2-----2-(2)-2--------2---2-|
|--------------------------------------------|
|--0-----------0-----------0---------0-------|
|
|  S S  S  S   S  S  S  S  S  S S S  S S E
|--------------------------------------------|
|--------------------------------------------|
|----0---------0-----0--------0------0---0---|
|-------2---------2-----2-------2------2-----|
|----------5----------------------5----------|
|--0-----------------------0-----------------|
|
|              ~~~~~~~~~
|  E    S  S  +E     Q.              S S E
|--------------------------------------------|
|-12s==13s12-(12)----------------------------|
|-------------------12---------------7s9s7---|
|--------------------------------------------|
|--------------------------------------------|
|--------------------------------------------|


  G5
  Gtr III
  W
  |
  /

  S S S S  S  S S S  S  S S S  S  S S S

|---------------------------------------|
|-------3-(3)---------------3-(3)-------|
|-----0---------0---------0---------0---|
|---0---------0---0-(0)-0---------0---0-|
|---------------------------------------|
|-3--------3---------3---------3--------|
|
| S S S S  S  S S S  S  S S S  S  S S S
|----------3----3--------------3----3---|
|-------3-----3---3---------3-----3---3-|
|-----0-------------------0-------------|
|---0-------------------0---------------|
|---------------------------------------|
|-3------------------3------------------|
|
| W
|---------------------------------------|
|---------------------------------------|
|---------------------------------------|
|---------------------------------------|
|---------------------------------------|
|---------------------------------------|


  +W
   |
   /

   S    S   S    S    S  S  S  S  S  S S S  S  S S S
|----------------------------------------------------|
|----------------3---(3)-----------------3-(3)-------|
|-----------0---------------0----------0---------0---|
|-------0----------------0-----0-(0)-0---------0---0-|
|----------------------------------------------------|
|--3------------------3-----------3---------3--------|
|
|  S    S   S    S    S  S  S  S  S  S S S  S  S E
|---------------------3-----3---------------3----3---|
|----------------3-------3-----3---------3-----3-----|
|-----------0--------------------------0-------------|
|-------0----------------------------0---------------|
|----------------------------------------------------|
|--3------------------------------3------------------|
|
|                ~~~~~~~~~~~~~~
|  E       +S   +S   +E     Q.              Q
|----------------------------------------------------|
|-12b14---(12)r(12)-(12)-----------------------------|
|--------------------------12------------------------|
|----------------------------------------------------|
|----------------------------------------------------|
|----------------------------------------------------|


  S S S S  S  S S S S S S S  S  S S S
|-------------------------------------|
|-------0-(0)-------------3-(3)-------|
|-----0---------0-------0---------0---|
|---0---------0---0---0---------0---0-|
|-3--------3--------3--------3--------|
|-------------------------------------|
|
| S S S S  S  S S S S S S S  S  S E
|----------3----3------------3----3---|
|-------3-----3---3-------3-----3-----|
|-----0-----------------0-------------|
|---0-----------------0---------------|
|-------------------------------------|
|-3-----------------3-----------------|
|
| W





|-------------------------------------|
|-------------------------------------|
|-------------------------------------|
|-------------------------------------|
|-------------------------------------|
|-------------------------------------|


   S S  S  S   S  S  S  S  S  S S S  S S S S
|--------------------------------------------||
|----------3--(3)-----------------3-(3)------||
|-------0------------0----------0--------0---||
|----2------------2-----2-(2)-2--------2---2-||
|--------------------------------------------||
|--0-----------0-----------0---------0-------||
|
|  S S  S  S   S  S  S  S  S  S S S  S S E
|--------------------------------------------||
|--------------------------------------------||
|----0---------0-----0--------0------0---0---||
|-------2---------2-----2-------2------2-----||
|----------5----------------------5----------||
|--0-----------------------0-----------------||
|
|              ~~~~~~~~~
|  E    S  S  +E     Q.              S S E
|--------------------------------------------||
|-12s==13s12-(12)----------------------------||
|-------------------12---------------7s9s7---||
|--------------------------------------------||
|--------------------------------------------||
|--------------------------------------------||


 Pre-Chorus
  D
  Gtr III
  H.                       +E    S S
  |                         |    | |
  /                         /    x x

  S  S S S S S S S S S S S  S  S S S
|----------2----------------2--------|
|------3-----3---3-----3-------3---3-|
|----2---2-----2-----2---2-------2---|
|-0----------------0-----------------|
|------------------------------------|
|------------------------------------|
|
| Gtr V
| H.                        S  E   S
|-----------------------------10s==8-|
|-7---------------------------10s==8-|
|-7----------------------------------|
|-7----------------------------------|
|------------------------------------|
|------------------------------------|


  C                    G
  H                    Q.              E
  |                    |               |
  /                    /               /

  S S S S  S   S   S S S  S S S  S  S  S S
|----------3---------------------3---------|
|--------------3-----3--------------3----3-|
|-----0------------0--------0----------0---|
|---0---0-----------------0---0------------|
|-3----------------------------------------|
|----------------------3-------------------|
|
| Q       +S  +E.      Q        +S  E.



|-8-------(8)-(8)\-----3--------(3)-3------|
|-8-------(8)-(8)\-----3--------(3)-3/-----|
|------------------------------------------|
|------------------------------------------|
|------------------------------------------|
|------------------------------------------|


  D                                   Fadd9
  H.                       +E   E      W
  |                         |   |      |
  /                         /   /      /

  S  S S S S S S S S S S S  S S S S    S  S  S S S  S S S S S S S S S S S
|----------2----------------2-------|------------1----------------1-------|
|------3-----3---3-----3------3---3-|--------1------1---1-----1-----1---1-|
|----2---2-----2-----2---2------2---|-----0----0------0-----0---0-----0---|
|-0----------------0----------------|--3------------------3---------------|
|-----------------------------------|-------------------------------------|
|-----------------------------------|-------------------------------------|
|
| H.                        S E   S   +S  E.     H.
|-----------------------------5s==3-|-(3)-3-------------------------------|
|-7---------------------------------|-------------------------------------|
|-7---------------------------------|-------------------------------------|
|-7---------------------------------|-------------------------------------|
|-----------------------------------|-------------------------------------|
|-----------------------------------|-------------------------------------|


                                    Chorus
                                     G5    F5 C5
  +H.                       Q         Q  S  E.Q  Q
   |                        |         |  |  | |  |
   /                        x         /  x  / /  /

   S  S S S +S  S E S S S S E S S     W
|---------1-(1)-------------------||----------------|
|-------1-------1---1-------1-----||----------------|
|-----0-----------0---0---0---0---||----------------|
|--3--------------------3-------3-||----------------|
|---------------------------------||----------------|
|---------------------------------||----------------|
|
|                                             ~
|  W                                  Q  S  E.H
|---------------------------------||----------------|
|---------------------------------||-12--x-10s5-----|
|---------------------------------||-12--x-10s5-----|
|---------------------------------||-12--x-10s5-----|
|---------------------------------||----------------|
|---------------------------------||----------------|


                     1.
  Bb5    F5  G5             F5 C5      Bb5    F5      G5
                                      2/4            4/4
   Q   S  E.  Q  Q     Q  S  E.Q  Q    Q   S  E.       W          +W
   |   |  |   |  |     |  |  | |  |    |   |  |        |           |
   /   x  /   /  /     /  x  / /  /    /   x  /        /           /

  Gtr V
              ~~               ~
   E E S  E.  H        Q  S  E.H       Q   E.     S    W           E E H.
|-------------------|----------------|--------------|-----------|-------------||
|----3-x-10--12-----|-12--x-10s5-----|-3--10-----10s|=12--------|-12---------o||
|-/3-3-x-10--12-----|-12--x-10s5-----|-3--10-----10s|=12--------|-12----------||
|-/3---x-10--12-----|-12--x-10s5-----|-3--10-----10s|=12--------|-12----------||
|-------------------|----------------|--------------|-----------|------------o||
|-------------------|----------------|--------------|-----------|-------------||


  2.
        F5 C5      Bb5    F5  G5
   Q  S  E.Q  Q     Q   S  E.  H       W               W

   |  |  | |  |     |   |  |   |
   /  x  / /  /     /   x  /   /

           ~                   ~~              ~                  ~~
   Q  S  E.H        E E S  E.  H       Q  S  E.H       E E S  E.  H
|----------------|------------------|---------------|------------------|
|-12--x-10s5-----|----3-x-10--12----|-12--x-10s5----|----3-x-10--12----|
|-12--x-10s5-----|-/3-3-x-10--12----|-12--x-10s5----|-/3-3-x-10--12----|
|-12--x-10s5-----|-/3---x-10--12----|-12--x-10s5----|-/3---x-10--12----|
|----------------|------------------|---------------|------------------|
|----------------|------------------|---------------|------------------|


                  Bb5    F5        G5
                 2/4              4/4
   W              Q   S  E.         W
                  |   |  |          |
                  /   x  /          /

           ~
   Q  S  E.H      Q   E.     +S     W
|---------------|----------------|-------||
|-12--x-10s5----|-3--10-----(10)s|=12----||
|-12--x-10s5----|-3--10-----(10)s|=12----||
|-12--x-10s5----|-3--10-----(10)s|=12----||
|---------------|----------------|-------||
|---------------|----------------|-------||


 Interlude
  Bb5                         C5                   Bb5
  W                           W                    W
  |                           |                    |
  /                           /                    /

  Gtr IV
  Q  S E.  E  S S  E  E       H     E. S +E  S S   S S S S S S E +Q   Q
|------0---1--0----6--5-----|-------3----------3-|-3-----3-----3-(3)-----|
|---------------6-----------|----------6-(6)-5---|---6-----6-------------|
|---------------------------|--------------------|-----3-----3-----------|
|---------------------------|--------------------|-----------------------|
|---------------------------|--------------------|-----------------------|
|---------------------------|--------------------|-----------------------|
|
| Gtr V
| H       +Q      +E.   +S    H.          Q        W
|---------------------------|--------------------|-----------------------|
|---------------------------|--------------------|-----------------------|
|-3-------(3)-----(3)---(3)s|=5------------------|-3---------------------|
|-3-------(3)-----(3)---(3)s|=5------------------|-----------------------|
|---------------------------|--------------------|-----------------------|
|---------------------------|--------------------|-----------------------|


  C5               Bb5                 C5
  W                W                   W
  |                |                   |
  /                /                   /

  W                H     S S S S +Q    W
|----------------|---------0---------|------------------||
|----------------|-------6-----------|------------------||
|----------------|-----------7-------|------------------||
|----------------|-------------8-(8)-|------------------||
|----------------|-------------------|------------------||
|----------------|-------------------|------------------||
|
| E. S Q.   E Q    H.             Q    H    E E S S S S
|----------------|-------------------|------------------||
|----------------|-------------------|------------------||
|-5---------5-5s=|=3--------------3s=|=5----7-7-7s5-3s5-||
|----------------|-------------------|------------------||
|----------------|-------------------|------------------||
|----------------|-------------------|------------------||


   Out-Chorus
                                                         1.,2.
    G5    F5 C5      Bb5    F5  G5       G5    F5 C5      Bb5    F5  G5
     Q  S  E.Q  Q     Q   S  E.  Q  Q     Q  S  E.Q  Q     Q   S  E.  Q  Q
     |  |  | |  |     |   |  |   |  |     |  |  | |  |     |   |  |   |  |
     /  x  / /  /     /   x  /   /  /     /  x  / /  /     /   x  /   /  /

             ~                   ~~               ~                   ~~
     Q  S  E.H        E E S  E.  H        Q  S  E.H        E E S  E.  H
||-----------------|-------------------|----------------|---------------------||
||o-12--x-10s5-----|----3-x-10--12-----|-12--x-10s5-----|----3-x-10--12------o||
||--12--x-10s5-----|-/3-3-x-10--12-----|-12--x-10s5-----|-/3-3-x-10--12-------||
||--12--x-10s5-----|-/3---x-10--12-----|-12--x-10s5-----|-/3---x-10--12-------||
||o----------------|-------------------|----------------|--------------------o||
||-----------------|-------------------|----------------|---------------------||


  3.
  Bb5    F5  G5
   Q   S  E.  Q       Q
   |   |  |   |       |
   /   x  /   /       /

  Gtr I
   H          E.   S +S  E   S
|------------------------------|
|------------------------3-----|
|-------------3--------------0-|
|------------------0-(0)-------|
|------------------------------|
|-------------3--3----3----3---|
|  H          E  E    E    E
|
| Gtr V
|  E E S  E.  H
|------------------------------|
|----3-x-10--12----------------|
|-/3-3-x-10--12----------------|
|-/3---x-10--12----------------|
|------------------------------|
|------------------------------|


   +W                                    +W
    |                                     |
    /                                     /

    E.   S +S  E   S E.   S +S  E   S     W
|------------------3----------------3-|---------*|
|---3----------3-----3----------3-----|---3-----*|
|-------------------------------------|---0-----*|
|--------0-(0)------------0-(0)-------|---------*|
|-------------------------------------|---------*|
|---3--3----3----3---3--3----3----3---|---3-----*|
|   E  E    E    E   E  E    E    E
|
|  +W                                    +W
|-------------------------------------|---------*|
|-(12)--------------------------------|-(12)----*|
|-(12)--------------------------------|-(12)----*|
|-(12)--------------------------------|-(12)----*|
|-------------------------------------|---------*|
|-------------------------------------|---------*|



Duration Legend
---------------
W - whole; H - half; Q - quarter; E - 8th; S - 16th; T - 32nd; X - 64th; a - acciaccatura
+ - note tied to previous; . - note dotted; .. - note double dotted
Uncapitalized letters represent notes that are staccato (1/2 duration)
Irregular groupings are notated above the duration line
Duration letters will always appear directly above the note/fret number it represents the
duration for.  Duration letters with no fret number below them represent rests.  Multi-
bar rests are notated in the form Wxn, where n is the number of bars to rest for.  Low
melody durations appear below the staff

Tablature Legend
----------------
 h   - hammer-on
 p   - pull-off
 b   - bend
 pb  - pre-bend
 r   - bend release (if no number after the r, then release immediately)
 /\  - slide into or out of (from/to "nowhere")
 s   - legato slide
 S   - shift slide
 - natural harmonic
[n]  - artificial harmonic
n(n) - tapped harmonic
 ~   - vibrato
 tr  - trill
 T   - tap
 TP  - trem. picking
 PM  - palm muting
\n/  - tremolo bar dip; n = amount to dip
 \n  - tremolo bar down
 n/  - tremolo bar up
/n\  - tremolo bar inverted dip
 =   - hold bend; also acts as connecting device for hammers/pulls
 <> - volume swell (louder/softer)
 x   - on rhythm slash represents muted slash
 o   - on rhythm slash represents single note slash

Misc Legend
-----------
 |  - bar
||  - double bar
||o - repeat start
o|| - repeat end
*|  - double bar (ending)
 :  - bar (freetime)
 $  - Segno
 &  - Coda
Tempo markers -  = BPM(8/16=s8/s16), where s8 = swing 8ths, s16 = swing 16ths



END
+++++++++++++++++++++++++++++++++++++++++++++++++++++++++++++++++++++++++
+++++++++++++++++++++++++++++++++++++++++++++++++++++++++++++++++++++++++
THE OTHER SIDE
As recorded by Aerosmith
(From the 1989 Album PUMP)

Transcribed by tonedeafidiot
	

Words and Music by Steven Tyler, Jim Vallance and Holland-Dozier-Holland

Gtr I (E A D G B E) - 'Distortion'
Gtr II (E A D G B E) - 'Clean Solo'
Gtr III (E A D G B E) - 'Lead Vocals '
Gtr IV (E A D G B E) - 'Backing Vocals '

 Intro
  Moderate Rock Q=124
 4/4
  Gtr I
  a E E Q  E E Q    E E E E +Q    E E
|-----------------|-------------------|
|-----------------|-------------------|
|-----9----7-9----|-9---7-9-(9)\------|
|-----9----7-9----|-9---7-9-(9)\----9-|
|----------7-9----|-7---7-7-(7)\----7-|
|-5s7-------------|-------------------|


  +E  E Q  Q  Q    a   +E  Q  a   +E  Q  E E
|----------------|-----------------------------|
|----------------|-----------------------------|
|-----9-7--5--5--|-----------------------------|
|-(9)-9-7--5--5--|---------2----------2--------|
|-(7)---5--3--3--|---------0----------0--------|
|----------------|-3b4-(3)----3b4-(3)----2p0---|


  Q  E E E E Q    E E E E +Q    E E   +E  E E E Q  Q     E  Q  E Q   E     E
|---------------|-------------------|-----------------|----------------------||
|---------------|-------------------|-----------------|----------------------||
|----9---7-9----|-9---7-9-(9)\------|-----------------|----------------------||
|----9---7-9----|-9---7-9-(9)\----9-|-(9)-9-7---5--5--|-----2----2---------2-||
|----7---7-7----|-7---7-7-(7)\----7-|-(7)-7-5---3--3--|-----0----0---------0-||
|---------------|-------------------|-----------------|--3-----3-----3b3.5---||
|
| Gtr III
| W               W                    W                +H       E E E     E
|---------------|-------------------|-----------------|----------------------||
|---------------|-------------------|--5--------------|-(5)--------3-5p====3-||
|---------------|-------------------|--4--------------|-(4)------------------||
|---------------|-------------------|-----------------|----------------------||
|---------------|-------------------|-----------------|----------------------||
|---------------|-------------------|-----------------|----------------------||


 Chorus
  Q    E E E  E Q        E   E  E  E +Q     E E


|--------------------|--------------------------|
|--------------------|--------------------------|
|------9---7--9------|---9------7--9-(9)\-------|
|------9---7--9------|---9------7--9-(9)\-----9-|
|------7---7--7------|---7------7--7-(7)\-----7-|
|--------------------|--------------------------|
|
| E  E E E E  E E  E     Q      H           E E
|--------------------|--------------------------|
|-5--5-7-5-8-10p8-12-|--12------------------5-3-|
|-9---------------12-|-(12)-12-11--9--9---7p5-5-|
|-9---------------14-|-(14)-14-12-10-10---9p7-5-|
|--------------------|--------------------------|
|--------------------|--------------------------|
  H.            E  E    +E   E  E  E  E   E E E


  +E  E E E Q    Q       E  Q     E  Q   E     E
|---------------------|--------------------------|
|---------------------|--------------------------|
|---------------------|--------------------------|
|-(9)-9-7---5----5----|-----2--------2---------2-|
|-(7)-7-5---3----3----|-----0--------0---------0-|
|---------------------|--3--------3------3b3.5---|
|
|  E  E E E E  E E  E    Q     H         E     E
|---------------------|--------------------------|
|--5--5-7-5-8-10p8-12-|-12---------------------5-|
|--9---------------12-|-12-12-11--9--9-7-------9-|
|--9---------------14-|-14-14-12-10-10-9-------9-|
|---------------------|--------------------------|
|---------------------|--------------------------|
   H.            E  E    E  E  E  E  E Q       E


  Q    E E E  E Q        E   E  E  E +Q     E E
|--------------------|--------------------------|
|--------------------|--------------------------|
|------9---7--9------|---9------7--9-(9)\-------|
|------9---7--9------|---9------7--9-(9)\-----9-|
|------7---7--7------|---7------7--7-(7)\-----7-|
|--------------------|--------------------------|
|
| E  E E E E  E E  E     Q      H           Q
|--------------------|--------------------------|
|-5--5-7-5-8-10p8-12-|--12------------------5---|
|-9---------------12-|-(12)-12-11--9--9---7p5-5-|
|-9---------------14-|-(14)-14-12-10-10---9p7-5-|
|--------------------|--------------------------|
|--------------------|--------------------------|
  H.            E  E    +E   E  E  E  E   E E E


  +E  E E E Q    Q        E   Q     E  Q   E     E
|---------------------|----------------------------||
|---------------------|----------------------------||
|---------------------|----------------------------||
|-(9)-9-7---5----5----|-------2--------2---------2-||
|-(7)-7-5---3----3----|-------0--------0---------0-||
|---------------------|---3---------3------3b3.5---||
|
|  E  E E E E  E E  E    +W
|---------------------|----------------------------||
|--5--5-7-5-8-10p8-12-|-(12)p======================||
|--9---------------12-|--12--12-11--9--9-7-------9-||
|--9---------------14-|--14--14-12-10-11-9-------9-||
|---------------------|----------------------------||
|---------------------|----------------------------||
   H.            E  E     E   E  E  E  E Q       E


 Verse
   PM-------|                                     PM-------------------|
   e  e e e e  E  E E     E  E E  E  E  E Q       e  e e e  e  e   e   e


|---------------------|------------------------|--------------------------|
|---------------------|------------------------|--------------------------|
|-------------------7-|-----------7-------7\---|--------------------------|
|--7--7-9-7-7-------7-|------7----7--7----7\---|--------------------------|
|--5--5-5-5-5--8--9---|------8-9-----8--9------|--5--5-7-5--5--5---7---5--|
|---------------------|------------------------|--3--3-3-3--3--3---3---3--|
|
|                                                           |---3----|
|  Q.     E E  E  E E     Q    E  E  E  E E  E   +H        +Q    Q   Q
|---------------------|------------------------|--------------------------|
|-10--------7-10-10-7-|--10----7-10h12-10-8--8-|-(8)-------(8)------------|
|---------7-----------|------------------------|-----------------9---7----|
|-12------------------|-(12)-------------------|-12-----------------------|
|-12------------------|-(12)-------------------|-14-----------------------|
|---------------------|------------------------|--------------------------|
   W                     +W                       H.               Q


  PM--------------------------|
  e e e e e e  e e   e  e e e e  E  E E
|------------------|--------------------|
|------------------|--------------------|
|------------------|------------------7-|
|-5-5-7-5-5-5--7-5s|=7--7-9-7-7-------7-|
|-3-3-3-3-3-3--3-3s|=5--5-5-5-5--8--9---|
|------------------|--------------------|
|
| E E E E Q    Q     Q.     E E  E  E E
|------------------|--------------------|
|-8-5-8-5-8---10---|----------7-10-10-7-|
|------------------|--------7-----------|
|------------------|--------------------|
|------------------|--------------------|
|------------------|--------------------|


                              PM--------------|
   E E E     E   E   E E E    e  e e e  e e e e
|--------------------------|--------------------|
|--------------------------|--------------------|
|------------7-----------7-|--------------------|
|----7-------7-----------7-|--------------------|
|----8-9-------------8-9---|--5--5-7-5--5-5-7-5-|
|--------------------------|--3--3-3-3--3-3-3-3-|
|
|  Q   E  a  E  +E   Q   E   +H         Q   Q
|--------------------------|--------------------|
|-10---7-10h12-(12)-10---8-|-(8)h======12p==5---|
|--------------------------|--------------------|
|--------------------------|--------------------|
|--------------------------|--------------------|
|--------------------------|--------------------|


  PM---------------------------|
  e e e e e e e s s   e  e e e e  E  S S E    E E E     E   E     E Q
|-------------------|----------------------|-----------------------------|
|-------------------|----------------------|-----------------------------|
|-------------------|--------------------7-|------------7-----------7\---|
|-5-5-7-5-5-5-7-5-5s|=7--7-9-7-7---------7-|----7-------7-----------7\---|
|-3-3-3-3-3-3-3-3-3s|=5--5-5-5-5--8--8h9---|----8-9---------8-----9------|
|-------------------|----------------------|-----------------------------|
|
| H       E E Q       Q.     E E  E  E   E    Q   E  a  E  +E   a Q    E
|-----------x-x-----|----------------------|-----------------------------|
|-------------------|----------7-10-10---7-|-10---7-10h12-(12)-10p8----8-|
|-------------------|--------7-------------|-----------------------------|
|-------------------|----------------------|-----------------------------|
|-------------------|----------------------|-----------------------------|
|-------------------|----------------------|-----------------------------|


   PM--------------------------------------------------|
   e  e  e    e   e  e e e   e e e e e e e e   e e e e e E E E


|--------------------------|-----------------|------------------|
|--------------------------|-----------------|------------------|
|--------------------------|-----------------|---------------7--|
|--------------------------|-5-5-7-5-5-5-7-5s|=7-7-9-7-7-----7--|
|--5--5--7----5---5--5-7-5-|-3-3-3-3-3-3-3-3s|=5-5-5-5-5-8-9----|
|--3--3--3----3---3--3-3-3-|-----------------|------------------|
|
|        |--3---|
| +Q    +E  E   E Q.     E   E E E E Q   E E   E Q   E E Q   E
|--------------------------|-------------5---|-2-5-----2-5------|
|-(8)---(8)p5p==3--------5-|-8-8-8-5-8-----3-|-------3-------3--|
|--------------------------|-----------------|------------------|
|--------------------------|-----------------|------------------|
|--------------------------|-----------------|------------------|
|--------------------------|-----------------|------------------|


  E E E E E E Q      E E E E E E E E   E E E E e     E e E
|------------------|-----------------|---------------------||
|------------------|-----------------|---------------------||
|-------7-----7\---|-----------------|---5-5-5-5-------5---||
|---7---7-----7\---|-----------------|---5-5-5-5-------5---||
|---8-9---8-9------|-5-5-7-5-5-5-7-5-|---3-3-3-3-------3---||
|------------------|-3-3-3-3-3-3-3-3-|---------------------||
|
| E E E E Q   E  E   E E E E E E E E   E E E E Q       Q
|---5-5---5--------|-6-6-6-6-6-6-6-6-|-6-6-6-6-------------||
|-7-----7--------8-|-----------------|---------5b5.5-------||
|------------------|-----------------|---------------------||
|------------------|-----------------|---------------------||
|------------------|-----------------|---------------------||
|------------------|-----------------|---------------------||


 Chorus
  Q    E E E  E Q        E   E  E  E +Q     E E
|--------------------|--------------------------|
|--------------------|--------------------------|
|------9---7--9------|---9------7--9-(9)\-------|
|------9---7--9------|---9------7--9-(9)\-----9-|
|------7---7--7------|---7------7--7-(7)\-----7-|
|--------------------|--------------------------|
|
| E  E E E E  E E  E    +Q      H           E E
|-------------5p3--7-|--(7)---------------------|
|-5--5-7-5-8---------|----------------------5---|
|--------------------|------------------------7-|
|--------------------|--------------------------|
|--------------------|--------------------------|
|--------------------|--------------------------|
|
| Gtr IV
| E  E E E E  E E  E     Q      H           E E
|--------------------|--------------------------|
|-5--5-7-5-8-10p8-12-|--12------------------5-3-|
|-9---------------12-|-(12)-12-11--9--9---7p5-5-|
|-9---------------14-|-(14)-14-12-10-10---9p7-5-|
|--------------------|--------------------------|
|--------------------|--------------------------|
  H.            E  E    +E   E  E  E  E   E E E


  +E  E E E Q    Q       E   Q     E  Q   E     E
|---------------------|---------------------------|
|---------------------|---------------------------|
|---------------------|---------------------------|
|-(9)-9-7---5----5----|------2--------2---------2-|
|-(7)-7-5---3----3----|------0--------0---------0-|
|---------------------|--3---------3------3b3.5---|
|
|  E  E E E E  E E  E   +Q      H         E     E





|--------------5p3--7-|-(7)-----------------------|
|--5--5-7-5-8---------|-------------------------5-|
|---------------------|---------------------------|
|---------------------|---------------------------|
|---------------------|---------------------------|
|---------------------|---------------------------|
|
|  E  E E E E  E E  E    Q      H         E     E
|---------------------|---------------------------|
|--5--5-7-5-8-10p8-12-|-12----------------------5-|
|--9---------------12-|-12--12-11--9--9-7-------9-|
|--9---------------14-|-14--14-12-10-10-9-------9-|
|---------------------|---------------------------|
|---------------------|---------------------------|
   H.            E  E    E   E  E  E  E Q       E


   Q    E E E  E Q        E   E  E  E +Q     E E
|---------------------|--------------------------|
|---------------------|--------------------------|
|-------9---7--9------|---9------7--9-(9)\-------|
|-------9---7--9------|---9------7--9-(9)\-----9-|
|-------7---7--7------|---7------7--7-(7)\-----7-|
|---------------------|--------------------------|
|
| +E  E E E E  Q    E    +H            E   E E E
|--------------5----7-|--(7)---------------------|
|-(5)-5-7-5-8---------|--------------------3-5-3-|
|---------------------|--------------------------|
|---------------------|--------------------------|
|---------------------|--------------------------|
|---------------------|--------------------------|
|
|  E  E E E E  E E  E     Q      H           Q
|---------------------|--------------------------|
|--5--5-7-5-8-10p8-12-|--12------------------5---|
|-(9)--------------12-|-(12)-12-11--9--9---7p5-5-|
|-(9)--------------14-|-(14)-14-12-10-10---9p7-5-|
|---------------------|--------------------------|
|---------------------|--------------------------|
  +H.            E  E    +E   E  E  E  E   E E E


  +E  E E E Q    Q        E   Q     E  Q   E     E
|---------------------|----------------------------||
|---------------------|----------------------------||
|---------------------|----------------------------||
|-(9)-9-7---5----5----|-------2--------2---------2-||
|-(7)-7-5---3----3----|-------0--------0---------0-||
|---------------------|---3---------3------3b3.5---||
|
|  E  E E E E  Q    E    +W
|--------------5----7-|--(7)p======================||
|--5--5-7-5-8---------|----------------------------||
|---------------------|----------------------------||
|---------------------|----------------------------||
|---------------------|----------------------------||
|---------------------|----------------------------||
|
|  E  E E E E  E E  E    +W
|---------------------|----------------------------||
|--5--5-7-5-8-10p8-12-|-(12)p======================||
|--9---------------12-|--12--12-11--9--9-7-------9-||
|--9---------------14-|--14--14-12-10-11-9-------9-||
|---------------------|----------------------------||
|---------------------|----------------------------||
   H.            E  E     E   E  E  E  E Q       E


 Verse
   PM-------------------------------------------
   e  e e e e  e  e e     e  e e  e  e   e e e




|---------------------|------------------------|
|---------------------|------------------------|
|---------------------|------------------------|
|--7--7-7-7-7--7--7-7-|---7--7-7--7--7---7-7-7-|
|--5--5-5-5-5--5--5-5-|---5--5-5--5--5---5-5-5-|
|---------------------|------------------------|
|
|  Q    E E E  E  E E     Q    E  E +E   Q   E
|--5-----------5--5---|---5-------5-(5)--5-----|
|-----------7-------7-|--------7-------------8-|
|---------7-----------|------------------------|
|---------------------|------------------------|
|---------------------|------------------------|
|---------------------|------------------------|
|
|  Q.     E E  E  E E     Q    E  E  E   E E E
|---------------------|------------------------|
|-10--------7-10-10-7-|--10----7-10h12--10-8-8-|
|---------7-----------|------------------------|
|-12------------------|-(12)-------------------|
|-12------------------|-(12)-------------------|
|---------------------|------------------------|
   W                     +W


 -------------------------------------------|
   e  e  e    e   e  e e e    e e e e e e e e
|--------------------------|--------------------|
|--------------------------|--------------------|
|--------------------------|--------------------|
|--------------------------|--5-5-5-5-5-5-5-5---|
|--5--5--5----5---5--5-5-5-|--3-3-3-3-3-3-3-3---|
|--3--3--3----3---3--3-3-3-|--------------------|
|
|        |--3---|
| +Q    +E  E   E Q.     E    E E E E Q   Q
|--------------------------|--3---3---3---5-----|
|-(8)---(8)p5p==3--------5-|----5---5-----------|
|--7-----------------------|--9-----------------|
|--9-----------------------|-10-----------------|
|--------------------------|--------------------|
|--------------------------|--------------------|
|  W                          W
|
|  W                          W
|--------------------------|--------------------|
|--------------------------|--------------------|
|--------------------------|--------------------|
|--------------------------|--------------------|
|--------------------------|--------------------|
|--------------------------|--------------------|


                                                      PM-
  E  E E E E E E E    E E E     E a      +E     +E  E e
|------------------|------------------------------------|
|------------------|------------------------------------|
|----------------7-|------------7-9b10===(9)r===(9)-7---|
|-7--7-9-7-7-----7-|----7-------7-9b10===(9)r===(9)-7---|
|-5--5-5-5-5-8-9---|----8-9-----------------------------|
|------------------|----------------------------------0-|
|
| Q.     E E E E E    Q   E  a  E        +E   a  Q    E
|------------5-5---|------------------------------------|
|----------7-----7-|-10---7-10h12-------(12)-10p=8----8-|
|--------7---------|------------------------------------|
|------------------|------------------------------------|
|------------------|------------------------------------|
|------------------|------------------------------------|


 -----------------------|
   e  e  e    e   e e e e



|-------------------------|
|-------------------------|
|-------------------------|
|-------------------------|
|--5--5--7----5---5-5-7-5-|
|--3--3--3----3---3-3-3-3-|
|
|        |--3---|
| +Q    +E  E   E E E E E
|-------------------------|
|-(8)---(8)p5p==3---x---x-|
|-------------------------|
|-------------------------|
|-------------------------|
|-------------------------|


  PM---------------------------|
  e e e e e e e s s   e  e e e e E S S E    E E E     E   E     E E E
|-------------------|--------------------|-----------------------------|
|-------------------|--------------------|-----------------------------|
|-------------------|------------------7-|------------7-------------7\-|
|-5-5-7-5-5-5-7-5-5s|=7--7-9-7-7-------7-|----7-------7-------------7\-|
|-3-3-3-3-3-3-3-3-3s|=5--5-5-5-5-8-8h9---|----8-9---------------8-9----|
|-------------------|--------------------|-----------------------------|
|
| E E E E E E Q       Q.     E E E E   E    Q   E  a  E  +E   a Q   E
|-------------------|------------5-5-----|-----------------------------|
|-x-x-x-x-x-x-------|----------7-------7-|-10---7-10h12-(12)-10p8---8--|
|-------------------|--------7-----------|-----------------------------|
|-------------------|--------------------|-----------------------------|
|-------------------|--------------------|-----------------------------|
|-------------------|--------------------|-----------------------------|


   PM----------------------------------------------------|
   e  e e e  e e e  e    e  e  e  e  e  e  e e   e e e e e E E E
|---------------------|------------------------|-----------------|
|---------------------|------------------------|-----------------|
|---------------------|------------------------|---------------7-|
|---------------------|--5--5--7--5--5--5--7-5s|=7-7-9-7-7-----7-|
|--5--5-7-5--5-5-7--5-|--3--3--3--3--3--3--3-3s|=5-5-5-5-5-8-9---|
|--3--3-3-3--3-3-3--3-|------------------------|-----------------|
|
| +H         Q   E  E    E  E  E  E  E  E  E E   E Q   E E Q   E
|---------------------|------------------------|---5-------5-----|
|-(8)h======12-----12-|-13-13-13-13-11p10-10---|-7-------7-------|
|---------------------|----------------------7-|-------7-------7-|
|---------------------|------------------------|-----------------|
|---------------------|------------------------|-----------------|
|---------------------|------------------------|-----------------|


                            PM----------------|
  E E E E a     +E    +E  E e   e e e e e e e e   E E E E E E Q
|-----------------------------|-----------------|------------------||
|-----------------------------|-----------------|------------------||
|-------7-9b10==(9)r==(9)-7---|-----------------|---5-5-5-5--------||
|---7---7-9b10==(9)r==(9)-7---|-----------------|---5-5-5-5---5/---||
|---8-9-----------------------|-5-5-7-5-5-5-7-5-|---3-3-3-3---3/---||
|---------------------------0-|-3-3-3-3-3-3-3-3-|------------------||
|
|                \0.25
| E E E E        Q        E E   E E E E E E E E   E E E E E Q    E
|---5-5----------5------------|-6-6-6-6-6-6-6-6-|-6-6-6-6----------||
|-7-----7-------------------8-|-----------------|---------8p3h===5-||
|-----------------------------|-----------------|------------------||
|-----------------------------|-----------------|------------------||
|-----------------------------|-----------------|------------------||
|-----------------------------|-----------------|------------------||


  Q    E E E  E Q        E   E  E  E +Q     E E



|--------------------|--------------------------|
|--------------------|--------------------------|
|------9---7--9------|---9------7--9-(9)\-------|
|------9---7--9------|---9------7--9-(9)\-----9-|
|------7---7--7------|---7------7--7-(7)\-----7-|
|--------------------|--------------------------|
|
| E  E E E E  E E  E    +Q      H           E E
|-------------5p3--7-|--(7)---------------------|
|-5--5-7-5-8---------|----------------------5---|
|--------------------|------------------------7-|
|--------------------|--------------------------|
|--------------------|--------------------------|
|--------------------|--------------------------|
|
| Gtr IV
| E  E E E E  E E  E     Q      H           E E
|--------------------|--------------------------|
|-5--5-7-5-8-10p8-12-|--12------------------5-3-|
|-9---------------12-|-(12)-12-11--9--9---7p5-5-|
|-9---------------14-|-(14)-14-12-10-10---9p7-5-|
|--------------------|--------------------------|
|--------------------|--------------------------|
  H.            E  E    +E   E  E  E  E   E E E


  +E  E E E Q    Q       E   Q     E  Q   E     E
|---------------------|---------------------------|
|---------------------|---------------------------|
|---------------------|---------------------------|
|-(9)-9-7---5----5----|------2--------2---------2-|
|-(7)-7-5---3----3----|------0--------0---------0-|
|---------------------|--3---------3------3b3.5---|
|
|  E  E E E E  E E  E   +Q      H         E     E
|--------------5p3--7-|-(7)-----------------------|
|--5--5-7-5-8---------|-------------------------5-|
|---------------------|---------------------------|
|---------------------|---------------------------|
|---------------------|---------------------------|
|---------------------|---------------------------|
|
|  E  E E E E  E E  E    Q      H         E     E
|---------------------|---------------------------|
|--5--5-7-5-8-10p8-12-|-12----------------------5-|
|--9---------------12-|-12--12-11--9--9-7-------9-|
|--9---------------14-|-14--14-12-10-10-9-------9-|
|---------------------|---------------------------|
|---------------------|---------------------------|
   H.            E  E    E   E  E  E  E Q       E


   Q    E E E  E Q        E   E  E  E +Q     E E
|---------------------|--------------------------|
|---------------------|--------------------------|
|-------9---7--9------|---9------7--9-(9)\-------|
|-------9---7--9------|---9------7--9-(9)\-----9-|
|-------7---7--7------|---7------7--7-(7)\-----7-|
|---------------------|--------------------------|
|
|  E  E E E E  E E  E    +H            E   E E E
|--------------5p3--7-|--(7)---------------------|
|--5--5-7-5-8---------|--------------------5-5---|
|---------------------|------------------------7-|
|---------------------|--------------------------|
|---------------------|--------------------------|
|---------------------|--------------------------|
|
|  E  E E E E  E E  E     Q      H           Q
|---------------------|--------------------------|
|--5--5-7-5-8-10p8-12-|--12------------------5---|
|-(9)--------------12-|-(12)-12-11--9--9---7p5-5-|
|-(9)--------------14-|-(14)-14-12-10-10---9p7-5-|
|---------------------|--------------------------|
|---------------------|--------------------------|
  +H.            E  E    +E   E  E  E  E   E E E


  +E  E E E Q    Q        E   E  E  E  E E E     E
|---------------------|----------------------------||
|---------------------|----------------------------||
|---------------------|-------2--2-----2-2-------2-||
|-(9)-9-7---5----5----|-------2--2-----2-2-------2-||
|-(7)-7-5---3----3----|-------0--0-----0-0-------0-||
|---------------------|---3---------3------3b3.5---||
|
|  E  E E Q    Q    E    +E   Q     E  H
|---------------------|----------------------------||
|--x--x---x----x----x-|--(x)--x-----x--x-----------||
|---------------------|----------------------------||
|---------------------|----------------------------||
|---------------------|----------------------------||
|---------------------|----------------------------||
|
|  E  E E E E  E E  E    +W
|---------------------|----------------------------||
|--5--5-7-5-8-10p8-12-|-(12)p======================||
|--9---------------12-|--12--12-11--9--9-7-------9-||
|--9---------------14-|--14--14-12-10-11-9-------9-||
|---------------------|----------------------------||
|---------------------|----------------------------||
   H.            E  E     E   E  E  E  E Q       E


 Guitar Solo
  Gtr II
                                                                          ~~
   E   S  S  S  S  S  S  E  E  E  S  S     S   S  S  S  E  E  a     +E    Q    S  S
|--------------------------------------|--------------------------------------------|
|--------------------------------------|------------------15------------------------|
|--------------------------------------|---------------12-14-14b16-(14)--12---------|
|-----14-14-14-14-14-14-14-------14-14-|--14--14-14-14------------------------14p12-|
|--------------------------------------|--------------------------------------------|
|--------------------------12----------|--------------------------------------------|
|
| Gtr I
|  Q         E     E     E  E  Q           E      E     E  E        +Q      E  E
|--------------------------------------|--------------------------------------------|
|--------------------------------------|--------------------------------------------|
|------------9-----------7--9----------|---9------------7--9--------(9)\------------|
|------------9-----------7--9----------|---9------------7--9--------(9)\-------9----|
|------------7-----------7--7----------|---7------------7--7--------(7)\-------7----|
|--------------------------------------|--------------------------------------------|
|
|  Q.              E     E  E  E  E        Q            E  E         E    E E  E
|--------------------------------------|--------------------------------------------|
|-10---------------------7-10-10--7----|--10------------7-10h=======12---10-8--8----|
|------------------7-------------------|--------------------------------------------|
|-12-----------------------------------|-(12)---------------------------------------|
|-12-----------------------------------|-(12)---------------------------------------|
|--------------------------------------|--------------------------------------------|
   W                                      +W


              ~~
   E     +E   Q    +E   S  a     +S   S  S  S  S
|---------------------------------------12--------|
|-15b17-(15)-15---(15)-12------------12----15p12--|
|-------------------------14b16-(14)--------------|
|-------------------------------------------------|
|-------------------------------------------------|
|-------------------------------------------------|
|
| +E      E   E E   Q                 Q
|-------------------------------------------------|
|-------------------------------------------------|
|-------------------------------------------------|
|-(9)-----9---7-----5-----------------5-----------|
|-(7)-----7---5-----3-----------------3-----------|
|-------------------------------------------------|
|

|  W
|-------------------------------------------------|
|-------------------------------------------------|
|-------------------------------------------------|
|-------------------------------------------------|
|-------------------------------------------------|
|-------------------------------------------------|


   S  S  S  S  S  S  S  S  S  S  E  E      S  S    E. S  E  E  +E   S  S  E     +E
|----12-----------------------------------------|-----------------------------------|
|----12-----------------------------------------|------------------------14b15-(14)-|
|-14----12-14p12----12--------------------------|----------12-(12)-14p12-14b15-(14)-|
|----------------14----14p12--------------------|----------12-(12)------------------|
|----------------------------14s12-10-----12p10-|-----7s14--------------------------|
|-----------------------------------------------|-12--------------------------------|
|
|  E     Q           E     Q        E      E       Q     E  E   E   E     Q
|-----------------------------------------------|-----------------------------------|
|-----------------------------------------------|-----------------------------------|
|-----------------------------------------------|--------9------7---9---------------|
|--------2-----------------2---------------2----|--------9------7---9---------------|
|--------0-----------------0---------------0----|--------7------7---7---------------|
|--3-----------------3--------------3b3.5-------|-----------------------------------|


      ~~
   E  Q    S  S  S    S  S  S  +E   S  S    a      Q     S  S  S  S  +E   a      Q     S  S
|----14----------------------------------|--------15----------------------------15----12--------|
|-12-14--------------------12-(12)-------|-14b15-(14)---12-15p12---------14b15-(14)------15S====|
|-12-14---12----14p==12----12-(12)-------|-----------------------12-(12)------------------------|
|------------14---------14---------14p12-|------------------------------------------------------|
|----------------------------------------|------------------------------------------------------|
|----------------------------------------|------------------------------------------------------|
|
|  E  E E  E    +Q              E   E             +E  E  E     E      Q             Q
|----------------------------------------|------------------------------------------------------|
|----------------------------------------|------------------------------------------------------|
|--9----7--9----(9)\---------------------|------------------------------------------------------|
|--9----7--9----(9)\----------------9----|--------(9)-9--7------------5-------------5-----------|
|--7----7--7----(7)\----------------7----|--------(7)-7--5------------3-------------3-----------|
|----------------------------------------|------------------------------------------------------|


   E  a      E   E  a      E   E  E  E      E
|-12------------12--------15--12--------------|
|-12--------12-----14b15-(14)-12-12-12--------|
|----14b16-(14)------------------12-12--------|
|------------------------------------------14-|
|---------------------------------------------|
|---------------------------------------------|
|
|  E         Q             E   Q     E      E
|---------------------------------------------|
|---------------------------------------------|
|---------------------------------------------|
|------------2-----------------2------------2-|
|------------0-----------------0------------0-|
|--3-----------------------3---------3b3.5----|


  PM--------|                         PM--------|
  s s s s s s S S +S  S S S S S S S   s s s s s s S S +S   S S S S S S S
|-------------------------------0---|--------------------------------0---|
|-------------------------------0---|--------------------------------0---|
|---------------------0h1---2h4-----|----------------------0h1---2h4-----|
|-----2-------2p0-(0)-----2---------|-----2-------2p0-(0)------2---------|
|-0-2---2-0-2-----------------------|-0-2---2-0-2------------------------|
|-----------------------------------|------------------------------------|
|
| Q       E   E    E    E   Q         E   E   E   E   +Q         E   E





|-----------------------------------|------------------------------------|
|-----------------------------------|------------------------------------|
|---------9--------7----9-----------|-9-------7---9---(9)\---------------|
|---------9--------7----9-----------|-9-------7---9---(9)\-----------9---|
|---------7--------7----7-----------|-7-------7---7---(7)\-----------7---|
|-----------------------------------|------------------------------------|


   E   E     +E   E  Q   S  S  a     +E    E  a     +Q    a     +Q     a     +Q         a     +E
|-----17b19-(17)-17-15--------19b21-(19)-|---19b21-(19)--19b21-(19)---19b21-(19)-------19b21-(19)-|
|-----------------------17p15------------|---19b21-(19)--19b21-(19)---19b21-(19)-------19b21-(19)-|
|----------------------------------------|--------------------------------------------------------|
|----------------------------------------|--------------------------------------------------------|
|----------------------------------------|--------------------------------------------------------|
|----------------------------------------|--------------------------------------------------------|
|
| +E   E      E   E  Q   Q                 E         Q           E  Q            E             E
|----------------------------------------|--------------------------------------------------------|
|----------------------------------------|--------------------------------------------------------|
|----------------------------------------|--------------------------------------------------------|
|-(9)--9------7------5---5---------------|-----------2--------------2--------------------------2--|
|-(7)--7------5------3---3---------------|-----------0--------------0--------------------------0--|
|----------------------------------------|-3---------------------3---------------3b3.5------------|


                            |3-|  |3-|
   a      +S   +S   E  Q    E  S  E  S  +E   E
|-19b21==(19)r(19)-15--------------------------|
|------------------15-17---17p15----17-(17)-17-|
|--------------------------------16-16-(16)----|
|----------------------------------------------|
|----------------------------------------------|
|----------------------------------------------|
|
|          Q           E E  E     E      Q
|----------------------------------------------|
|----------------------------------------------|
|----------------------9----7-----9------------|
|----------------------9----7-----9------------|
|----------------------7----7-----7------------|
|----------------------------------------------|


                              ~~~~
               |-3-|
   E     +E   +E   S     +E   Q     E    S  S
|------------------------------------------12-|
|-17b21-(17)-(17)-17b21-(17)-17----17\-----12-|
|--------------------------------------/12----|
|---------------------------------------------|
|---------------------------------------------|
|---------------------------------------------|
|
|  E      E    E          E  +Q     E    E
|---------------------------------------------|
|---------------------------------------------|
|--9-----------7----------9--(9)\-------------|
|--9-----------7----------9--(9)\--------9----|
|--7-----------7----------7--(7)\--------7----|
|---------------------------------------------|
|
| Gtr IV
|  W
|---------------------------------------------|
|---------------------------------------------|
|---------------------------------------------|
|---------------------------------------------|
|---------------------------------------------|
|---------------------------------------------|


   S   S  S  S  S  S  S  S  a     +S   S  S  S  S  S  S  S         E   S  S  E      E   E  E  E  S  S




|-----12-------12----12-12---------------12-12-12-12-12-12-|------12--12-15-15----15--15-15-15-15p12|
|-12--12-15p12-12-12-12-12-15b17-(15)-12-12-12-12-12-------|------12--12-14-14----14--14-14-14-14p12|
|----------------------------------------------------------|----------------------------------------|
|----------------------------------------------------------|----------------------------------------|
|----------------------------------------------------------|----------------------------------------|
|----------------------------------------------------------|----------------------------------------|
|
| +E      E     Q                  Q            Q            a    +E   Q       a   +E   Q     E  E
|----------------------------------------------------------|----------------------------------------|
|----------------------------------------------------------|----------------------------------------|
|---------9-----7------------------5------------5----------|----------------------------------------|
|-(9)-----9-----7------------------5------------5----------|-----------2----------------2-----------|
|-(7)-----------5------------------3------------3----------|-----------0----------------0-----------|
|----------------------------------------------------------|-3b4--(3)----------3b4-(3)--------2p=0--|
|
|  E      E     E     E            E      E     E     E           +W
|----------------------------------------------------------|----------------------------------------|
|--5------5-----7-----5------------8-----10p====8----12----|-----(12)p==============================|
|--9-------------------------------------------------12----|------12--12----11------9---9--7-----9--|
|--9-------------------------------------------------14----|------14--14----12-----10--11--9-----9--|
|----------------------------------------------------------|----------------------------------------|
|----------------------------------------------------------|----------------------------------------|
   H.                                           E     E            E   E     E      E   E  Q     E


 Verse
  Gtr I
   PM-------|
   e  e e e e  E  E E     E  E E  E   E   E Q
|---------------------|--------------------------|
|---------------------|--------------------------|
|-------------------7-|-----------7---------7\---|
|--7--7-9-7-7-------7-|------7----7---------7\---|
|--5--5-5-5-5--8--9---|------8-9------8---9------|
|---------------------|--------------------------|
|
| Gtr III
|  Q.     E E  E  E E     Q    E  E  +E   E E  E
|--------------5--5---|---5----------------------|
|-----------7-------7-|--------7-10-(10)-10p8--8-|
|---------7-----------|--------------------------|
|---------------------|--------------------------|
|---------------------|--------------------------|
|---------------------|--------------------------|
|
|  Q.     E E  E  E E     Q    E  E   E   E E  E
|---------------------|--------------------------|
|-10--------7-10-10-7-|--10----7-10h=12--10-8--8-|
|---------7-----------|--------------------------|
|-12------------------|-(12)---------------------|
|-12------------------|-(12)---------------------|
|---------------------|--------------------------|
   W                     +W


   PM-------------------------------------|
   e  e e e  e    e   e e   e e e e e e e e
|-------------------------|-------------------|
|-------------------------|-------------------|
|-------------------------|-------------------|
|-------------------------|-5-5-7-5-5-5-7-5---|
|--5--5-7-5--5----5---7-5-|-3-3-3-3-3-3-3-3---|
|--3--3-3-3--3----3---3-3-|-------------------|
|
|            |--3---|
| +H        +E  E   E E E   E E E E Q   Q
|-------------------------|-3---3---3---5-----|
|-(8)-------(8)p5p==3---5-|---5---5-----------|
|--4----------------------|-5-----------------|
|-------------------------|-------------------|
|-------------------------|-------------------|
|-------------------------|-------------------|
|  W                        W
|
|  W                        W

|-------------------------|-------------------|
|-------------------------|-------------------|
|-------------------------|-------------------|
|-------------------------|-------------------|
|-------------------------|-------------------|
|-------------------------|-------------------|


  PM------------------------------------------------------------------|
  e  e e e e e e e    e  e e   e  e     e e e    e  e e e  e    e   e e
|------------------|--------------------------|-------------------------|
|------------------|--------------------------|-------------------------|
|------------------|--------------------------|-------------------------|
|-7--7-9-7-7-7-7-7-|--7--7-9---7--7-----7-7---|-----------------------5-|
|-5--5-5-5-5-5-5-5-|--5--5-5---5--5-----5-5---|--5--5-5-5--5----5---5-3-|
|------------------|------------------------0-|--3--3-3-3--3----3---3---|
|
|                                                          |--3---|
| Q.     E E E E E    Q    E a E +E   a Q   E   +H        +E  E   E E E
|------------5-5---|--5------5h7-(7)----------|-------------------------|
|----------7-----7-|-------7---------10p8---8-|-(8)-------(8)p5p==3---x-|
|--------7---------|--------------------------|--4----------------------|
|-7----------------|-(7)----------------------|-------------------------|
|------------------|--------------------------|-------------------------|
|------------------|--------------------------|-------------------------|
  W                  +W                          W


  PM--------------------------|
  e e e e e e e e    e  e e e e E E E   E E E   E  E   E E E
|-----------------|-------------------|----------------------|
|-----------------|-------------------|----------------------|
|-----------------|-----------------7-|---------7----------7-|
|-5-5-5-5-5-5-5-5-|--7--7-9-7-7-----7-|---7-----7----------7-|
|-3-3-3-3-3-3-3-3-|--5--5-5-5-5-8-9---|---8-8----------8-9---|
|-----------------|-------------------|----------------------|
|
| E E E E E E Q      Q.     E E E E E   Q   E a E +E   E E E
|-----------------|-------------5-5---|-5-----5s7-(7)--------|
|-x-x-x-x-x-x-----|-----------7-----7-|-----7---------10p8-8-|
|-5---------------|---------7---------|----------------------|
|-----------------|-12----------------|----------------------|
|-----------------|-------------------|----------------------|
|-----------------|-------------------|----------------------|
  W                  W


   PM---------------------------------------------------|
   e  e e e  e    e   e e   e e e e e e e s s   e e e e e E E E
|-------------------------|-------------------|-----------------|
|-------------------------|-------------------|-----------------|
|-------------------------|-------------------|---------------7-|
|-------------------------|-5-5-7-5-5-5-7-5-5-|-7-7-9-7-7-----7-|
|--5--5-7-5--5----5---7-5-|-3-3-3-3-3-3-3-3-3-|-5-5-5-5-5-8-9---|
|--3--3-3-3--3----3---3-3-|-------------------|-----------------|
|
|            |--3---|
| +H        +E  E   E E E   E E E E E E E E     E Q   E E Q   E
|-------------------------|-8-8-8-8-6p5-5-----|---5-----2-5-----|
|-(8)-------(8)p5p==3---8-|---------------3---|-3-----3-------3-|
|-------------------------|-------------------|-----------------|
|-------------------------|-------------------|-----------------|
|-------------------------|-------------------|-----------------|
|-------------------------|-------------------|-----------------|


  E E E E E E E E    E E E E E E E E   E E E E E E E E
|------------------|-----------------|-----------------||
|------------------|-----------------|-----------------||
|-----7-----7------|-----------------|-----------------||
|-----7-----7------|-----5-----5-----|---5-5-5-5---5---||
|-8-9---8-9---8-9\-|-----5-----5-----|---3-3-3-3---3---||
|------------------|-6-7---6-7---6-7-|-----------------||
|
| E E E E E E E E    E E E E E E E E   E E E E E Q   E

|---5-5---5--------|-6-6-6-6-6-6-6-6-|-6-6-6-6-6-6-----||
|-7-----7-------8--|-----------------|---------------5-||
|-----------7------|-----------------|---------------4-||
|------------------|-----------------|-----------------||
|------------------|-----------------|-----------------||
|------------------|-----------------|-----------------||


 Chorus
  Q   E E E E Q      E  E E E +Q     E E   +E  E E E Q  Q
|-----------------|----------------------|------------------|
|-----------------|----------------------|------------------|
|-----9---7-9-----|--9----7-9-(9)\-------|------------------|
|-----9---7-9-----|--9----7-9-(9)\-----9-|-(9)-9-7---5--5---|
|-----7---7-7-----|--7----7-7-(7)\-----7-|-(7)-7-5---3--3---|
|-----------------|----------------------|------------------|
|
| H.          E E   +E  E E E  E   E E E   +H.          E E
|-----------------|----------------------|------------------|
|-5-------------8-|-(8)-8-7-5--5---3p1-1-|-(1)------------8-|
|-4-------------9-|-(9)-9-7-5--5---4p2-2-|-(2)------------9-|
|-----------------|----------------------|------------------|
|-----------------|----------------------|------------------|
|-----------------|----------------------|------------------|


   E  Q   E Q   E     E      Q     E E  E  E Q          E  E E E +Q    E E
|-----------------------||---------------------------|---------------------|
|-----------------------||o--------------------------|---------------------|
|-----------------------||---------9----7--9---------|--9----7-9-(9)\------|
|-----2-----2---------2-||---------9----7--9---------|--9----7-9-(9)\----9-|
|-----0-----0---------0-||o--------7----7--7---------|--7----7-7-(7)\----7-|
|--3------3-----3b3.5---||---------------------------|---------------------|
|
| +E  E E E E Q       E      E  E  E E  E  E E E       +H         Q    E E
|-----------------------||---0--0--2-0--3--5p3-7-----|-(7)-----------------|
|-(8)-8-7-5-5-3-------3-||o-(3)-5------(5)-----8b8.5-|-----------------5-3-|
|-(9)-9-7-5-5-4-------2-||--(2)-4------(4)-----------|---------------------|
|-----------------------||---------------------------|---------------------|
|-----------------------||o--------------------------|---------------------|
|-----------------------||---------------------------|---------------------|
                            +E  Q.     +Q.     E


  +E  E E E Q   Q      E  Q    E Q   E     E   Q   E E E E Q
|-------------------|------------------------|-----------------|
|-------------------|------------------------|-----------------|
|-------------------|------------------------|-----9---7-9-----|
|-(9)-9-7---5---5---|-----2------2---------2-|-----9---7-9-----|
|-(7)-7-5---3---3---|-----0------0---------0-|-----7---7-7-----|
|-------------------|--3-------3-----3b3.5---|-----------------|
|
|  E  E E E E E E E   +Q    Q.     E E     E   E E E E E E E E
|-------------5p3-7-|-(7)--------------------|-----------5p3-7-|
|--5--7-7-5-8-------|--------------5-5-----3-|-5-5-7-5-8-------|
|-------------------|------------------------|-----------------|
|-------------------|------------------------|-----------------|
|-------------------|------------------------|-----------------|
|-------------------|------------------------|-----------------|


   E  E E  E +Q     E E   +E  E E E Q   Q      E      Q  E Q  E     E
|-----------------------|-------------------|--------------------------||
|-----------------------|-------------------|-------------------------o||
|--9----7--9-(9)\-------|-------------------|--------------------------||
|--9----7--9-(9)\-----9-|-(9)-9-7---5---5---|---------2----2--------2--||
|--7----7--7-(7)\-----7-|-(7)-7-5---3---3---|---------0----0--------0-o||
|-----------------------|-------------------|--3---------3----3b3.5----||
|
| +Q    Q.        E E E   +E  E E E E Q   E   +H           H
|-(7)-------------------|-------------5---7-|-(7)b7.5------------------||
|-----------------5-3-5-|-(5)-5-7-7-8-------|-------------------------o||
|-----------------------|-------------------|--------------------------||
|-----------------------|-------------------|--------------------------||
|-----------------------|-------------------|-------------------------o||
|-----------------------|-------------------|--------------------------||


 Outro
  Gtr II
     E     +E   E  E  Q         E  E
|--------------12----14b14.5---12----|
|---15b17-(15)----12-14b14.5------12-|
|------------------------------------|
|------------------------------------|
|------------------------------------|
|------------------------------------|
|
| Gtr I
| a  E      E   Q     E      E  Q
|------------------------------------|
|------------------------------------|
|-----------9---------7------9-------|
|-----------9---------7------9-------|
|---------------------7------9-------|
|-5s=7-------------------------------|


   E     +E   E  E  Q        E  E    E     +E   E  E  E  E       E  E
|------------12----14b14.5--12----|------------12----15---------12----|
|-15b17-(15)----12-14b14.5-----12-|-15b17-(15)----12-15-15b15.5-12----|
|---------------------------------|--------------------------------12-|
|---------------------------------|-----------------------------------|
|---------------------------------|-----------------------------------|
|---------------------------------|-----------------------------------|
|
|  E      E   E  E +Q        E  E   +E      E   Q     Q          Q
|---------------------------------|-----------------------------------|
|---------------------------------|-----------------------------------|
|--9----------7--9-(9)\-----------|---------9---7-----5----------5----|
|--9----------7--9-(9)\---------9-|-(9)-----9---7-----5----------5----|
|--7----------7--7-(7)\---------7-|-(7)---------5-----3----------3----|
|---------------------------------|-----------------------------------|


                                                           ~~
   E  E  E  E  E  a     +E   E      E      E  a     +Q     E  E  Q    E
|-15-15-15-12-12------------12--------|---15-17b19-(17)------15---------|
|-14----14-12----15b17-(15)--------12-|-------------------17----17---17-|
|-------------------------------------|---------------------------------|
|-------------------------------------|---------------------------------|
|-------------------------------------|---------------------------------|
|-------------------------------------|---------------------------------|
|
|  E  Q     E  Q             E      E   a  E         E  Q     E  E Q
|-------------------------------------|---------------------------------|
|-------------------------------------|---------------------------------|
|-------------------------------------|--------------9--------7--9------|
|-----2--------2--------------------2-|--------------9--------7--9------|
|-----0--------0--------------------0-|-----------------------7--9------|
|--3--------3----------------3b3.5----|-5s=7----------------------------|


   E  E  E  E  E    E  E  E    a     +Q.      a     +Q.     a     +Q
|-15-15-15-15-15---15-15-15-|-19b22-(19)-----19b22-(19)----19b22-(19)--|
|---------------------------|-19b22-(19)-----19b22-(19)----19b22-(19)--|
|---------------------------|------------------------------------------|
|---------------------------|------------------------------------------|
|---------------------------|------------------------------------------|
|---------------------------|------------------------------------------|
|
|  E  E  E  E +Q       E  E          +E  E Q            Q          Q
|---------------------------|------------------------------------------|
|---------------------------|------------------------------------------|
|--9-----7--9-(9)\----------|------------9-7------------5----------5---|
|--9-----7--9-(9)\--------9-|--------(9)-9-7------------5----------5---|
|--7-----7--7-(7)\--------7-|--------(7)---5------------3----------3---|
|---------------------------|------------------------------------------|


   +E   a     +Q.     a     +Q    a     +Q

|-(19)-19b22-(19)----19b21-(19)--19b21-(19)------|
|-(19)-19b22-(19)----19b21-(19)--19b21-(19)------|
|------------------------------------------------|
|------------------------------------------------|
|------------------------------------------------|
|------------------------------------------------|
|
|   E          Q   E         Q           E     E
|------------------------------------------------|
|------------------------------------------------|
|------------------------------------------------|
|--------------2-------------2-----------------2-|
|--------------0-------------0-----------------0-|
|---3--------------3---------------------3b3.5---|


                                        ~~~~
   a      +E   E H.           E  a     +Q.      E    E  E  E
|-19b21==(19)r19------------|---17b19-(17)-----15---17-15----*|
|-19b21==(19)r19------------|-----------------------------15-*|
|---------------------------|--------------------------------*|
|---------------------------|--------------------------------*|
|---------------------------|--------------------------------*|
|---------------------------|--------------------------------*|
|
|  a       E   E Q   E E Q    E         E  E E +Q       E  E
|---------------------------|--------------------------------*|
|---------------------------|--------------------------------*|
|--------------9-----7-9----|-9------------7-9-(9)\----------*|
|--------------9-----7-9----|-9------------7-9-(9)\--------9-*|
|--------------------7-9----|-7------------7-7-(7)\--------7-*|
|--5s======7----------------|--------------------------------*|



Duration Legend
---------------
W - whole; H - half; Q - quarter; E - 8th; S - 16th; T - 32nd; X - 64th; a - acciaccatura
+ - note tied to previous; . - note dotted; .. - note double dotted
Uncapitalized letters represent notes that are staccato (1/2 duration)
Irregular groupings are notated above the duration line
Duration letters will always appear directly above the note/fret number it represents the
duration for.  Duration letters with no fret number below them represent rests.  Multi-
bar rests are notated in the form Wxn, where n is the number of bars to rest for.  Low
melody durations appear below the staff

Tablature Legend
----------------
 h   - hammer-on
 p   - pull-off
 b   - bend
 pb  - pre-bend
 r   - bend release (if no number after the r, then release immediately)
 /\  - slide into or out of (from/to "nowhere")
 s   - legato slide
 S   - shift slide
 - natural harmonic
[n]  - artificial harmonic
n(n) - tapped harmonic
 ~   - vibrato
 tr  - trill
 T   - tap
 TP  - trem. picking
 PM  - palm muting
\n/  - tremolo bar dip; n = amount to dip
 \n  - tremolo bar down
 n/  - tremolo bar up
/n\  - tremolo bar inverted dip
 =   - hold bend; also acts as connecting device for hammers/pulls
 <> - volume swell (louder/softer)
 x   - on rhythm slash represents muted slash
 o   - on rhythm slash represents single note slash

Misc Legend


-----------
 |  - bar
||  - double bar
||o - repeat start
o|| - repeat end
*|  - double bar (ending)
 :  - bar (freetime)
 $  - Segno
 &  - Coda
Tempo markers -  = BPM(8/16=s8/s16), where s8 = swing 8ths, s16 = swing 16ths



END
++++++++++++++++++++++++++++++++++++++++++++++++++++++++++++++++++++
++++++++++++++++++++++++++++++++++++++++++++++++++++++++++++++++++++
Artist: Aerosmith
Song: Crazy


Tabbed By Julian Loor
1972 Plymouth Fury III
julianloor_13@hotmail.com

Harmonica Intro arranged for guitar

e|--------12-12-12-12--------------------------------------------|
B|-12b14=-------------12b14r12-----------------------------------|
G|-----------------------------11-11-12b14-12b14-12b14=-12b14r12-|
D|---------------------------------------------------------------|
A|---------------------------------------------------------------|
E|---------------------------------------------------------------|


e|----------12-12-12-12-------------------------------------------------|
B|-10-12b14-------------10-10-12b14-10-12b14-10-12b14-------------------|
G|----------------------------------------------------12b14-12b14-12b14-|
D|----------------------------------------------------------------------|
A|----------------------------------------------------------------------|
E|----------------------------------------------------------------------|

A                          F#m                                   D
You know you drive me up a wall the way you make good of all the nasty
                                  Dm
tricks you pull. Seems like we're makin' up more than we're makin'
     A                             F#m
love and it always seems you got somn' on your mind other than me
D                            Dm
Girl, you got to change your crazy ways, you hear me
A          D                                               F#m
Say you're leavin' on a seven thirty train and that you're headin' out
        D
to Hollywood


e|---------------|
B|---------------|
G|-----2-4/6-4-2-|
D|-2h4---4/6-4-2-|
A|---------------|
E|---------------|

A                    D                                       F#m
Girl you been givin' me that line so many times it kinda gets like
                 D
feelin' bad looks good, yeah

e|----------12-------12-|
B|-10-12b14----12b14----|
G|----------------------| 
D|----------------------| Harmonica Part
A|----------------------|
E|----------------------|

E          F#m            G        D
That kinda lovin' turns a man to a slave

e|-------------------5---5/10-10----10----|
B|---------------5/7-----5/10----10----10-|
G|-----2-4-4b6----------------------------|
D|-2-4------------------------------------| Guitar Part
A|----------------------------------------|
E|----------------------------------------|

E          F#m            G                D    E
That kinda lovin' sends a man right to his grave

e|-------------------5---5/10-10----10/12-12----|
B|---------------5/7-----5/10----10-10/12----12-|
G|-----2-4-4b6----------------------------------|
D|-2-4------------------------------------------| Guitar Part
A|----------------------------------------------|
E|----------------------------------------------|

     A      F#m    D          Dm
I go crazy, crazy, baby, I go crazy
A           F#m             Dm              E
You turn it on, then you're gone, yeah, you drive me
A      F#m    D             Dm
Crazy, crazy, crazy for you baby
Bm         E         C#m             F#m E  D   Dm
What can I do, honey, I feel like the color blue

MANDOLIN PART ARRANGED FOR GUITAR

e|-9-9-9-9-9-9-10-10-12-12-14-14-14-14-12-12-10-10-9-9-7-7-5-5-5-5-|
B|-----------------------------------------------------------------|
G|-----------------------------------------------------------------|
D|-----------------------------------------------------------------|
A|-----------------------------------------------------------------|
E|-----------------------------------------------------------------|

e|-------------------|
B|-------------------|
G|-----2-4-4b6-4b6-2-|
D|-2h4---------------|Guitar Part
A|-------------------|
E|-------------------|

A                      D                                     F#m
You're packin' up your stuff and talkin' like it's tough and tryin' to
                         D
tell me that it's time to go, yeah
A                    D                                    F#m
But I know you ain't wearin' nothin' underneath that overcoat
               D
And it's all a show, yeah

MANDOLIN 2ND PART

e|-12-12-12-12-14-14-16-16-17-17-17-17-17-19-19-21-21-21-19-19-17-17-14-14-|
B|-------------------------------------------------------------------------|
G|-------------------------------------------------------------------------|
D|-------------------------------------------------------------------------|
A|-------------------------------------------------------------------------|
E|-------------------------------------------------------------------------|

E          F#m                   G             D
That kinda lovin' makes me wanna pull down the shade, yeah

e|-------------------5---5/10-10----10----|
B|---------------5/7-----5/10----10----10-|
G|-----2-4-4b6----------------------------|
D|-2-4------------------------------------| Guitar Part
A|----------------------------------------|
E|----------------------------------------|

E          F#m                 G
That kinda lovin' yeah now I'm never, never, never, never
D              E
gonna be the same

e|-------------------5---5/10-10----10/12-12----|
B|---------------5/7-----5/10----10-10/12----12-|
G|-----2-4-4b6----------------------------------|
D|-2-4------------------------------------------| Guitar Part
A|----------------------------------------------|
E|----------------------------------------------|

     A      F#m    D          Dm
I go crazy, crazy, baby, I go crazy
A           F#m             D               E
You turn it on, then you're gone, yeah, you drive me
A      F#m    D             Dm
Crazy, crazy, crazy for you baby
Bm         E     C#m                 F#m E  D   Dm
What can I do, honey, I feel like the color blue
A             F#m                D         E
I'm losin' my mind, girl, 'cause I'm goin' crazy

SOLO

e|-----------------------------------------------|
B|-----------------------------------------------|
G|-----------------------------------------------|
D|---------------------------------------2-2h4-2-|
A|-2bu-2bu-2bu-2bu-2bu-2bu-2bu-2bu-2bu 0---------|
E|-----------------------------------------------|

e|-----------------------------------|
B|---------------------------2-5-5/7-|
G|-----2-4bu~--5b7-4-4-2-4/6---------|
D|-2-4-------------------------------|
A|-----------------------------------|
E|-----------------------------------|

e|-------------------------------|
B|-12b14-10-13b15-12b13-12b13-10-|
G|-------------------------------|
D|-------------------------------|
A|-------------------------------|
E|-------------------------------|

e|------------------------------------------|
B|------10-10------10-10------10-10------10-|
G|-9h11-------9h11-------9h11-------9h11----|
D|------------------------------------------|
A|------------------------------------------|
E|------------------------------------------|

e|-10/17-17----17----19b21-17-------14--------------|
B|-10/17----17----17----------17b19----17-14-16b18~-|
G|--------------------------------------------------|
D|--------------------------------------------------|
A|--------------------------------------------------|
E|--------------------------------------------------|

e|-----------------------------------------------|
B|----------------------17b19-17-15-15h17--------|
G|-------14h16-16b18-14-------------------16b18~-|
D|-14h16-----------------------------------------|
A|-----------------------------------------------|
E|-----------------------------------------------|

e|-17----17----17----17----22b24-22b24-22b24-17-|
B|----17----17----17----17----------------------|
G|----------------------------------------------|
D|----------------------------------------------|
A|----------------------------------------------|
E|----------------------------------------------|

e|-----------------------------------------------------|
B|-------17-------17-------17-------17-------17--------|
G|-19b21----19b21----19b21----19b21----19b21----19b21~-|
D|-----------------------------------------------------|
A|-----------------------------------------------------|
E|-----------------------------------------------------|

F#m E       D
I need your love, honey yeah





e|-------------------|
B|-17/19-17~--14h15~-|
G|-------------------|
D|-------------------|
A|-------------------|
E|-------------------|

F#m E       D
I need your love

e|-------------------------------|
B|-17/19-17b19r17b19r17--14h15e~-|
G|-------------------------------|
D|-------------------------------|
A|-------------------------------|
E|-------------------------------|

A      F#m    D             Dm
Crazy, crazy, crazy for you baby
A             F#m               D         E
I'm losin' my mind, girl 'cause I'm goin' crazy
A      F#m    D             Dm
Crazy, crazy, crazy for you baby
A           F#m             D             E
You turn it on, then you're gone, yeah, you drive me

A      F#m    D             Dm
uuhhh uuuhhh uuuhhhh uuuhhhh uuuuhhh

e|--------17--------19-------21-|
B|--12/14-----14/15----15/17----|
G|------------------------------|
D|------------------------------|
A|------------------------------|
E|------------------------------|

A      F#m    D              	E
uuhhh uuuhhh uuuhhhh uuuhhhh uuuuhhh

A      F#m    D             Dm
yeah yeah yeah yeah yeah yeah yeah

FINISH
------------------------------------------------------------

END
+++++++++++++++++++++++++++++++++++++++++++++++++++++++++++++++
+++++++++++++++++++++++++++++++++++++++++++++++++++++++++++++++
Eat the Rich - Aerosmith(Get a Grip)
Tabbed by Slush
Standard tuning

This has been modified for one guitar.
I'll put in the second guitar part later.
Can someone please help me out on the solo?

h  = hammer on
p  = pull off
b  = bend
r  = release
~~ = vibrato
X  = damp strings
x4 = play four times

Intro

e ---------------------------------
B ---------------------------------
G ---------------------------------
D -2--2----2--2----2--2----2--2----
A -2--2----2--2----2--2----2--2----
E -0--0----0--0----0--0----0--0---- x1

e ------------------------------------
B ------------------------------------
G ------------------------------------
D -----5~~-----------------------2--2-
A -5h7----5h7---------5----------2--2-
E ------------3~~-5/7---7--5--3--0--0- x4

Verse

   Well I woke up...       On the wrong side...    
e -------------------------------------------------
B -------------------------------------------------
G -------------------------------------------------
D -------0~----------------------0~---------------X-
A ----2~----2~-------0~-2~----2~----2~-------0~-2~X-
E -0~----------0~-4~-------0~----------0~-4~------X- x4

   Cos Im sick of...            And Im sick of...
e --------------------------------------------------------
B --------------------------------------------------------
G --------------------------------------------------------
D -2----4------5----7--7brp5----2----4------5----7--7b~~~-
A -2----4------5----7--------7--2----4------5----7--------
E -0----2------3----5-----------0----2------3----5-------- x1

   And I just cant...      And I think I can do more...
e ---------------------------------------------------------
B ---------------------------------------------------------
G ---------------------------------------------------------
D -2----4------5----7------9-9-9-9-9-9-9-9-9-9-9-9-9-9-9-9-
A -2----4------5----7------9-9-9-9-9-9-9-9-9-9-9-9-9-9-9-9-
E -0----2------3----5------7-7-7-7-7-7-7-7-7-7-7-7-7-7-7-7- x1

Chorus

   Eat...       Theres only...


e -------------------------------
B -----------------------------5-
G -----------------------------4-
D -9--7---------7--------------2-
A -7--5---------5--9-------------
E -------5br~------7--5--3--0---- x4

END
+++++++++++++++++++++++++++++++++++++++++++++++++++++++++++++++++
+++++++++++++++++++++++++++++++++++++++++++++++++++++++++++++++++
This is an awesome Aerosmith song, one of my favorites.  

Angel
As perfromed on "Permenant Vacation"
Words and music by Steven Tyler and Desmond Child

Standard tuning

h       hammer on
p       pull off
b       bend
r       return
~       vibrating
/       slide up
Joe     Guitar 1
Brad    Guitar 2
Both    D'uh

Intro/GUITAR SOLO 1 (Joe, w/ distortion)
e[-------------------------------------------------------
B[-16~~~~~~~~~~~-----------------------------------------
G[-----------------------------13-15-17--17p15p13-15~~~--
D[-----------------------13-15---------------------------
A[-----------------13-15---------------------------------
E[-------------------------------------------------------

e[---------------------------------------------
B[-------------------------------16------------
G[-15-13-15-13-15-13-15-13-15b17----17-17r15---
D[---------------------------------------------
A[---------------------------------------------
E[---------------------------------------------

e[-15~~~~~~~~~~-15-16p15-16p15-16p15------------
B[-----------------------------------16~~~------
G[----------------------------------------------
D[----------------------------------------------
A[----------------------------------------------
E[----------------------------------------------

e[-------------------------------------------------------------------------
B[-15--16-15-16--15--13p11-------------------------------------------------
G[-------------------------12----------------------------------------------
D[----------------------------15-13----------------------------------------
A[----------------------------------15-13-15-13-15-13-15-13-15b18r15-13-11-
E[-------------------------------------------------------------------------

Intro (Brad, w/ distortion, x2, plays under Joe's solo)
e[--------------------------------------
B[--------------------------------------
G[--------------------------------------
D[-8------------------------------------
A[-6------8--6------10------8--4--------
E[--------6--4------8-------6--6--------

Verse (Both, w/ clean tone)
e[--------------------------------------------------------------------
B[--------------------------------------------------------------------
G[-----8---8-------------8-----8-------------5-------6---6---5--------
D[---8---8---8---------8---8-----8-------6-----6-------6---6---6------
A[-6-----------6--6--6-------6-----6---6---6-----6---------------6----
E[-----------------------------------4-------------4---------------4--

e[---------------------------------------------------------------
B[---------------------------------------------------------------
G[-----8---8----------------5---5--------------------------------
D[---8---8---8------------5---5---5-------5---5---------6---6----
A[-6-----------6--6--6--3-----------3---5---5---5-----6---6---6--
E[------------------------------------3-----------3-4------------

Pre-chorus  (Both, w/ distortion)
  This part x3         End with this
e[-------------------]------------------------------
B[-------------------]------------------------------
G[-------------------]------------------------------
D[-------------------]------------------------------
A[-8--8--10-10----6--]-8----------------------------
E[-6--6--8--8-----4--]-6----------------------------

Chorus (Both, w/ distortion, x2)
e[------------------------------------
B[------------------------------------
G[------------------------------------
D[-8----------------------------------
A[-6------8--6------10------8--6------
E[--------6--4------8-------6--4------

Verse

Pre-chorus

Chorus

GUITAR SOLO 2 (Joe, w/ clean tone)
e[-----------------------------------------------------------
B[-----------------------------------------------------------
G[-------13--------------------------------------------------
D[-13-17----15-15h17p15-13~~~~~---13-------------------------
A[------------------------------13--15~~~~--15-13-11-10~~~---
E[-----------------------------------------------------------

e[-----------------------------------------------------------
B[----------------------11b13r11-----------------------------
G[-------------8-10-8--------------10-10b12--10b12r10--8-8---
D[--------8-10-----------------------------------------------
A[-6h8/10----------------------------------------------------
E[-----------------------------------------------------------

e[----------------------------------------------------
B[----------------------------------------------------
G[-----8-8---------------8-10--10b12-10b12r10-8-10----
D[-8h10---------8-8--8h10-----------------------------
A[----------8h10--------------------------------------
E[----------------------------------------------------

e[-------------------------------------------------
B[-(Bend 9s slowly to 11)-9-9-9-9-9-9-9b11~~~~~~~--
G[-------------------------------------------------
D[-------------------------------------------------
A[-------------------------------------------------
E[-------------------------------------------------

Bridge (Both, w/ distortion)
e[-------------------------------------------
B[-------------------------------------------
G[-------------------------------------------
D[-8-------------8------5--------------------
A[-6------6------6------3------6------8------
E[--------4--------------------4------6------

Repeat the chorus a bunch more.
Eventually, Joe throws in this last solo thingy (w/ distortion)
e[-----------------------------------------------------------------------
B[-----------------------------------------------------------------------
G[---------------------------------------------15b17-15-13-15-15b17r15---
D[----------------13-15-17--17p15p13-17p15p13----------------------------
A[----------13-15--------------------------------------------------------
E[-11h13/15--------------------------------------------------------------

And that's it.

Song structure
Intro/GUITAR SOLO 1
Verse
Pre-chorus
Chorus
Verse
Pre-chorus
Chorus
GUITAR SOLO 2
Bridge
Chorus
Ending solo thingy

Peace.

END
++++++++++++++++++++++++++++++++++++++++++++++++++++++++++++++++++
++++++++++++++++++++++++++++++++++++++++++++++++++++++++++++++++++
A E R O S M I T H

                             "Livin' on the Edge"
                              from _Get a Grip_


Dropped-D tuning                             h = hammer-on    p = pull-off
~~~~~~~~~~~~~~~~                             b = bend note    r = release bend


_INTRO_________________________________________________________________________

   D5
e+-----------0h2p0-------0---------|-----------0h2p0-------0---------|
B+-----3-----------3-------3-----3-|-----3-----------3-------3-----3-|
G+---------------------------0h2---|---------------------------0h2---|
d+-0-------------------------------|-0-------------------------------|
A+---------------------------------|---------------------------------|
D+---------------------------------|---------------------------------|

[repeat]


_VERSE 1_______________________________________________________________________

D5 [w/Intro pattern]
there's something wrong with the world today, I don't know what it is
Bm                                                A5
something's wrong with our eyes
      D5 [w/Intro pattern]
we're seeing things in a different way, and God knows it ain't His
   Bm
it sure ain't no surprise           (yeah!)


_PSEUDO-CHORUS_________________________________________________________________


Chorus Pattern (use this many times throughout the song):
|---------------------------------|---------------------------------|
|---------------------------------|---------------------------------|
|-------7--7--7--7--9b11r9b10r9-7-|-------7--7--7--7--9b11r9--------|
|---------------------------------|---------------------------------|
|---------------------------------|---------------------------------|
|---------------------------------|---------------------------------|
  (or something like that...)  :-)


                    D5 [w/chorus pattern]
we're Livin' On The Edge

Livin' On The Edge
              A#           G/B
Livin' On The Edge
              D5
Livin' On The Edge


_VERSE 2_______________________________________________________________________

[w/Intro pattern]
there's something wrong with the world today, the lightbulb's gettin' dim

there's meltdown in the sky
if you can judge a wise man by the color of his skin
then mister you're a better man than I
[feedback!]


_CHORUS________________________________________________________________________

              D5 [w/chorus pattern]
Livin' On The Edge     (you can't help yourself from falling)

Livin' On The Edge     (you can't help yourself at all)
              A#                                     G/B
Livin' On The Edge     (you can't stop yourself from falling)
              D5
Livin' On The Edge


_BRIDGE________________________________________________________________________

 [F#5]            
|---------------------------------|---------------------------------|
|---------------------------------|---------------------------------|
|---------------------------------|---------------------------------|
|-----------------------2---------|-----------------------2---------|
|-4---4-------4---2-3-4-0-----4-2-|-4---4-------4---2-3-4-0-----4/--|
|-4---4-------4---2-3-4-------4-2-|-4---4-------4---2-3-4-------4/--|
tell me what you think about your situation, complication, aggravation


 [B5] (w/Fill 1 first time around, then Fill 2 second time)
|---------------------------------|---------------------------------|
|---------------------------------|---------------------------------|
|-----------------------7---------|-----------------------7---------|
|-----------------------7---------|-----------------------7---------|
|-9---9-------9---7-8-9-------9-7-|-9---9-------9---7-8-9-------9\--|
|-9---9-------9---7-8-9-------9-7-|-9---9-------9---7-8-9-------9\--|
it's getting to you


 [F#5]
|---------------------------------|---------------------------------|
|---------------------------------|---------------------------------|
|---------------------------------|---------------------------------|
|-----------------------2---------|-----------------------2---------|
|-4---4-------4---2-3-4-0-----4-2-|-4---4-------4---2-3-4-0-----4---|
|-4---4-------4---2-3-4-------4-2-|-4---4-------4---2-3-4-------4---|
if Chicken Little tells you that the sky is fallin, even if it wasn't

                              G5
would you still come crawling back again?
          A5
I bet you would, my friend
 A#
again and again and again and again and again


 FILL 1:
   |---------------------------------|---------------------------------|
   |---------------------------------|-----9b10r9---7-9b10r9----7-9-7\-|
   |-----------------7b9-----7-------|---7-9b11r9---7-9b11r9----7-9-7\-|
   |---------------------------------|-9-------------------------------|
   |---------------------------------|---------------------------------|
   |---------------------------------|---------------------------------|


 FILL 2:
   |---------------------------------|------------------------------7\-|
   |---------------------------------|-----9-9-9b10r9b10r9b10r9-----7\-|
   |-----------------7b9-----7-------|---7-9-9-9b11r9b11r9b11r9-7------|
   |---------------------------------|-9--------------------------9----|
   |---------------------------------|---------------------------------|
   |---------------------------------|---------------------------------|


_______________________________________________________________________________

[Guitar Solo]

[Repeat BRIDGE]


_VERSE 3_______________________________________________________________________

there's something right with the world today,
and everybody knows it's wrong
well we could tell 'em no, we could let it go
but I would rather be hangin' on!

[pause]

[Repeat CHORUS]


_OUTRO_________________________________________________________________________

              A#            A5
Livin' On The Edge
              G5            F5
Livin' On The Edge
              E5            D#5
Livin' On The Edge

yeah, yeah, yeah...
D5 (hold for four measures)



This pattern is repeated in the background from here on:

 |---------17--------------17------|
 |-15--------------15--------------|
 |-----14------14------14------14--|
 |---------------------------------|
 |---------------------------------|
 |---------------------------------|

              A#                                 G5                     F5
Livin' On The Edge (you can't help yourself from falling)
              D5
Livin' On The Edge (you can't help yourself at all)
              A#                                 G/B                    F5
Livin' On The Edge (you can't stop yourself from falling)
              D5
Livin' On The Edge
              A#                                 G/B                    F5
Livin' On The Edge (you can't help yourself)        (you can't help yourself)
              D5
Livin' On The Edge (you can't help yourself at all)
              A#                                 A5       
Livin' On The Edge (you can't help yourself)        (you can't help yourself)
              G5                                 F5
Livin' On The Edge (you can't help yourself)        (you can't help yourself)
              E5                                 D#5
Livin' On The Edge (you can't help yourself from falling)
                          D5
Livin' On The Edge, yeah, yeah...


|-----6-----------|-----5-----------|
|-----------------|-----------------|
|-7b8-(hold)------|-8r7-------------|
|-----------------|-----------------|
|-----------------|-----------------|
|-----------------|-----------------|







|------10---------|------8----------|-----6-----------|-----5-----------|
|-----------------|-----------------|-----------------|-----------------|
|-9b11-(hold)-----|-11r9------------|-7b8-(hold)------|-8r7-------------|
|-----------------|-----------------|-----------------|-----------------|
|-----------------|-----------------|-----------------|-----------------|
|-----------------|-----------------|-----------------|-----------------|


_______________________________________________________________________________


      D5     Bm     A5     A#     G5     F5     E5    D#5    G/B
   |---------2------------------------------------------------3--|
   |--3------3-------------3-----(8)----(6)----(5)----(4)-----3--|
   |--2------4------2------3-----(7)----(5)----(4)----(3)-----0--|
   |--0------4------2------3------5------3------2------1------0--|
   |--0------2------0------1------5------3------2------1------2--|
   |------------------------------5------3------2------1---------|



END
++++++++++++++++++++++++++++++++++++++++++++++++++++++++++++++++++++
++++++++++++++++++++++++++++++++++++++++++++++++++++++++++++++++++++

That's the end of the album tab.
Please Rate and Comment It.
Thanks
[travis]








comments
We did not receive enough feedback on this tab! Please rate:
print report bad tab
1 2 3 4 5
I want to post or [tab]
guest
You may want to rate the tab now too:
select rating
Please do not post tabs as comments. Select "correction" instead!