Oops, an error
Loading. Please wait.

Crazy Tab

ver2
ver2

Solo

Whole song

Interactive

More versions @911Tabs.com
10,829 views 39 this week
no commentswrite comment
1 2 3 4 5
excellent!
x 3
Autoscroll
+/-
esc
set tempo
stop
Contributor
Hey! There's an official Ultimate Guitar app which is ideal
for learning songs when you're away from computer. Get the app
WARNING: You are trying to view
                                    content from Ultimate-Guitar.com
                                    in an unauthorized application,
                                    which is prohibited.

                                    Please use an official Ultimate
                                    Guitar Tabs application for iPhone,
                                    iPad or Android to access legitimate
                                    chords, guitar, bass, and drum tabs
                                    from Ultimate-Guitar.com database.

                                    Type "ultimate guitar tabs" in Apple
                                    App Store's or Android Market's
                                    search to find the application.
#----------------------------------PLEASE NOTE---------------------------------#
#This file is the author's own work and represents their interpretation of the #
#song. You may only use this file for private study, scholarship, or research. #
#------------------------------------------------------------------------------#

CRAZY
As recorded by Aerosmith
(From the 1993 Album GET A GRIP)

Transcribed by Unregistered
        

Words and Music by Steven Tyler, Joe Perry & Desmond Child

Gtr I (E A D G B E) - 'Semi-clean tone'
Gtr II (E A D G B E) - 'Semi-clean tone'
Gtr III (E A D G B E) - 'Fill & Solo Gtr.'
Gtr IV (E A D G B E) - 'Fill Gtr.'
Gtr V (E A D G B E) - 'Clean tone w/echo'
Gtr VI (E A D G B E) - 'Mandolin'

 Intro
  Moderately Slow Rock Q.=54
  N.C.           A              F#m7
 12/8
  Gtr I
  W              E  E E a E E E E  E E a E E E
|--------------|----------0--------------0-----|
|--------------|--------0h2-0----------0h2-0---|
|--------------|------2-------2--------------2-|
|--------------|----2----------------4---------|
|--------------|-0-----------------4-----------|
|--------------|----------------2--------------|
|
| Gtr II
| W              Q.       E Q   Q.       E Q
|--------------|----------5--------------2-----|
|--------------|----------5--------------2-----|
|--------------|----------6--------------2-----|
|--------------|-------------------------------|
|--------------|-------------------------------|
|--------------|-------------------------------|


  D              Dm
  E  E E a E E E E  E E a E  E E
|--------0h2-0----------0h1--0---|
|------3--------------3--------3-|
|----2---------2----2------------|
|-0--------------0---------------|
|--------------------------------|
|--------------------------------|
|
| Q.       E Q   Q.     a Q.
|----------2--------------5------|
|----------3------------5h6------|
|----------2--------------7------|
|--------------------------------|
|--------------------------------|
|--------------------------------|


  A              F#m7             D              Dm
  E  E E a E E E E  E E a E E E   E  E E a E E E E  E E a  E E   E
|----------0--------------0-----|--------0h2-0----------0h=1-0-------|
|--------0h2-0----------0h2-0---|------3-------3------3----------3---|
|------2-------2--------------2-|----2--------------2----------------|
|----2----------------4---------|-0--------------0-------------------|
|-0-----------------4-----------|------------------------------------|
|----------------2--------------|------------------------------------|
|
| Q.       E Q   Q.       E Q     Q.       E Q   Q.        Q    +E
|----------5--------------2-----|----------2--------------10---(10)\-|
|----------5--------------2-----|----------3--------------10---(10)\-|
|----------6--------------2-----|----------2--------------10---(10)\-|
|-------------------------------|------------------------------------|
|-------------------------------|------------------------------------|
|-------------------------------|------------------------------------|


 Verse
  A              D
  Gtr I
  E  E E a E E E  E   E  E  a  E  E  E
|--------------------------------------|
|--------------------------------------|
|--------5h6---------------10h11-------|
|------7-----7----------12-------12----|
|----7---------7-----12-------------12-|
|-5--------------10--------------------|
|
| Gtr II
| Q.       E Q    Q.           E  Q
|----------5-------------------7-------|
|----------5-------------------7-------|
|----------6-------------------7-------|
|--------------------------------------|
|--------------------------------------|
|--------------------------------------|
|
| W
|--------------------------------------|
|--------------------------------------|
|--------------------------------------|
|--------------------------------------|
|--------------------------------------|
|--------------------------------------|


  F#m                 D
  E   E  E a  E  E  E  E   E    E  a  E     E  E
|------------------------------------------------|
|----------9h10----------------------------------|
|-------11------11----------------10h11----------|
|----11------------11----------12----------12----|
|-9-----------------------12------------------12-|
|---------------------10-------------------------|
|
| Q.       a  E  Q     Q.             Q.
|-------------5----------------------------------|
|----------5h=7-----------------------3----------|
|-------------6-----------------------2----------|
|-------------------------------------4----------|
|------------------------------------------------|
|------------------------------------------------|
|
| Gtrs III, IV
| H.                   E   S S  e     e     e  e
|------------------------------------------------|
|------------------------------------------------|
|-------------------------------7-----9-----9--7-|
|-------------------------------7-----7-----7--7-|
|--------------------------7h9-----------7h=9----|
|------------------------------------------------|
  H.                   Q.             E  a  E  E


  A               D
  E  E E a E  E E  E   E  E  a  E  E  E
|---------------------------------------|
|---------------------------------------|
|--------5h6----------------10h11-------|
|------7------7----------12-------12----|
|----7----------7-----12-------------12-|
|-5---------------10--------------------|
|
| Q.       E  Q    Q.           E  Q
|----------5\---------------------------|
|-2--------5\-------------------7-------|
|-2-----------------------------7-------|
|-2-----------------------------7-------|
|---------------------------------------|
|---------------------------------------|
|
| Q.       Q.      H.
|---------------------------------------|
|---------------------------------------|
|-6-------------------------------------|
|-7-------------------------------------|
|---------------------------------------|
|---------------------------------------|


  F#m                 D
  E   E  E a  E  E  E  E   E  E  a  E  E    E
|----------------------------------------------|
|----------9h10--------------------------------|
|-------11------11--------------10h11----------|
|----11------------11--------12-------12-------|
|-9-----------------------12---------------12--|
|---------------------10-----------------------|
|
| Q.       a  E  Q     Q.           E  S S  E
|-------------5--------------------------------|
|----------5h=7--------------------------------|
|-------------6---------------------7-------7--|
|-----------------------------------7-------7--|
|--------------------------------------7s9-----|
|----------------------------------------------|
|
| W
|----------------------------------------------|
|----------------------------------------------|
|----------------------------------------------|
|----------------------------------------------|
|----------------------------------------------|
|----------------------------------------------|


 Pre-Chorus
  E                   F#m7
  E  E E a  E   E E    E  E   E   a E    E    E
|-----------------------------------0-----------|
|-----------0---------------------0h2----0------|
|--------0h=1---------------------------------2-|
|------2--------2-------------4-----------------|
|----2------------2-------4---------------------|
|-0--------------------2------------------------|
|
| E  Q      E   E E   +E  S S S S   E   +S  S E
|----0------------------------------------------|
|----0------------------------2-4---4b5r(4)p2---|
|-----------------------------2-4---4b6r(4)p2---|
|---------------2---------2-4-----------------4-|
|---------------2-------------------------------|
|-0--------/4-----2b4r(2)-----------------------|
|
| Gtr III
| Q.        Q     E   +Q.           Q.
|-----------------------------------------------|
|-----------7b9---7b9r(7)-----------------------|
|-----------------------------------------------|
|-----------------------------------------------|
|-----------------------------------------------|
|-----------------------------------------------|


  G                 D
  Q.         Q    E   E  E  E  Q     E
|-3----------3----3---2--2--2--2-----2--|
|-3----------3----3---3--3--3--3-----3--|
|-0----------0----0---2--2--2--2-----2--|
|-0----------0----0---0--0--0--0-----0--|
|---------------------------------------|
|-3----------3----3---------------------|
|
| E     E E +E  E E   E  E  E  E  E  E
|-3-------7-(7)-7---/14-14----14----14\-|
|-3-------------------------------------|
|-0----/7---------7-/14----14----14-----|
|---------------------------------------|
|---------------------------------------|
|---------------------------------------|
|
| E  a  E E  Q    E   Q     E  Q     E
|---------------------------------------|
|---------------------------------------|
|----2s=4-2--2----2---2-----2--2-----2--|
|---------------------------------------|
|---------------------------------------|
|---------------------------------------|


  E                   F#m7
  E  E E a  E   E E    E  E   E   a E     E E
|-----------------------------------0---------|
|-----------0---------------------0h2-----0---|
|--------0h=1-------------------------------2-|
|------2--------2-------------4---------------|
|----2------------2-------4-------------------|
|-0--------------------2----------------------|
|
|                                   |-3-|
| E  Q      E   E E   +E  S S S S   S S S Q
|----0----------------------------------------|
|----0------------------------2-4---5p4p2-----|
|-----------------------------2-4---5p4p2-----|
|---------------2-------------------------4---|
|-------------------------2-4-----------------|
|-0--------/4-----2b4r(2)---------------------|
|
| Q.        Q     E   +Q.           Q.
|---------------------------------------------|
|-----------7b9---7b9r(7)---------------------|
|---------------------------------------------|
|---------------------------------------------|
|---------------------------------------------|
|---------------------------------------------|


  G               D
  Q.        E E E   E  E  E   E    E  E
|-3---------3-3-3---2---------4----------|
|-3---------3-3-3------3-----------5-----|
|-0---------0-0-0---------2-----------4--|
|-0---------0-0-0------------------------|
|----------------------------------------|
|-3---------3-3-3------------------------|
|
| Q      E  E E E   E  E  E   E    E  E
|-3------3----7-------14----------16-----|
|-3----------------------------------17--|
|-0--------/7---7-/14----14-/16----------|
|----------------------------------------|
|----------------------------------------|
|----------------------------------------|
|
| E  a E E  Q   E   E  E  E   S S  E  E
|----------------------------------------|
|----------------------------------------|
|----2s4-2--2---2---2--2--2---2s4--4--4--|
|----------------------------------------|
|----------------------------------------|
|----------------------------------------|


 Chorus
  E                   F#m
   E    E E a  E  E E E  E E a  E  E E
|--------------0----------------0------|
|-----------0h=2--0----------0h=2--0---|
|---------2---------2----------------2-|
|-------2------------------4-----------|
|--0---------------------4-------------|
|---------------------2----------------|
|
|  Q.          E  Q   Q.        E  Q
|-------------17\---------------2------|
|-17----------17\---------------2------|
|-16b18-------------------------2------|
|--------------------------------------|
|--------------------------------------|
|--------------------------------------|
|
| Gtr V
|              ~~~              ~~~
|  Q.          Q.     Q.        Q.
|--------------5---------------!2------|
|--------------5---------------!2------|
|--------------6---------------!2------|
|--------------------------------------|
|--------------------------------------|
|--------------------------------------|


  D                  Dm                     A               F#m7
  E  E  E    a E E E E  E E a  E  E   E     E  E E a E  E E E  E E a  E  E E
|------------0h2-0----------0h=1--0-------|----------0----------------0-------|
|-------3-----------------3-----------3---|--------0h2--0----------0h=2--0----|
|----2-------------2----2-----------------|------2--------2----------------2--|
|-0------------------0--------------------|----2-----------------4------------|
|-----------------------------------------|-0------------------4--------------|
|-----------------------------------------|-----------------2-----------------|
|
| Q.           Q   E Q.        Q     +E     Q.       E  Q   Q.        E  Q
|-----------------------------10----(10)\-|----------5----------------2-------|
|-----------------------------10----(10)\-|----------5----------------2-------|
|--------------7--------------10----(10)\-|----------6----------------2-------|
|--------------7--------------------------|-----------------------------------|
|--------------5--------------------------|-----------------------------------|
|-----------------------------------------|-----------------------------------|
|
|                    ~~~~~~~~~~~~~                   ~~               ~~~
| Q    +S  S   E E E Q.        Q.           Q.       Q.     Q.        Q.
|--------------------5---------5----------|----------5---------------!2-------|
|--------------3-----6---------6----------|--------------------------!2-------|
|----------------2---7---------7----------|--------------------------!2-------|
|-0----(0)-0-------4----------------------|-----------------------------------|
|-----------------------------------------|-----------------------------------|
|-----------------------------------------|-----------------------------------|


  D             E                      A               F#m7
  E  E E E  E E E E E  E    E    E     E  E E a E  E E E  E E a E  E E
|----2-2-2--2-2---0-0--0----0----0---|----------0---------------0------|
|----3-3-3--3-3---0-0--0----0----0---|--------0h2--0----------0h2--0---|
|----2-2-2--2-2---1-1--1----1----1---|------2--------2---------------2-|
|-0--0-0-0--0-0---2-2--2----2----2---|----2-----------------4----------|
|-----------------2-2--2----2----2---|-0------------------4------------|
|---------------0-0-0--0----0----0---|-----------------2---------------|
|
| Q.     E  Q   E E E  E    E    E     Q.       E  Q   Q.       E  Q
|------------------------------------|----------5---------------2------|
|------------------------------------|----------5---------------2------|
|--------7--------9-9--9----9----9---|----------6---------------2------|
|--------7--------9-9--9----9----9---|---------------------------------|
|--------5--------7-7--7----7----7---|---------------------------------|
|------------------------------------|---------------------------------|
|
|                      \1/  \1/  \1/
|                                               ~~              ~~
| Q.     Q.     E E E +E   +E   +E     Q.       Q.     Q.       Q.
|------------------------------------|----------5---------------2------|
|------------------------------------|----------5---------------2------|
|---------------9-9-9-(9)--(9)--(9)--|----------6---------------2------|
|-0------0------9-9-9-(9)--(9)--(9)--|---------------------------------|
|---------------7-7-7-(7)--(7)--(7)--|---------------------------------|
|------------------------------------|---------------------------------|


  D                  Dm
  E  E E a E E   E    E  E E a  E  E  E
|--------0h2-0---------------0h=1--0------|
|------3-------------------3----------3---|
|----2-----------2-------2----------------|
|-0-------------------0-------------------|
|-----------------------------------------|
|-----------------------------------------|
|
| Q.       E Q        Q.        E  Q
|-------------------------------5---------|
|-------------------------------6---------|
|----------7--------------------7---------|
|----------7------------------------------|
|----------5------------------------------|
|-----------------------------------------|
|
|                     ~~~
| Q.       E S S S S  Q.        E  E  E
|------------------------------10---------|
|------------------7s10-----------10------|
|------------------7s10--------------10---|
|----------0-0-0-0----0-------------------|
|-----------------------------------------|
|-----------------------------------------|


  Bm            E
  E  E E E  E E E  E E a  E  E E
|--------------------------------|
|--------3----------------0------|
|------4----4----------0h=1------|
|----4--------4------2-------2---|
|-2----------------2-----------2-|
|---------------0----------------|
|
| Q.     Q.     Q.     a  Q.
|--------7-----------------------|
|--------7-----------------------|
|--------7----------------9------|
|-------------------------9------|
|----------------------9h11------|
|--------------------------------|
|
| Q.     Q.     H.
|--------------------------------|
|--------------------------------|
|---------------9----------------|
|--------9------9----------------|
|--------9------7----------------|
|--------7-----------------------|


  C#            F#m       E        D       Dm
   E  E E E E E  Q.       Q.       H.       H.
|--------------------------------|---------^5------------|
|---------6-----10--------9------|-7-------^6------------|
|-----6-6---6---11--------9------|-7-------^7------------|
|-----6-6-----6-11--------9------|-7-------^7------------|
|--4--4-4--------9--------7------|-5-------^5------------|
|--------------------------------|-----------------------|
|
|  Q.     E E E  E   E  E E  E E   H.       Q.   +Q   E
|-----------9--------------------|---------^5----(5)--5--|
|-----------9--------------------|---------^6----(6)--6--|
|----------------------11------9-|-7-------^7----(7)--7--|
|-------------------11-------9---|-7-------^7----(7)-----|
|----------------9--------7------|-5-------^5----(5)-----|
|-------------9------------------|-----------------------|
|
|                                           ~~~
|  Q.     E Q    E   E  E E  E E   H.       H.
|---------9----------------------|---------^5------------|
|---------9----------------------|---------^6------------|
|----------------------11------9-|-7-------^7------------|
|-11----------------11-------9---|-7-------^7------------|
|-11-------------9--------7------|-5-------^5------------|
|--9-----------------------------|-----------------------|


 Verse
  A                    F#m7
   E  E E a   E   E  E  E  E E a   E   E  E
|-------------0--------------------0--------|
|---------0h==2---0------------0h==2---0----|
|-------2------------2--------------------2-|
|-----2----------------------4--------------|
|--0-----------------------4----------------|
|-----------------------2-------------------|
|
|  Q.         E   Q     Q.         E   Q
|-------------5-----------------------------|
|-------------5--------------------7--------|
|-------------6--------------------7--------|
|----------------------------------7--------|
|-------------------------------------------|
|-------------------------------------------|
|
| Gtr VI
|  TP         TP  TP TP TP         TP  TP TP
|  Q.        +E   E  E  Q.        +E   E  E
|-------------------12-14--------(14)-12----|
|-14--------(14)-15----------------------15-|
|-------------------------------------------|
|-------------------------------------------|
|-------------------------------------------|
|-------------------------------------------|


  D                   Dm
   E  E E a  E   E  E  E  E E   a E    E     E
|---------0h=2---0--------------0h1----0--------|
|-------3-------------------3----------------3--|
|-----2-------------2-----2---------------------|
|--0-------------------0------------------------|
|-----------------------------------------------|
|-----------------------------------------------|
|
|  Q.        E   E  E  Q    S S   S S  T T S E
|-----------------------------------------------|
|-----------------------------------------------|
|-----------11--------------------7-9--9--------|
|---------------11\---------------7-9-10p9p7-9--|
|----------------9\----5----7s9-----------------|
|-----------------------------------------------|
|
|  TP        TP        TP
|  Q.        Q.        H.
|-----------------------------------------------|
|-14--------------------------------------------|
|-----------14----------------------------------|
|---------------------12------------------------|
|-----------------------------------------------|
|-----------------------------------------------|


  A                    F#m
   E  E E a   E   E  E  E  E E a   E   E  E
|-------------0--------------------0--------|
|---------0h==2---0------------0h==2---0----|
|-------2------------2--------------------2-|
|-----2----------------------4--------------|
|--0-----------------------4----------------|
|-----------------------2-------------------|
|
|  Q.         E   Q     Q.         E   Q
|-------------5-----------------------------|
|-------------5--------------------7--------|
|-------------6--------------------7--------|
|--7-------------------------------7--------|
|-------------------------------------------|
|-------------------------------------------|
|
|  TP         TP  TP TP TP         TP  TP TP
|  Q.        +E   E  E  Q.        +E   E  E
|-12--------(12)-14-16-17--------(17)-19-21-|
|----------------15-17----------------------|
|-------------------------------------------|
|-------------------------------------------|
|-------------------------------------------|
|-------------------------------------------|


                    D
  Gtr III
    H.               S S E a E  E   E  E
|-----------------------------------------|
|-----------------------------------------|
|-----------------------------------------|
|------------------------7-7h9--7---------|
|--------------------7h9------------7--7--|
|-----------------------------------------|
|
|   Q.   a  E  E  E  Q.        +E   E  E
|-----------9-------------------------12--|
|----------10-----------------------------|
|--------9h11--------7---------(7)-/9-----|
|--------------------7---------(7)--------|
|----------------/9-----------------------|
|-----------------------------------------|
|
|   TP      TP       TP
|  +Q.      Q.       H.
|-(21)-----17-----------------------------|
|-------------------19--------------------|
|-----------------------------------------|
|-----------------------------------------|
|-----------------------------------------|
|-----------------------------------------|


 Pre-Chorus
  E                    F#m7
  Gtr I
   E  E E a  E  E  E    E  E   E   a E      E  E
|------------------------------------0-----------|
|------------0---------------------0h2------0----|
|---------0h=1---------------------------------2-|
|-------2-------2--------------4-----------------|
|-----2------------2-------4---------------------|
|--0--------------------2------------------------|
|
|                                    |-3-|
|  E  Q      E  E  E   +E  S S S S   S S S  E  E
|-----0----------------------------------------2-|
|-----0------------------------2-4---5s4p2-----2-|
|--------------------------2-4-2-4---5s4p2-------|
|---------------2----------2-4--------------4----|
|------------------------------------------------|
|--0--------/4-----2b4r(2)-----------------------|
|
|  TP
|  Q.        E  E  E    Q.           E      E  E
|------------------------------------------------|
|-17--------17-14-14---14------------------14-14-|
|------------------------------------------------|
|------------------------------------------------|
|------------------------------------------------|
|------------------------------------------------|


  G               D
   Q.     Q     E  E     E     E     Q          E
|--3------3-----3--2-----2-----2-----2----------2----|
|--3------3-----3--3-----3-----3-----3----------3----|
|--0------0-----0--2-----2-----2-----2----------2----|
|--0------0-----0--0-----0-----0-----0----------0----|
|----------------------------------------------------|
|--3------3-----3------------------------------------|
|
|  E  Q   E  E  E  S  S  S  S  S  S  S   S  E  +E
|-----3------7----------14----14----14-----14-(14)\--|
|-----3----------------------------------------------|
|-----0--/7-----7--7s14----14----14-----14-----------|
|----------------------------------------------------|
|----------------------------------------------------|
|--3-------------------------------------------------|
|
|  Q.     E  E  E  Q.                Q.
|----------------------------------------------------|
|----------------------------------------------------|
|-16--------16-16-14----------------14---------------|
|----------------------------------------------------|
|----------------------------------------------------|
|----------------------------------------------------|


  E                  F#m7
  E  E E a  E E  E    E  E   E   a E      E  E
|----------------------------------0-----------|
|-----------0--------------------0h2------0----|
|--------0h=1--------------------------------2-|
|------2------2--------------4-----------------|
|----2-----------2-------4---------------------|
|-0-------------------2------------------------|
|
|                                  |-3-|
| E  Q      E E  E   +E  S S S S   S S S  E  E
|----0---------------------------------------2-|
|----0-----------------------2-4---5s4p2-----2-|
|------------------------2-4-2-4---5s4p2-------|
|-------------2----------2-4--------------4----|
|----------------------------------------------|
|-0--------/4----2b4r(2)-----------------------|
|
| Q.        Q    E    Q.           E      E  E
|----------------------------------------------|
|----------17--------14------------------14-14-|
|---------------16-----------------------------|
|----------------------------------------------|
|----------------------------------------------|
|----------------------------------------------|


  G                D                E
   Q.      E  E  E   E   E     E     E      E     E
|--3-------3--3--3---2---------------4-----------------||
|--3-------3--3--3-------3------------------5----------||
|--0-------0--0--0-------------2------------------4----||
|--0-------0--0--0-------------------------------------||
|------------------------------------------------------||
|--3-------3--3--3-------------------------------------||
|
|  E  E  E E  E  E   E   S  S  S  S  S   S  S  S  S  S
|-----3----7-----7------14----14--------16----16----16-||
|-----3------------------------------------------------||
|-----0-/7---/7----/14-----14----14S16-----16----16----||
|------------------------------------------------------||
|------------------------------------------------------||
|--3---------------------------------------------------||
|
|                    TP              TP
|  Q.      E  E  E   Q.              Q.
|------------------------------------------------------||
|------------------------------------------------------||
|-16---------16-16--14--------------16-----------------||
|------------------------------------------------------||
|------------------------------------------------------||
|------------------------------------------------------||


 Chorus
  A                      F#m7
   E    E   E  a  E  E E E  E E a  E  E E
|-----------------0----------------0------|
|--------------0h=2--0----------0h=2--0---|
|-----------2----------2----------------2-|
|-------2---------------------4-----------|
|--0------------------------4-------------|
|------------------------2----------------|
|
|  Q       +E     Q    E Q.        E  Q
|----------------17\--------------14------|
|----------------17\--------------14------|
|-16b18---(16)--------------------14------|
|-----------------------------------------|
|-----------------------------------------|
|-----------------------------------------|
|
| Gtr V
|                 ~~~              ~~~
|  Q.             Q.     Q.        Q.
|-----------------5-----------------------|
|-----------------5---------------^2------|
|-----------------6---------------^2------|
|---------------------------------^4------|
|-----------------------------------------|
|-----------------------------------------|


  D              Dm               A               F#m7
  E  E E a E E E E  E E a E E E   E  E E a E  E E E  E E a E  E E
|--------0h2-0----------0h1-0---|----------0---------------0--------|
|------3--------------3-------3-|--------0h2--0----------0h2--0-----|
|----2---------2----2-----------|------2--------2---------------2---|
|-0--------------0--------------|----2-----------------4------------|
|-------------------------------|-0------------------4--------------|
|-------------------------------|-----------------2-----------------|
|
| Q.       E Q   Q.       E Q     Q.       E  Q   Q.       E  Q
|-------------------------5-----|----------5---------------2--------|
|-------------------------6-----|----------5---------------2--------|
|----------7--------------7-----|----------6---------------2--------|
|----------7--------------------|-----------------------------------|
|----------5--------------------|-----------------------------------|
|-------------------------------|-----------------------------------|
|
|                ~~                        ~~              ~~
| Q.       E E E H.               Q.       Q.     Q.       Q.
|----------------5--------------|----------5------------------------|
|----------------6--------------|--------------------------7--------|
|----------7-----7--------------|-----------------------------------|
|------------7------------------|-----------------------------------|
|-5------------5----------------|-----------------------------------|
|-------------------------------|-----------------------------------|


  D                A E               A               F#m7
  E  E E E E  E    E E E E E     E   E  E E a E  E E E  E E a E  E E
|----2-2-2-2--2------0-0-0-0-----0-|----------0---------------0------|
|----3-3-3-3--3------0-0-0-0-----0-|--------0h2--0----------0h2--0---|
|----2-2-2-2--2------1-1-1-1-----1-|------2--------2---------------2-|
|-0--0-0-0-0--0------2-2-2-2-----2-|----2-----------------4----------|
|------------------0-2-2-2-2-----2-|-0------------------4------------|
|--------------------0-0-0-0-----0-|-----------------2---------------|
|
|                          |-3-|
| Q.     Q    E    Q   E E S S S E   Q.       E  Q   Q.       E  Q
|----------------------------------|----------5---------------2------|
|----------------------9-9-9-9-9-9-|----------5---------------2------|
|--------7-------------9-9-9-9-9-9-|----------6---------------2------|
|--------7-------------9-9-9-9-9-9-|---------------------------------|
|--------5-------------7-7-7-7-7-7-|---------------------------------|
|----------------------------------|---------------------------------|
|
|        ~                                    ~~              ~~
| Q.     Q   +S  S E E E E E     E   Q.       Q.     Q.       Q.
|----------------------------------|----------5---------------2------|
|----------------------------------|----------5---------------2------|
|--------7---(7)---------9-9-----9-|----------6---------------2------|
|--------7---(7)---------9-9-----9-|---------------------------------|
|-5------5---(5)-7---7-7-7-7-----7-|---------------------------------|
|------------------0-0-0-0-0-----0-|---------------------------------|


  D              Dm
  E  E E a E E E  E  E E a E    E E
|--------0h2-0-----------0h1----0----|
|------3---------------3----------3--|
|----2---------2-----2---------------|
|-0---------------0------------------|
|------------------------------------|
|------------------------------------|
|
| Q.       E Q    Q.       E    E E
|------------------------------------|
|--------------------------6----6-6--|
|----------7---------------9b11-9-7--|
|----------7-------------------------|
|----------5-------------------------|
|------------------------------------|
|
|                 ~~~
| Q.       E E E  H.
|------------------------------------|
|----------7---7-^6------------------|
|----------7-7---^7------------------|
|----------7-----^7------------------|
|-5--------------^5------------------|
|------------------------------------|


  Bm            E
  E  E E E  E E E  E E a  E  E E
|-----------------------------------|
|--------3----------------0---------|
|------4----4----------0h=1---------|
|----4--------4------2-------2------|
|-2----------------2-----------2----|
|---------------0-------------------|
|
| Q.     E  Q   Q.     a  E  E S  S
|--------7--------------------------|
|--------7--------------------------|
|--------7-------------------9-9----|
|---------------9---------9--9-9h11-|
|---------------7------9h11---------|
|-----------------------------------|
|
|                         ~~~
| Q.     Q.     Q.        Q.
|--------7--------------------------|
|-------------------------9---------|
|-----------------------------------|
|-----------------------------------|
|-----------------------------------|
|-----------------------------------|


  C#            F#m       E        D          Dm
  E  E E E  E E  Q.       Q.       H.          H.
|--------------------------------|------------^5-----|
|--------6------10--------9------|-7----------^6-----|
|----6-6----6---11--------9------|-7----------^7-----|
|----6-6------6-11--------9------|-7----------^7-----|
|-4--4-4---------9--------7------|-5----------^5-----|
|--------------------------------|-------------------|
|
| Q    E Q    E  E   E  E E  E E   Q.   E E E  H.
|--------9-----------------------|-------------------|
|--------9----9--------10------9-|------------^6-----|
|----------------------11------9-|-7----------^7-----|
|-------------------11-------9---|-7----------^7-----|
|----------------9--------7------|-5----5-5-5-^5-----|
|-9----9-------------------------|-------------------|
|
|        ~~                                    ~~~
| Q.     Q.      Q.       Q.       H.          H.
|--------9-----------------------|------------^5-----|
|--------9------10--------9------|-7----------^6-----|
|---------------11--------9------|-7----------^7-----|
|---------------11--------9------|-7----------^7-----|
|----------------9--------7------|-5----------^5-----|
|--------------------------------|-------------------|


  A               F#m7             D              E
  E  E E a E  E E E  E E a E E E   E  E E a E E E  Q     Q       Q
|----------0---------------0-----|--------0h2-0----0-----0---------------||
|--------0h2--0----------0h2-0---|------3-------3--0-----0---------------||
|------2--------2--------------2-|----2------------1-----1---------------||
|----2-----------------4---------|-0---------------2-----2---------------||
|-0------------------4-----------|-----------------2-----2---------------||
|-----------------2--------------|-----------------0-----0---------------||
|
| Q.       E  Q   Q.       E Q     E  E E   E E E  Q     E   E   E   E
|----------5---------------2-----|---------------------------0---0---0---||
|----------5---------------2-----|----------3---3------------0---0---0---||
|----------6---------------2-----|----2-----2---2-/9-----9---9---9---9---||
|--------------------------------|-0----3-----0---/9-----9---9---9---9---||
|--------------------------------|----------------/7-----7---7---7---7---||
|--------------------------------|---------------------------------------||
|
|                                  Gtr III
|          ~~~~~~~~~~
| Q.       Q.     H.               H.              E E   E   E   E   E
|----------5------2--------------|---------------------------------------||
|----------5------2--------------|---------------------------------------||
|-----------------2--------------|---------------------------------------||
|-----------------4--------------|---------------------------------------||
|--------------------------------|-------------------2b3-2b3-2b3-2b3-2b3-||
|--------------------------------|---------------------------------------||


 Guitar Solo
  A                             F#m7
  E   E   E   a E   E     E     E     E E a E   E       E
|---------------0---------------------------0----------------|
|-------------0h2---0---------------------0h2---0------------|
|---------2---------------2-----------------------------2----|
|-----2---------------------------------4--------------------|
|-0-----------------------------------4----------------------|
|-------------------------------2----------------------------|
|
| Q.            Q.              Q.          Q.
|---------------5---------------------------2----------------|
|---------------5---------------------------2----------------|
|---------------6---------------------------2----------------|
|------------------------------------------------------------|
|------------------------------------------------------------|
|------------------------------------------------------------|
|
|                                                 ~~~~
| E   E   E     E   S E     +S  E     Q     S S S S    +E
|------------------------------------------------------------|
|------------------------------------------------------------|
|-----------------------------------------------2-4b6==(4)---|
|---------------------4b5---(4)-4b4.5p2-----2h4--------------|
|-2b3-2b3-2b3---2b3p0----------------------------------------|
|------------------------------------------------------------|


  D                           Dm
   E   E    E a  E      E   E E E     E a  E  E   E
|-------------0h=2------0---------------0h=1--0-------|
|-----------3-------------------------3-----------3---|
|------2--------------------2---2---------------------|
|--0--------------------------0-----------------------|
|-----------------------------------------------------|
|-----------------------------------------------------|
|
|  Q.            Q.           E Q         +E  E   E
|-----------------------------------------------------|
|-------------------------------6---------(6)-5-------|
|----------------7--------------------------------7---|
|----------------7------------------------------------|
|----------------5------------------------------------|
|-----------------------------------------------------|
|
|                                                 ~~~
| +E   Q        +S  +S  S S E E S E.       E  S S E
|-------------------------------2---------------------|
|---------------------------------------------2-5-5b7-|
|-(4)r-4b6======(4)r(4)-2-4-2-2---4b5-----------------|
|-----------------------------------------------------|
|-----------------------------------------------------|
|-----------------------------------------------------|


  A                          F#m7
  E  E    E a  E   E   E      E   E   E a E E     E
|--------------0--------------------------0------------|
|-----------0h=2---0--------------------0h2-0----------|
|---------2------------2--------------------------2----|
|----2--------------------------------4----------------|
|-0-------------------------------4--------------------|
|-----------------------------2------------------------|
|
| Q.           E   Q          Q.          E Q
|--------------5--------------------------2------------|
|--------------5--------------------------2------------|
|--------------6--------------------------2------------|
|------------------------------------------------------|
|------------------------------------------------------|
|------------------------------------------------------|
|
|    ~~~~
|                                           |-3-| |3|
| E  Q        +E   S S E     +E   E   E   E S S S E S
|----7b9======(7)r-5---8b10==(8)r-7b9-7---5-----5-5-5--|
|--------------------5----------------------5h7--------|
|------------------------------------------------------|
|------------------------------------------------------|
|------------------------------------------------------|
|------------------------------------------------------|


  D5                           E5
  E     E   E     E    E     E  E     E        E     E     E     E
|---------------------------------------------------------------------|
|---------------------------------------------------------------------|
|-2-----2---2-----2----2-----2--4-----4--------4-----4-----4-----4----|
|-0-----0---0-----0----0-----0--2-----2--------2-----2-----2-----2----|
|---------------------------------------------------------------------|
|---------------------------------------------------------------------|
|
| Q.              Q.            E     E        E     E     E     E
|-------------------------------------4--------------4-----------4----|
|-------------------------------------0--------------0-----------0----|
|-----------------7------------/4-------------/4----------/4----------|
|-----------------7---------------------------------------------------|
|-----------------5---------------------------------------------------|
|---------------------------------------------------------------------|
|
| |-3-| |3| |-3-| |3-| |-3-|          |--3--|
| S S S E S S S S E  S S S S E  S  S  S  S  S  S  S  S  S  S  S  S  S
|-----5-5-5-----5-5--5-----5-5S10----10-------10----10----10----10----|
|-5h7-------5h7--------5h7-----10----10-------------------------------|
|---------------------------------10----10-10----10----10----10----10-|
|---------------------------------------------------------------------|
|---------------------------------------------------------------------|
|---------------------------------------------------------------------|


     A                                 F#m7
      E  E     E        a  E    E   E   E           E   E a  E     E       E
|--------------------------0---------------------------------0----------------|
|-----------------------0h=2----0-------------------------0h=2-----0----------|
|--------------2--------------------2--------------------------------------2--|
|--------2----------------------------------------------4---------------------|
|-----0---------------------------------------------4-------------------------|
|---------------------------------------2-------------------------------------|
|
|     Q       +E           E    Q       Q.                   E     Q
|--------------------------5---------------------------------2----------------|
|--------------------------5---------------------------------2----------------|
|-----4-------(4)b6------------------------------------------2----------------|
|-----------------------------------------------------------------------------|
|-----------------------------------------------------------------------------|
|-----------------------------------------------------------------------------|
|
|                                           ~~~~~~~~~~~~              ~~~~~
|  a  E  S  S  S     S  a  Q       +E   S   S      +Q        S  S  S  E.
|-10s17-17----17-------17h20b22r==(20)-14-------------------14----------------|
|-10s17----17-------17---------------------17b19==(17)r--------17-14----------|
|--------------------------------------------------------------------16b18----|
|-----------------------------------------------------------------------------|
|-----------------------------------------------------------------------------|
|-----------------------------------------------------------------------------|


  D                                              Dm
  E   E     E    a  E             E     E          E    E      E    a  E    E E
|----------------0h=2-------------0---------------------------------0h=1----0---|
|-----------3--------------------------------------------------3--------------3-|
|-----2---------------------------------2---------------2-----------------------|
|-0------------------------------------------------0----------------------------|
|-------------------------------------------------------------------------------|
|-------------------------------------------------------------------------------|
|
| Q.                E             Q                E    Q              Q.
|-------------------------------------------------------------------------------|
|-------------------------------------------------------6--------------6--------|
|-------------------7-----------------------------------7--------------7--------|
|-------------------7-----------------------------------7--------------7--------|
|-------------------5-----------------------------------------------------------|
|-------------------------------------------------------------------------------|
|
|                                                  ~~~~~               ~~~~~
| E   S  S  S  S    E     a      +S   E    S      +E   +S   S  S  S    Q.
|-------------------------------------------------------------------------------|
|-----------------------------------------17b19==(17)r(17)p14----14-------------|
|----------14-16---14b16-14pb16r(14)--------------------------16------16b18-----|
|----14h16---------------------------16-----------------------------------------|
|-------------------------------------------------------------------------------|
|-------------------------------------------------------------------------------|


  A                                                    F#m7
  E   E        E       a  E        E        E            E  E E a  E    E E
|-------------------------0----------------------------------------0--------|
|----------------------0h=2--------0----------------------------0h=2----0---|
|--------------2----------------------------2-----------------------------2-|
|-----2-------------------------------------------------------4-------------|
|-0---------------------------------------------------------4---------------|
|--------------------------------------------------------2------------------|
|
| Q.                      E        Q                     Q.        E    Q
|-------------------------5----------------------------------------2--------|
|-------------------------5----------------------------------------2--------|
|-------------------------6----------------------------------------2--------|
|---------------------------------------------------------------------------|
|---------------------------------------------------------------------------|
|---------------------------------------------------------------------------|
|
|     |--3--|  |--3--|    |--3--|  |--3--|  |--3--|
| E   S  S  S  S  S  S    S  S  S  S  S  S  S  S  S     +Q.        Q.
|----17----17----17------17----17-17----17----17-21b24-(21)-------21b24-----|
|-------17----17----17------17-------17----17-------------------------------|
|---------------------------------------------------------------------------|
|---------------------------------------------------------------------------|
|---------------------------------------------------------------------------|
|---------------------------------------------------------------------------|


    D                                      E
  a  E          E. S E  E        S     S a  E        E        E        E        E        E
|---------------------------------------------------------------------------------------------||
|---------------7--7----7--------7-----7-------------9--------------------------9-------------||
|---------------7--7----7--------7-----7-------------9--------9--------9--------9--------9----||
|---------------7--7----7--------7-----7-------------9--------9--------9--------9--------9----||
|-7s=9---------------9-------------------9s11----------------11-------11----------------11----||
|---------------------------------------------------------------------------------------------||
|
|    Q.              Q           E          E        E        E        E        E        E
|---------------------------------------------------------------------------------------------||
|---------------------------------------------------------------------------------------------||
|--------------------7-----------7----------9--------9--------9--------9--------9--------9----||
|--------------------7-----------7----------9--------9--------9--------9--------9--------9----||
|--------------------5-----------5----------7--------7--------7--------7--------7--------7----||
|-------------------------------------------0--------0--------0--------0--------0--------0----||
|
|                                                                                        ~~~~~
|                       |--3--|
|    S     +S   Q    E  E     S  S     S    S     S  S     S  S     S  S     S  S     S  E
|---21b24r(21)-17-----------------------------------------------------------------------------||
|----------------------------17-------17---------17-------17-------17-------17-------17-------||
|----------------------19b21----19b21------19b21----19b21----19b21----19b21----19b21----19b21-||
|---------------------------------------------------------------------------------------------||
|---------------------------------------------------------------------------------------------||
|---------------------------------------------------------------------------------------------||


 Bridge
  F#m                        E                    D
   Q     E    E      E  E      E  E E   E  E  E     E      E E E S S S S   E   E E E  E E
|-----------------------------------------------|-------------------------------------------|
|-10----10---10-----10-10------9--9-9---9--9--9s|===7------7-7-7-7-7-7-7---7---7-7-7--7-7---|
|-11----11---11-----11-11------9--9-9---9--9--9s|===7------7-7-7-7-7-7-7---7---7-7-7--7-7---|
|-11----11---11-----11-11------9--9-9---9--9--9s|===7------7-7-7-7-7-7-7---7---7-7-7--7-7---|
|--9-----9----9------9--9------7--7-7---7--7--7s|===5------5-5-5-5-5-5-5---5---5-5-5--5-5---|
|-----------------------------------------------|-------------------------------------------|
|
|  Q    +E    Q.               H.                   W
|-----------------------------------------------|-------------------------------------------|
|-----------------------------------------------|-------------------------------------------|
|-11---(11)\------------------------------------|-------------------------------------------|
|-11---(11)\------------------------------------|-------------------------------------------|
|--9----(9)\------------------------------------|-------------------------------------------|
|-----------------------------------------------|-------------------------------------------|
|
|                              ~~~~~~~~~~~~
|  Q.         Q.           a  +Q.      +Q     E    +H.                    +Q.      Q.
|-----------------------------------------------|-------------------------------------------|
|------------17b19========17r(17)-----(17)---14-|-(14)b15================(14)r--------------|
|-----------------------------------------------|-------------------------------------------|
|-----------------------------------------------|-------------------------------------------|
|-----------------------------------------------|-------------------------------------------|
|-----------------------------------------------|-------------------------------------------|


  F#m                       E
   E   E  E  E      E  E      E             E             E           E E  E
|----------------------------------------------------------------------------|
|-10--10-10-10-----10-10------9-------------9-------------9-----------9-9--9-|
|-11--11-11-11-----11-11------9-------------9-------------9-----------9-9--9-|
|-11--11-11-11-----11-11------9-------------9-------------9-----------9-9--9-|
|--9---9--9--9------9--9------7-------------7-------------7-----------7-7--7-|
|----------------------------------------------------------------------------|
|
| Gtr VI
|  TP
|  W.
|----------------------------------------------------------------------------|
|-10-------------------------------------------------------------------------|
|----------------------------------------------------------------------------|
|----------------------------------------------------------------------------|
|----------------------------------------------------------------------------|
|----------------------------------------------------------------------------|
|
|  Q.        Q.           a  +S       +S   +S       +S   +S      +S   Q    E
|----------------------------------------------------------------------------|
|-----------17b19========17r(17)b19==(17)r(17)b19==(17)r(17)b19-(17)-17---14-|
|----------------------------------------------------------------------------|
|----------------------------------------------------------------------------|
|----------------------------------------------------------------------------|
|----------------------------------------------------------------------------|


                       Chorus
  D                     A                 F#m7
 6/8                   12/8
  Gtrs I, II            Gtr I
    E     E E E  E E    E  E E a E E  E   E  E E a E  E E
|--------------------||----------0-----------------0------|
|---7-----7-7-7--7-7-||--------0h2-0-------------0h2--0---|
|---7-----7-7-7--7-7-||------2--------2-----------------2-|
|---7-----7-7-7--7-7-||----2-------------------4----------|
|---5-----5-5-5--5-5-||-0--------------------4------------|
|--------------------||-------------------2---------------|
|
|                       Gtr II
|  +Q.        Q.        Q.       Q   +E   Q.       Q.
|--------------------||----------5---(5)\----------2------|
|-(10)---------------||----------5---(5)\----------2------|
|--------------------||-2--------------------------2------|
|--------------------||-2---------------------------------|
|--------------------||-0---------------------------------|
|--------------------||-----------------------------------|
|
|                       Gtr V
|                                ~                 ~~
|  +H.                  Q.       Q   +E   Q.       Q.
|--------------------||----------5---(5)\----------2------|
|-(14)b15------------||----------5---(5)\----------2------|
|--------------------||----------6---(6)\----------2------|
|--------------------||-----------------------------------|
|--------------------||-----------------------------------|
|--------------------||-----------------------------------|


  D               Dm                    A               F#m7
  E  E E a E  E E E  E E a E    E   E   E  E E a E  E E E  E E a E  E E
|--------0h2--0----------0h1----0-----|----------0---------------0------|
|------3---------------3------------3-|--------0h2--0----------0h2--0---|
|----2----------2----2----------------|------2--------2---------------2-|
|-0---------------0-------------------|----2-----------------4----------|
|-------------------------------------|-0------------------4------------|
|-------------------------------------|-----------------2---------------|
|
| Q.       Q.     Q.     a E  a E a E   Q.       Q.     Q.       Q.
|--------------------------5----5---5-|----------5---------------2------|
|------------------------5h6--5h6-5h6-|----------5---------------2------|
|----------7---------------7----7---7-|----------6---------------2------|
|----------7--------------------------|---------------------------------|
|----------5--------------------------|---------------------------------|
|-------------------------------------|---------------------------------|
|
|          ~~~~~~~~~~~~~~~~~~~                   ~~              ~~
| Q.       Q.     Q.       Q.           Q.       Q.     Q.       Q.
|-----------------5--------5----------|----------5---------------2------|
|----------7------6--------6----------|----------5---------------2------|
|----------7------7--------7----------|----------6---------------2------|
|----------7--------------------------|---------------------------------|
|-------------------------------------|---------------------------------|
|-------------------------------------|---------------------------------|


  D                     E
  E  S S S S E  S S S S E   S   S S S   E  S S  S S
|----------------------------------------------------|
|-7--7-7-7-7-7--7-7-7-7S9---9---9-9-9---9--9-9--9-9--|
|-7--7-7-7-7-7--7-7-7-7S9---9---9-9-9---9--9-9--9-9--|
|-7--7-7-7-7-7--7-7-7-7S9---9---9-9-9---9--9-9--9-9--|
|-5--5-5-5-5-5--5-5-5-5S7---7---7-7-7---7--7-7--7-7--|
|----------------------------------------------------|
|
| Q.         Q.         E   E     E     E  E    E
|---------------------------------0------------12----|
|---------------------------------0-------12---------|
|------------7----------9---9-----9---/13------------|
|------------7----------9---9-----9------------------|
|------------5----------7---7-----7------------------|
|----------------------------------------------------|
|
|            ~~
| Q.         Q.         E   E     E     E  E    E
|----------------------------------------------------|
|----------------------------------------------------|
|------------7---------------------------------------|
|------------7---------------------------------------|
|------------5----------2b3-2b3---2-----2--2----0----|
|----------------------------------------------------|


  A                   F#m7                  D                Dm
  E  E E a  E E   E   E  E E a  E E   E     E  E E a  E  E E   E  E E a E E E
|-----------0-------------------0---------|--------0h=2--0------------0h1-0---|
|--------0h=2-0--------------0h=2-0-------|------3------------------3-------3-|
|------2----------2-------------------2---|----2-----------2------2-----------|
|----2---------------------4--------------|-0------------------0--------------|
|-0----------------------4----------------|-----------------------------------|
|---------------------2-------------------|-----------------------------------|
|
| Q.        Q    +E   Q.        Q     E     Q.        Q.       Q.     a E E E
|-----------5----(5)\-----------2---------|-----------------------------5-----|
|-----------5----(5)\-----------2-----2---|---------------------------5h6-5---|
|-----------6----(6)\-----------2---------|-----------7---------------------7-|
|-----------------------------------------|-----------7-----------------------|
|-----------------------------------------|-----------5-----------------------|
|-----------------------------------------|-----------------------------------|
|
|           ~~                  ~~                    ~~~~~~~~~~~~
| Q.        Q    +E   Q.        Q    +E     Q.        Q.       H.
|----------17---(17)\----------14---(14)\-|----------10------^10--------------|
|----------17---(17)\----------14---(14)\-|----------10------^10--------------|
|----------18---(18)\----------14---(14)\-|----------10------^10--------------|
|-----------------------------------------|----------12------^12--------------|
|-0---------------------------------------|-----------------------------------|
|-----------------------------------------|-----------------------------------|


  A                   F#m7
  E  E E a  E E   E   E  E E a  E E   E
|-----------0-------------------0-----------|
|--------0h=2-0--------------0h=2-0---------|
|------2----------2-------------------2-----|
|----2---------------------4----------------|
|-0----------------------4------------------|
|---------------------2---------------------|
|
| Q.        Q    +E   Q.        Q    +E
|----------17---(17)\----------14---(14)\---|
|----------17---(17)\----------14---(14)\---|
|----------18---(18)\----------14---(14)\---|
|-------------------------------------------|
|-------------------------------------------|
|-------------------------------------------|
|
|                               ~~
| Q.        Q    +E   Q.        Q    +E
|----------17---(17)\----------14---(14)\---|
|----------17---(17)\----------14---(14)\---|
|----------18---(18)\----------14---(14)\---|
|-------------------------------------------|
|-------------------------------------------|
|-------------------------------------------|


  E  E S S E  E S S   E  E     E     E          S  S  S S
|---------------------------------------------------------||
|----7-7-7----7-7-7---------------------------------------||
|----7-7-7----7-7-7------9-----9----------------9--9--9-9-||
|----7-7-7----7-7-7------9-----9----------------9--9--9-9-||
|-5--5-5-5-5--5-5-5-/11-------------11--------------------||
|---------------------------------------------------------||
|
| Q.       Q.         E  S  S  S  S  S     S    S  S  E
|-----------------------12----14----14---------------16---||
|---------------------------------------------------------||
|----------7--------/13----14----14-------14---14s16------||
|----------7----------------------------------------------||
|----------5----------------------------------------------||
|---------------------------------------------------------||
|
|                                    |---3---|
| Q.       Q.         E  S  S  E     S  S    S  E     E
|---------------------------------------------------------||
|---------------------------------------------------------||
|----------7----------------------------------------------||
|----------7-------------9-----9-----9h11p===9--------9---||
|----------5--------/11----11------------------11---------||
|---------------------------------------------------------||


 Outro
  A              F#m7             D              Dm
  E  E E a E E E E  E E a E E E   E  E E a E E E   E  E E  a  E  E  E
|----------0--------------0-----|--------0h2-0-------------0h=1--0--------|
|--------0h2-0----------0h2-0---|------3----------------3-----------3-----|
|------2-------2--------------2-|----2---------2------2-------------------|
|----2----------------4---------|-0----------------0----------------------|
|-0-----------------4-----------|-----------------------------------------|
|----------------2--------------|-----------------------------------------|
|
| Q.       Q   E Q.       Q   E   Q.       Q   E   E  Q    a  E  E  E
|----------5---5----------2---2-|-----------------------------------------|
|----------5---5----------2---2-|--------------------------5h=6--5--------|
|----------6---6----------2---2-|----------7---7------7-------------7-----|
|-------------------------------|----------7---7------7-------------------|
|-------------------------------|-5----------------5----------------------|
|-------------------------------|-----------------------------------------|
|
|                                 Gtr III
| W                               H.               E  Q    a  E  E  S  S
|-------------------------------|--------------------17---------19--------|
|-------------------------------|-----------------------------------------|
|-------------------------------|----------------/17------17s19----19s21--|
|-------------------------------|-----------------------------------------|
|-------------------------------|-----------------------------------------|
|-------------------------------|-----------------------------------------|


   E  E E a  E   E  E          E  E   E  a   E   E      E
|------------0-------------------------------0-------------|
|---------0h=2---0-----------------------0h==2---0---------|
|-------2-----------2-----------------------------------2--|
|-----2-------------------------------4--------------------|
|--0------------------------------4------------------------|
|------------------------------2---------------------------|
|
|  Q.        Q.                Q.            Q          E
|------------5-------------------------------2----------2--|
|------------5-------------------------------2----------2--|
|------------6-------------------------------2----------2--|
|----------------------------------------------------------|
|----------------------------------------------------------|
|----------------------------------------------------------|
|
|  ~~~
|  Q.        E   E  S  S      +Q     +E     +E   E     +E
|-21-------------------------------------------------------|
|----------------------------------------------------------|
|-----------18--19-21-21b23==(21)r==(21)---(21)-19b21-(19)-|
|----------------------------------------------------------|
|----------------------------------------------------------|
|----------------------------------------------------------|


   E    S S S S E  S S S S a  E         E   E        E        E     E
|-----------------------------------------------------------------------|
|-------7-7-7-7----7-7-7-7--------------9---------------------9---------|
|-------7-7-7-7----7-7-7-7-7s=9---------9---9--------9--------9-----9---|
|-------7-7-7-7----7-7-7-7-7-(7)--------9---9--------9--------9-----9---|
|-/9------------9----------9s11------------11-------11-------------11---|
|-----------------------------------------------------------------------|
|
|                             TP
|  Q.           Q.            Q             S  S  a  S  S  a  S  S  E
|---------------------------------------------12-------14-------16------|
|-----------------------------------------------------------------------|
|---------------7-------------9-----------/13----13s14----14s16----16---|
|--7------------7-------------9-----------------------------------------|
|--5--------------------------7-----------------------------------------|
|-----------------------------------------------------------------------|
|
|                                                                   ~~~
|  H.                         S      S  E   S  S     E        S  S  E
|-22b24----------------------22b24==22-22--22-22----22-------22-22-22r--|
|-----------------------------------------------------------------------|
|-----------------------------------------------------------------------|
|-----------------------------------------------------------------------|
|-----------------------------------------------------------------------|
|-----------------------------------------------------------------------|


  A                F#m7
   E  E E a E  E E E  E E E   E      E
|-----------0--------------------------|
|---------0h2--0----------4b5-2--------|
|-------2--------2--------4b5-2--------|
|-----2-----------------4------------4-|
|--0------------------4----------------|
|------------------2-------------------|
|
|  Q.       Q    E Q.     E.    +S   E
|-----------5----5--------2-----(2)\---|
|-----------5----5--------2-----(2)\---|
|-----------6----6--------2-----(2)\---|
|--------------------------------------|
|--------------------------------------|
|--------------------------------------|
|
|  E  Q     Q.     H.
|-22\----------------------------------|
|--------------------------------------|
|--------------------------------------|
|--------------------------------------|
|--------------------------------------|
|--------------------------------------|


  D                   Dm
   E  E. S E E  S   S E  E E    E  E   E
|-----------------------------------------|
|-----7--7---7--7---7---------------------|
|-----7--7---7--7---7------7---10-10------|
|-----7--7---7--7---7----7-------------7--|
|-/9-------9----------8-------------------|
|-----------------------------------------|
|
|  Q.      Q   +E     Q.     a  E  s s E
|-------------------------------5--5-5----|
|----------------------------5h=6--6-6----|
|----------7---(7)\-------------7--7-7----|
|----------7---(7)\-----------------------|
|----------5---(5)\-----------------------|
|-----------------------------------------|
|
|  W
|-----------------------------------------|
|-----------------------------------------|
|-----------------------------------------|
|-----------------------------------------|
|-----------------------------------------|
|-----------------------------------------|


  A                           F#m7
   E    E E a  E  E   E       E  E   E    S S  Q
|--------------0--------------------------0--------|
|-----------0h=2--0-----------------------2p0------|
|---------2------------------------------------2---|
|-------2-------------2--------------4-------------|
|--0-----------------------------4-----------------|
|-----------------------------2--------------------|
|
|  Q.          Q.             Q.          Q.
|-------------17\------------------------14--------|
|-17-------------------------------------14--------|
|-16b18----------------------------------14--------|
|--------------------------------------------------|
|--------------------------------------------------|
|--------------------------------------------------|
|
|  Q.          E  S S S   +S  E  S S S S  S S +Q
|-----------------5---7b9-(7)----5-----2-----------|
|-------------------5--------------5s2----2--------|
|-------------------------------------------2-(2)--|
|--------------------------------------------------|
|--------------------------------------------------|
|--------------------------------------------------|


  D                        E
   E  E.     S  E  S S S S   E   S S   S S  E.     S  E
|--------------------------------------------------------|
|-----7------7--7--7-7-7-7-------9-9---9-9--9------9--9--|
|-----7------7--7--7-7-7-7-------9-9---9-9--9------9--9--|
|-----7------7--7--7-7-7-7-------9-9---9-9--9------9--9--|
|-/9-----------------------/11---------------------------|
|--------------------------------------------------------|
|
|  Q       E    Q.           E   E     E    E    E    E
|--------------10---------------12---------12--------12--|
|--------------10----------------------------------------|
|--------/11---------------/13-------/14-------/16-------|
|--------------------------------------------------------|
|--------------------------------------------------------|
|--------------------------------------------------------|
|
|               ~~~~~~~~~~~~~~~~
|  Q.           Q.           H.
|--------------10----------^10---------------------------|
|--------------10----------^10---------------------------|
|--------------11----------^10---------------------------|
|--------------------------------------------------------|
|--------------------------------------------------------|
|--------------------------------------------------------|


  A                          F#m7
   E  E   E     a  E E   E   E  E E a  E E   E
|------------------0-------------------0---------|
|---------------0h=2-0--------------0h=2-0-------|
|---------2--------------2-------------------2---|
|-----2---------------------------4--------------|
|--0----------------------------4----------------|
|----------------------------2-------------------|
|
|  Q     +E        Q    +E   Q.        Q    +E
|-----------------17---(17)\----------14---(14)\-|
|-----------------17---(17)\----------14---(14)\-|
|-16----(16)b18-----------------------14---(14)\-|
|------------------------------------------------|
|------------------------------------------------|
|------------------------------------------------|
|
|                  ~~                  ~~
|  Q.              Q    +E   Q.        Q    +E
|-----------------17---(17)\----------14---(14)\-|
|------------------------------------------------|
|------------------------------------------------|
|------------------------------------------------|
|------------------------------------------------|
|------------------------------------------------|


  D                Dm                                     A                 F#m7
  E  E E a  E  E E E   E     E    a  E   E     E          E  E E a E E  E    E  E E a E   E   E
|--------0h=2--0------------------0h=1---0--------------|----------0------------------0-----------*|
|------3---------------------3-----------------3--------|--------0h2-0--------------0h2---0-------*|
|----2-----------2-----2--------------------------------|------2--------2---------------------2---*|
|-0----------------0------------------------------------|----2--------------------4---------------*|
|-------------------------------------------------------|-0---------------------4-----------------*|
|-------------------------------------------------------|--------------------2--------------------*|
|
|                                        ~~~~~~
| Q.        Q.     E   S  S  S  S    E   E.       +S      Q.       Q   +E    Q.       E  +E   E
|----------10---------------10--------------------------|----------5---(5)\-----------2--(2)/-----*|
|----------10------------10----10-------15-------(15)\--|----------5---(5)\-----------2--(2)/-----*|
|----------11---------10------------10/-17b19====(17)r\-|----------6---(6)\-----------2--(2)/-----*|
|-------------------------------------------------------|-----------------------------------------*|
|-------------------------------------------------------|-----------------------------------------*|
|-------------------------------------------------------|-----------------------------------------*|
|
|           ~~~                                                              ~~~
| Q.        Q.     H.                                     Q.       Q    E    Q.       Q.
|----------10-------------------------------------------|--------------------9--------------------*|
|----------10-------------------------------------------|-----------------------------------------*|
|----------11-------------------------------------------|--------------/9---(9)-------------------*|
|-------------------------------------------------------|-----------------------------------------*|
|-------------------------------------------------------|-----------------------------------------*|
|-------------------------------------------------------|-----------------------------------------*|



Duration Legend
---------------
W - whole; H - half; Q - quarter; E - 8th; S - 16th; T - 32nd; X - 64th; a - acciaccatura
+ - note tied to previous; . - note dotted; .. - note double dotted
Uncapitalized letters represent notes that are staccato (1/2 duration)
Irregular groupings are notated above the duration line
Duration letters will always appear directly above the note/fret number it represents the
duration for.  Duration letters with no fret number below them represent rests.  Multi-
bar rests are notated in the form Wxn, where n is the number of bars to rest for.  Low
melody durations appear below the staff

Tablature Legend
----------------
 h   - hammer-on
 p   - pull-off
 b   - bend
 pb  - pre-bend
 r   - bend release (if no number after the r, then release immediately)
 /\  - slide into or out of (from/to "nowhere")
 s   - legato slide
 S   - shift slide
<n> - natural harmonic
[n]  - artificial harmonic
n(n) - tapped harmonic
 ~   - vibrato
 tr  - trill
 T   - tap
 TP  - trem. picking
 PM  - palm muting
\n/  - tremolo bar dip; n = amount to dip
 \n  - tremolo bar down
 n/  - tremolo bar up
/n\  - tremolo bar inverted dip
 =   - hold bend; also acts as connecting device for hammers/pulls
 <> - volume swell (louder/softer)
 x   - on rhythm slash represents muted slash
 o   - on rhythm slash represents single note slash

Misc Legend
-----------
 |  - bar
||  - double bar
||o - repeat start
o|| - repeat end
*|  - double bar (ending)
 :  - bar (freetime)
 $  - Segno
 &  - Coda
Tempo markers - <E/E./Q/Q./H/H.> = BPM(8/16=s8/s16), where s8 = swing 8ths, s16 = swing 16ths

comments
We did not receive enough feedback on this tab! Please rate:
print report bad tab
1 2 3 4 5
I want to post or [tab]
guest
You may want to rate the tab now too:
select rating
Please do not post tabs as comments. Select "correction" instead!