Oops, an error
Loading. Please wait.

Cryin Tab

ver2
ver2

Solo

Whole song

Interactive

More versions @911Tabs.com
15,944 views 79 this week
2 commentsread comments
1 2 3 4 5
excellent!
x 4
add to favorites launch autoscroll
font size
0
reset
Autoscroll
+/-
esc
set tempo
stop
Contributor
WARNING: You are trying to view
                                    content from Ultimate-Guitar.com
                                    in an unauthorized application,
                                    which is prohibited.

                                    Please use an official Ultimate
                                    Guitar Tabs application for iPhone,
                                    iPad or Android to access legitimate
                                    chords, guitar, bass, and drum tabs
                                    from Ultimate-Guitar.com database.

                                    Type "ultimate guitar tabs" in Apple
                                    App Store's or Android Market's
                                    search to find the application.
#----------------------------------PLEASE NOTE---------------------------------#
#This file is the author's own work and represents their interpretation of the #
#song. You may only use this file for private study, scholarship, or research. #
#------------------------------------------------------------------------------#

CRYIN'
As recorded by Aerosmith
(From the 1993 Album GET A GRIP)


Transcribed by Unregistered	



Bb5
x 1 3 3 x x
	
C5
x 3 5 5 x x
	
F5
1 3 3 x x x
	
G5
3 5 5 x x x
Eb5
x 6 8 8 x x
	
Bb5VI
6 8 8 x x x
	
Ab5
4 6 6 x x x
	
E5
0 7 9 9 x x

Gtr I (E A D G B E) - 'Untitled'
Gtr II (E A D G B E) - 'Untitled'
Gtr III (E A D G B E) - 'Untitled'
Gtr IV (E A D G B E) - 'Untitled'

 Intro
  Moderately Slow Rock Q.=70
             BbC5F5  G5                                    BbC5F5
 12/8
  Gtr II
  W        E E E E   E  E     E    E     E        E  E E E E E E
             | | |   |  |     |    |     |        |  |     | | |
             / / /   /  /     /    /     /        /  /     / / /

  Gtr I
                              ~~~~~~~~~~~         ~~~~~
  W        E E E E   E  E     E    E    +E       +E  E E E E E E
|------------------|---------------------------------------------|
|------------------|---------------------------------------------|
|------------3-5---|----5b7---5pb7-5pb7r(5)pb6r==(5)-3-----3-5-0-|
|----------------3-|---------------------------------------------|
|------------------|---------------------------------------------|
|------------------|---------------------------------------------|
|
| Gtr III
| W        E E E E   E.     S E    E.          S  E  E E E E E E
|------------------|-3------3-3----3-----------3--3--3-----------|
|------------------|-3------3-3----3-----------3--3--3-----------|
|------------3-5---|---------------------------------------3-5---|
|------------3-5-3-|---------------------------------------3-5-3-|
|------------1-3-3-|---------------------------------------1-3-3-|
|----------------1-|-------------------------------------------1-|


  G5                                     BbC5F5
  E  E     E    E        E   E E   E E   E E E
  |  |     |    |        |   | |         | | |
  /  /     /    /        /   / /         / / /

           ~~~~          ~~~~~~    ~~
  E  E     E    S    +S  E   E S S E.  S E E E
|----------------------------------------------|
|----------------------------------------------|
|----5b7---5pb7-5pb7r(5)-5---5-3h5-3p==0-3-5---|
|--------------------------------------------3-|
|----------------------------------------------|
|----------------------------------------------|
|
| E.     S E    E.         S E E   E E   E E E
|-3------3-3----3----------3-3-3---------------|
|-3------3-3----3----------3-3-3---------------|
|----------------------------------------3-5---|
|----------------------------------------3-5-3-|
|----------------------------------------1-3-3-|
|--------------------------------------------1-|


  G5            F5                    BbC5F5
  E  E     E    E    E       E  E E E E E E
  |  |     |    |    |       |  |     | | |
  /  /     /    /    /       /  /     / / /

           ~~~~~~~~~~~~~~~~~~~~~~~
  E  E     E    E    E      +E  E E E E E E
|-------------------------------------------|
|-------------------------------------------|
|----5b7---5pb7-5pb7-5pb7r==(5)-3-----3-5-0-|
|-------------------------------------------|
|-------------------------------------------|
|-------------------------------------------|
|
| E.     S E    E.        S  E  E E E E E E
|-3------3-3----3---------3--3--3-----------|
|-3------3-3----3---------3--3--3-----------|
|-------------------------------------3-5---|
|-------------------------------------3-5-3-|
|-------------------------------------1-3-3-|
|-----------------------------------------1-|


  G5                                   Bb5
  E  E     E      E    E     E         E  E    E     E  E  E
  |  |     |      |    |     |         |  |    |     |  |  |
  /  /     /      /    /     /         /  /    /     /  /  /

           ~~~~~~~~~~~~~~~~~~          ~~            ~~~
  E  E     E      E    E    +S     +S  Q      +S  S +Q     S   S
|----------------------------------------------------------------||
|----------------------------------------------------------------||
|----5b7---5pb7---5pb7-5pb7r(5)pb6r(5)-5------(5)p3-(3)----------||
|----------------------------------------------------------5s==7-||
|----------------------------------------------------------------||
|----------------------------------------------------------------||
|
| E.     S S    S Q          E         E.   S  E     Q    +E
|-3------3-3----3-3----------3S========6----6--6-----6----(6)\---||
|-3------3-3----3-3----------3S========6----6--6-----6----(6)\---||
|----------------------------------------------------------------||
|----------------------------------------------------------------||
|----------------------------------------------------------------||
|----------------------------------------------------------------||


 Verse
  A           E             F#m         C#m           D           A
  Gtr II
  E E E E E E E E E E E E   E E E E E E E E E E E E   E E E E E E E E E E E E
|-------0-----------0-----|-------------------------|-------2-----------0-----|
|---------2-----------0---|-------2-----------5-----|-----3---3-------2---2---|
|-----2-----2-----1-----0-|-----2---2-------6---6---|---2-------2---2-------0-|
|---2-----------2---------|---4-------4---6-------6-|-0-----------------------|
|-0-----------------------|-------------4-----------|-------------0-----------|
|-------------0-----------|-2-----------------------|-------------------------|
|
| Gtr IV
| E E E E E E E E E E E E   E E E E E E E E E E E E   E E E E E E E E E E E E
|-------0-----------0-----|-----2-----2-----------4-|-------2-----------0-----|
|-----------------0---0---|-------2-----------5-----|-----3---3---------------|
|-----2---2-----4-------0-|---------2-------6---6---|---2-------0-----2---2---|
|---2-------0-2-----------|---------------6---------|-0-------------2-------2-|
|-0-----------------------|---4---------4-----------|-------------0-----------|
|-------------------------|-2-----------------------|-------------------------|


  E                         A           E             F#m         C#m
  E E E E E E E E E E E E   E E E E E E E E E E E E   E E E E E E E E E E E E
|-------0-----------0-----|-------0-----------0-----|-------------------------|
|---------0-----------0---|---------2-----------0---|-------2-----------5-----|
|-----1-----1-----1-----0-|-----2-----2-----1-----0-|-----2---2-------6---6---|
|---2-----------2---------|---2-----------2---------|---4-------4---6-------6-|
|-------------------------|-0-----------------------|-------------4-----------|
|-0-----------0-----------|-------------0-----------|-2-----------------------|
|
| E E E E E E E E E E E E   E E E E E E E E E E E E   E E E E E E E E E E E E
|-------0-----------0-----|-------0-----------0-----|-----2-----2-------------|
|---0-0---0-0---0-0---0---|---------2-----0-0---0---|-------2-----------5-----|
|-----------------------0-|-----2-----------------0-|---------2-------6---6---|
|-2-----------------------|---2-------2-2-----------|---------------6-------6-|
|-------------------------|-0-----------------------|---4---------4-----------|
|-------------0-----------|-------------------------|-2-----------------------|


                                                      Pre-Chorus
  D           A             E                          G           D
  E E E E E E E E E E E E   E E E E E E E E E E E E    E E E E E E E E E E E E
|-------2-----------0-----|-------0-----------0-----||-------3-----------2-----|
|-----3---3-----------2---|---------0-----------0---||---------3-------3---3---|
|---2-------0-----2-------|-----1-----1-----1-----0-||-----0-----0---2-------0-|
|-0-------------2-------0-|---2-----------2---------||---0---------0-----------|
|-------------0-----------|-------------------------||-------------------------|
|-------------------------|-0-----------0-----------||-3-----------------------|
|
| E E E E E E E E E E E E   E E E E E E E E E E Q      Q   E E E E Q   E E E E
|-------2-----------0-----|-------0-----5---4-4-----||-------------------------|
|-----3---3---------------|-----0---0-----0-----0---||-------------------------|
|---2-------0-----2---2---|---4-------4-------------||-----------------------7-|
|-0-------------2-------2-|-2-----------------------||-------------7---7-7---7-|
|-------------0-----------|-------------------------||-5---5-----5-5---5-8h9---|
|-------------------------|-------------------------||-3---3-6-7---------------|


  G           D             C           G
  E E E E E E E E E E E E   E E E E E E E E E E E E
|-------3-----------2-----|-------------------3-----|
|---------3-------3---3---|-------1-------------3---|
|-----0-----0---2-------0-|-----0---0-------0-----0-|
|---0---------0-----------|---2-------0---0---------|
|-------------------------|-3-----------------------|
|-3-----------------------|-------------3-----------|
|
| Q   E E E E Q   E E E E   E E E E E E E E E E E E
|-------------------------|-------------------------|
|-------------------------|-------------------------|
|-------------------------|-------5---5-------------|
|-------------7---7-7---7-|-5-----5-7-5-------5---5-|
|-5---5-----5-5---5-8h9-7-|-3-6-7-------5-----5-7-5-|
|-3---3-6-7---------------|-------------3-6-7-------|


  E
  E E E   E E E E E E E E E
|---------0-----------0------||
|-----------0-----------0----||
|-----1-------1-----------1--||
|---2-----------2---2--------||
|-----------------2----------||
|-0--------------------------||
|
| E E E a E E E E E E E E E
|---0-------0---------0---0--||
|-----0-----0-----------0----||
|-----------------0h1--------||
|----------------------------||
|----------------------------||
|-0-----3s4---3s4------------||


 Chorus
  A             E
  E E E  E  E E E E E  E  E  E
|--------0-------------0-------|
|-----------2-------------0----|
|-----2-------0-----1--------0-|
|---2-------------2------------|
|-0----------------------------|
|---------------0--------------|
|
| Q   E +E  E E Q   E +E  E  E
|-----5-(5)-5------------------|
|-----5-(5)-5-------5-(5)-5----|
|-----------2---4---4-(4)-4----|
|-------------2-2-----------/4-|
|-0----------------------------|
|------------------------------|


  F#m            D              A           E
  E  E E  E  E E E  E E E E E   E E E E E E E E E E E E
|-----------------------2-----|-------0-----------0-----|
|---------2-----------3---3---|---------2-----------0---|
|------2-----2------2-------0-|-----2-----0-----1-----0-|
|----4---------4-0------------|---2-----------2---------|
|-----------------------------|-0-----------------------|
|-2---------------------------|-------------0-----------|
|
| Q.     +E  E E Q.     E E E   E Q   Q   E E Q   Q   E
|-----------------------------|---5---5-----------------|
|-2------(2)-2----------3-----|---5---5-----------------|
|-2------(2)-2---2----------2-|---------------9---9---9-|
|--------------4-0--------0---|-------------9-9---9---9-|
|-----------------------------|-0---------7-7-----7-----|
|-----------------------------|-------------0-----------|


  D
    E  E  E   E  E  E     E  E  E     E  E  E
|-------------2-----------------------2-------|
|---------3------3--------------3--------3----|
|------2------------2--------2--------------0-|
|---0---------------------0-------------------|
|---------------------------------------------|
|---------------------------------------------|
|
|   E  E  E   E  E  E  a  E  E  E  a  E  E  E
|-----10--------10----------12----------10----|
|-----10--------10----------------------10----|
|-/11----11-/11----11-11s12----12-12s11----11-|
|---------------------------------------------|
|---------------------------------------------|
|---------------------------------------------|


  A             E               C#m          D
  E E E  E  E E E E E  E  E E   E  E E E E E E E E E  E E
|--------0-------------0------|--------------------2------|
|-----------2-------------0---|--------5---------3----3---|
|-----2-------0-----1-------0-|------6---6-----2--------0-|
|---2-------------2-----------|----6-------6-0------------|
|-0---------------------------|-4-------------------------|
|---------------0-------------|---------------------------|
|
| Q   E +E  E E Q   E +E  E E   Q.     E E E E E E Q.
|-----5-(5)-5-----------------|--------------------2------|
|-----5-(5)-5-----------------|--------6---------3--------|
|-------------------9-(9)-9---|----------6-----2----------|
|-------------------9-(9)-9---|-6----------6-0------------|
|-0-----------7-7-----------7-|-4-------------------------|
|-----------------------------|---------------------------|


  A           E               D                  BbC5F5
                                                 Gtr III
  E E E E E E E E E E E E     E E E E E E E  E E E E E
|-------0-----------0-----|---------2-----2------------||
|---------2-----------0---|-------3---3---3------------||
|-----2-----0-----1-----0-|-----2-------2-2------3-5---||
|---2-----------2---------|---0-----------0------3-5-3-||
|-0-----------------------|----------------------1-3-3-||
|-------------0-----------|--------------------------1-||
|
|                                                Gtr I
| E Q   Q   E E Q   Q   E   a Q   E Q   E Q.     E E E
|---5---5-----------------|----------------------------||
|---5---5-----------------|----------------------------||
|---------------9---9---9-|----------------------3-5---||
|-------------9-9---9---9-|---7---7-9---9------------3-||
|-0---------7-7-----7-----|-0h5---5-5---5--------------||
|-------------0-----------|----------------------------||


 Bridge
  G5                                       BbC5F5
  Gtr II
  E  E     E      E      E        E  E E E E E E
  |  |     |      |      |        |  |     | | |
  /  /     /      /      /        /  /     / / /

  Gtr I
             ~~~~~~~~~~~~~~~~~~~     ~
  E  E     S S   +E     +E       +E  E E E E E E
|----------3-------------------------------------|
|----3-------------------------------------------|
|----5b7-----5b7-(5)pb7r(5)pb6r==(5)-3-----3-5---|
|----------------------------------------------3-|
|------------------------------------------------|
|------------------------------------------------|
|
| Gtr III
| E.     S E      E.           S  E  E E E E E E
|-3------3-3------3------------3--3--3-----------|
|-3------3-3------3------------3--3--3-----------|
|------------------------------------------3-5---|
|------------------------------------------3-5-3-|
|------------------------------------------1-3-3-|
|----------------------------------------------1-|


  G5                                    BbC5F5
  E  E     E    E     E        E  E E E E E E
  |  |     |    |     |        |  |     | | |
  /  /     /    /     /        /  /     / / /

           ~~~~~~~~~~~~~~~~~~     ~
  E  E     E    E    +E       +E  E E E E E E
|---------------------------------------------|
|---------------------------------------------|
|----5b7---5pb7-5pb7r(5)pb6r==(5)-3-----3-5---|
|-------------------------------------------3-|
|---------------------------------------------|
|---------------------------------------------|
|
| E.     S E    E.          S  E  E E E E E E
|-3------3-3----3-----------3--3--3-----------|
|-3------3-3----3-----------3--3--3-----------|
|---------------------------------------3-5---|
|---------------------------------------3-5-3-|
|---------------------------------------1-3-3-|
|-------------------------------------------1-|


  G5                                    BbC5F5
  E  E     E    E     E        E  E E E E E E
  |  |     |    |     |        |  |     | | |
  /  /     /    /     /        /  /     / / /

           ~~~~~~~~~~~~~~~~~~     ~
  E  E     E    E    +E       +E  E E E E E E
|---------------------------------------------|
|---------------------------------------------|
|----5b7---5pb7-5pb7r(5)pb6r==(5)-3-----3-5---|
|-------------------------------------------3-|
|---------------------------------------------|
|---------------------------------------------|
|
| E.     S E    E.          S  E  E E E E E E
|-3------3-3----3-----------3--3--3-----------|
|-3------3-3----3-----------3--3--3-----------|
|---------------------------------------3-5---|
|---------------------------------------3-5-3-|
|---------------------------------------1-3-3-|
|-------------------------------------------1-|


  G5                          Bb5
  E  E     E   E    E    E    E   E   E E E  E
  |  |     |   |    |    |    |   |   | | |  |
  /  /     /   /    /    /    /   /   / / /  /

                              >
                              ~~~
  E  E     E   E    E    E    H.
|----------3-------------------------------------||
|----3-----3-------------------------------------||
|----5b7-------5pb7-5pb7-5pb7-5b7----------------||
|------------------------------------------------||
|------------------------------------------------||
|------------------------------------------------||
|
| E.     S S S Q         E    E.    S E Q   +E
|-3------3-3-3-3---------3S===6-----6-6-6---(6)\-||
|-3------3-3-3-3---------3S===6-----6-6-6---(6)\-||
|------------------------------------------------||
|------------------------------------------------||
|------------------------------------------------||
|------------------------------------------------||


 Verse
  A           E
  Gtr II
  E E E E E E E E E  E E E
|-------0------------0-----|
|---------2------------0---|
|-----2-----0h1---1------0-|
|---2-----------2----------|
|-0------------------------|
|-------------0------------|
|
| Gtr III
| Q   E Q   E Q   E  Q   E
|--------------------------|
|--------------------------|
|--------------------------|
|-------------9---9-11---9-|
|-7---7-9---7-7---7--7---7-|
|-5---5-5---5--------------|


  F#m             C#m           D           A
   E E  E  E E  E E E E E E E   E E E E E E E E  E E E E
|----------2------------------|-----5-2---------^5-0-----|
|----2-------2----------5-----|---------3-------^2---2---|
|-------2-------2-----6---6---|--------------------------|
|-------------------6-------0-|-0-2-------0---2--------0-|
|-----------------4-----------|-------------0------------|
|--2--------------------------|--------------------------|
|
|  Q    E  Q    E Q   E Q   E   Q   E Q   E Q    E Q   E
|-----------------------------|--------------------------|
|-----------------------------|--------------------------|
|-----------------------------|--------------------------|
|-11---11-11---11S6---6-6---6-|-7---7-9---7--------------|
|--9----9--9----9S4---4-4---4-|-5---5-5---5-7----7-9---7-|
|-----------------------------|-------------5----5-5---5-|


  E
  E E E E   E E     E E E E   E E
|-------0-----------------0-------|
|-----------0-----------------0---|
|-----1-------1---------1-------0-|
|---2-----------------2-----------|
|---------------------------------|
|-0-----------------0-------------|
|
| E Q   E   E S   S E Q   S S Q
|---------------------0---0-------|
|---------------------0---0-------|
|---4-------4---------4---4-------|
|---2-------2---------2---2---2---|
|---2---------------------2h4-----|
|-0-----2b4---2b4r2-0-------------|
|
| Gtr IV
| W
|---------------------------------|
|---------------------------------|
|---------------------------------|
|---------------------------------|
|---------------------------------|
|---------------------------------|


  A               E                F#m             C#m
   E    E E E E E  E  E E  E E E   E    E E E  E E E  E E E  E E
|-----------0--------------0-----|-------------------------------|
|-------------2--------------0---|----------2-------------5------|
|---------2-----0-------1------0-|--------2----2--------6----6---|
|-------2-------------2----------|------4--------0----6--------6-|
|--0-----------------------------|-----------------4-------------|
|------------------0-------------|-2-----------------------------|
|
|  Q      E Q   E  Q    E  Q   E   Q.       Q.     Q.     Q.
|--------------------------------|-------------------------------|
|--------------------------------|-------------------------------|
|--------------------------------|-------------------------------|
|------------------9----9-11---9-|-----------------6------6------|
|--7------7-9---7--7----7--7---7-|-4--------4------4------4------|
|--5------5-5---5----------------|-2--------2--------------------|
|
|  H.              H.              H.              H.
|--------------------------------|-------------------------------|
|-12b14-----------12-------------|-9b11------------9-------------|
|-13b14-----------13-------------|-9b10------------9-------------|
|--------------------------------|-------------------------------|
|--------------------------------|-------------------------------|
|--------------------------------|-------------------------------|


  D               A                E
  E   E   E E E E E  E E E E E     E  E E E   E   E  E   E E E  E E
|-----------2------------0-----|----------0------------------0------||
|---------3---3------------2---|--------------0-----------------0---||
|-----2---------0------2-----2-|--------1---------1--------1------0-||
|-0------------------2---------|------2------------------2----------||
|-----------------0------------|------------------------------------||
|------------------------------|---0-----------------0--------------||
|
| E   S S E Q   E Q    E Q   E   a E  E E E   E   E  E   E E E  E E
|------------------------------|------------------------------------||
|------------------------------|------------------------------------||
|------------------------------|------------------------------------||
|-7---7-7-7-9---7--------------|------2-------------------------2-4-||
|-5---5-5-5-5---5-7----7-9---7-|-2s4------4b5-4b5-2----------4------||
|-----------------5----5-5---5-|--------0------------2b3-2-0--------||
|
| H.              H.               H.               +Q.      Q.
|------------------------------|------------------------------------||
|-5b7-------------5------------|---5----------------(5)------5------||
|-6b7-------------6------------|---4----------------(4)------4------||
|------------------------------|------------------------------------||
|------------------------------|------------------------------------||
|------------------------------|------------------------------------||


 Pre-Chorus
  G             D
  Gtr II
  E   E E E E E E E E E E E
|---------3-----------2-----|
|-----------3-------3---3---|
|-------0-----0---2-------0-|
|-----0---------0-----------|
|---------------------------|
|-3-------------------------|
|
| Gtr IV
|         ~~~~~~
| Q     E E E E Q   E E E E
|---------------------------|
|---------------------------|
|-------------------------7-|
|-3b5-----------7---7-7---7-|
|-5-----5-----5-5---5-8h9---|
|-3-----3-6-7---------------|


  G           D             C           G
  E E E E E E E E E E E E   E E E E E E E E E E E E
|-------3-----------2-----|-------------------3-----|
|---------3-------3---3---|-------1-------------3---|
|-----0-----0---2-------0-|-----0---0-------0-----0-|
|---0---------0-----------|---2-------0---0---------|
|-------------------------|-3-----------------------|
|-3-----------------------|-------------3-----------|
|
|                                   ~           ~
| Q   E E E E E E E E E E   E E E E Q   E E E E Q
|-------------------------|-------------------------|
|-------------------------|-------------------------|
|-------------------7---7-|-------5-----------------|
|-------------7-----7-9-7-|-5-----5-9---------5-7---|
|-5---5-----5-5-8-9-------|-3-6-7-------5-----5-----|
|-3---3-6-7---------------|-------------3-6-7-------|


  E
  E E E  E E E  E E  E E  E E
|--------0-------------0------||
|----------0--------------0---||
|-----1------1--------------1-||
|---2-----------2----2--------||
|-----------------2-----------||
|-0---------------------------||
|
| E Q    E Q    E E  E E  E E
|---0------0------4----4----4-||
|---0------0------------------||
|---1----------/4---/4---/4---||
|-----------------------------||
|-----------------------------||
|-0-----/5--------------------||


 Chorus
  A               E               F#m7           D
  E E  E   E  E E E E E  E  E E   E  E E  E  E E E  E E E E E
|----------0-------------0------|-----------------------2-----|
|-------------2-------------0---|---------2-----------3---3---|
|------2--------0-----1-------0-|------2-----2------2-------0-|
|---2---------------2-----------|----4---------4-0------------|
|-0-----------------------------|-----------------------------|
|-----------------0-------------|-2---------------------------|
|
|      ~~~~~~~
| Q    E  +Q    E Q   E +E  E E   Q.     +E  E E Q.     E E E
|------9--(9)-------------------|------------0----------2-----|
|-----10-(10)-------------------|-2------(2)-2------------3---|
|-----------------9---9-(9)-9---|-2------(2)-2--------------2-|
|-----------------9---9-(9)-9---|-2------(2)---2-0------------|
|-0-------------7-7-----------7-|-----------------------------|
|-------------------------------|-2------(2)------------------|


  A            E             D
  E E E E E  E E E E E E E    E  E  E     E  E  E E     E   E      E  E E
|-------0------------0-----|--------------2------------------------2-------|
|---------2------------0---|--------3--------3--------------3---------3----|
|-----2------0-----1-----0-|-----2--------------2-------2---------------0--|
|---2------------2---------|--0-------------------0------------------------|
|-0------------------------|-----------------------------------------------|
|--------------0-----------|-----------------------------------------------|
|
| E Q   Q    E E E E E E E    E  E  E  a  E  E  E E    +E   E     +E  E E
|---5---5------------------|----10----------12-----------------------------|
|---5---5------------9-----|-------------------------------10----(10)------|
|------------------9---9-9S|=11----11-11s12----12S9b11-(9)--9b11r=(9)-7-9\-|
|----------------9-----9-9-|-----------------------------------------------|
|-0---------/7-7-------7-7-|-----------------------------------------------|
|--------------------------|-----------------------------------------------|


  A             E
  E E E  E  E E E E E  E  E E
|--------0-------------0-------|
|-----------2-------------0----|
|-----2-------0-----1-------0--|
|---2-------------2------------|
|-0----------------------------|
|---------------0--------------|
|
| Q   E +Q.     Q   E +E  Q
|-----5-(5)--------------------|
|-----5-(5)--------------------|
|---------------9---9-(9)-9----|
|---------------9---9-(9)-9----|
|-0-------------7---7-(7)-7----|
|------------------------------|


  C#m          D
  E  E E E E E E E E E E E
|--------------------2-----|
|--------5---------3---3---|
|------6---6-----2-------0-|
|----6-------6-0-----------|
|-4------------------------|
|--------------------------|
|
| Q.     E E E E E E E E E
|--------------------2-----|
|-5------6---------3---3---|
|-6--------6-----2-------2-|
|-6----------6-0-----------|
|-4------------------------|
|--------------------------|


  A             E             D                 BbC5F5
                                                Gtr III
  E E E  E  E E E E E E E E   E E E E E E E E E E E E
|--------0------------0-----|-------2-----2-----------||
|-----------2-----------0---|-----3---3---3-----------||
|-----2-------0-----1-----0-|---2-------2-2-----3-5---||
|---2-------------2---------|-0-----------0-----3-5-3-||
|-0-------------------------|-------------------1-3-3-||
|---------------0-----------|-----------------------1-||
|
| Q   E +E  Q   Q   E E E E   E E E E E E E E E E E E
|-----5-(5)-5---------------|-------------------------||
|-----5-(5)-5---------------|-------------------------||
|-------------------9-9-9---|-------------------3-5---||
|-------------------9-9-9---|-7-7-7-9-9-9-7-7-7-3-5-3-||
|-0-------------7---------7-|-5-5-5-5-5-5-5-5-5-1-3-3-||
|---------------------------|-----------------------1-||


 Guitar Solo
  G5                                      Bb5  C5  F5
  Gtr II
  E   E      E  E    E    E     E     E E   E   E  E
  |   |      |  |    |    |     |           |   |  |
  /   /      /  /    /    /     /           /   /  /

  E.       S E  E.     S  E     E     E E   E   E  E
|-3--------3-3--3------3--3-----3--------------------|
|-3--------3-3--3------3--3-----3--------------------|
|-------------------------------------------3---5----|
|-------------------------------------------3---5--3-|
|-------------------------------------------1---3--3-|
|--------------------------------------------------1-|
|
| Gtr I
|                                     ~~~~~~~~~
| E   Q         Q         E     S  S  Q    +E   Q
|----------------------------------------------------|
|----------------------------------------------------|
|----17b19-----17b19-----17b19-15-17-15---(15)-------|
|----------------------------------------------17\---|
|----------------------------------------------------|
|----------------------------------------------------|


  G5                                         Bb5 C5F5
  E     E    E     E       E    E     E  E E  E  E E
  |     |    |     |       |    |     |       |  | |
  /     /    /     /       /    /     /       /  / /

  E.       S E     E.         S E     E  E E  E  E E
|-3--------3-3-----3----------3-3-----3----------------|
|-3--------3-3-----3----------3-3-----3----------------|
|---------------------------------------------3--5-----|
|---------------------------------------------3--5-3---|
|---------------------------------------------1--3-3---|
|--------------------------------------------------1---|
|
|                                     ~~~
| |-----4:3-----|  |------4:3------|
| E   E    E    E  E     E    E    E  Q.      Q    E
|------------------------------------------------------|
|------------------------------------------------------|
|---------15---17-17b19-17---15---17-15----------------|
|----17--------------------------------------17\---5/--|
|------------------------------------------------------|
|------------------------------------------------------|


  G5                                                                Bb5      C5    F5
  E   E          E            E   E     E          E     E     E     E        E     E
  |   |          |            |   |     |          |                 |        |     |
  /   /          /            /   /     /          /                 /        /     /

  E.     S       E            E.     S  E          E     E     E     E        E     E
|-3------3-------3------------3------3--3----------3-----------------------------------------------|
|-3------3-------3------------3------3--3----------3-----------------------------------------------|
|--------------------------------------------------------------------3--------5--------------------|
|--------------------------------------------------------------------3--------5-----3--------------|
|--------------------------------------------------------------------1--------3-----3--------------|
|-----------------------------------------------------------------------------------1--------------|
|
| E   S  S      +S       +S   E   S  S  S     +S   S  S  S. T  S  S  S     S  S  S  S     +S
|----------------------------------------------------------------------------15----18b20-(18)pb20r=|
|----15----------------------15--15-17-17b18r(17)-15----17p15----15-------15----15-----------------|
|----15h17b19==(17)pb19r(17)-15--15-17-17b19r(17)-15----17p15----15-17b19--------------------------|
|----------------------------------------------------17-------17-----------------------------------|
|--------------------------------------------------------------------------------------------------|
|--------------------------------------------------------------------------------------------------|


  G5                                     Bb5
   W
   E  E     E     E      E     E          E  E         E      Q.
|---------------------------------------------------------------------------------------------||
|---------------------------------------------------------------------------------------------||
|---------------------------------------------------------------------------------------------||
|--5--5-----5-----5------5-----5----------8--8---------8------8-------------------------------||
|--5--5-----5-----5------5-----5----------8--8---------8------8-------------------------------||
|--3--3-----3-----3------3-----3----------6--6---------6------6-------------------------------||
|
|  E  S  S  S  S  E     +E     S     +S   E  S  S     +S   S  S      +S       S  S     +S   S
|-18p15----15----18b20-(18)---18b20-(18)-18-15------------18-18pb19----------18------------18-||
|-------15----15----------------------------15-18b20-(18)----18-----(18)pb20----18b20-(18)----||
|---------------------------------------------------------------------------------------------||
|---------------------------------------------------------------------------------------------||
|---------------------------------------------------------------------------------------------||
|---------------------------------------------------------------------------------------------||
|
| Gtr II
|  E.    S  E     E.        S  E          E  E         E      E               E         E
|--3-----3--3-----3---------3--3S=========6--6---------6------6---------------6---------------||
|--3-----3--3-----3---------3--3S=========6--6---------6------6---------------6---------------||
|---------------------------------------------------------------------------------------------||
|---------------------------------------------------------------------------------------------||
|---------------------------------------------------------------------------------------------||
|---------------------------------------------------------------------------------------------||


 Bridge
  Eb5                             Bb5VI
  Gtr II
   E     E  E      E   E      E   E  E    E E    E E
   |     |  |      |   |      |   |  |    | |    | |
   /     /  /      /   /      /   /  /    / /    / /

   E     E  E      E   Q          E  E    E Q      E
|-------11--------11--------------6-------6-----------|
|-13b16----14b16------14b16-------6--9b11-6-9b11------|
|--------------------------------------------------0--|
|-----------------------------------------------------|
|-----------------------------------------------------|
|-----------------------------------------------------|
|
|  ~~~~~~~~~~~~~~~~~~~~~~~~~~~~~~~
|  Q.             +Q         +E   H.
|-----------------------------------------------------|
|-18-------------(18)-------(18)\---------------------|
|-----------------------------------------------------|
|-----------------------------------------------------|
|-----------------------------------------------------|
|-----------------------------------------------------|
|
|  W
|-----------------------------------------------------|
|-----------------------------------------------------|
|-----------------------------------------------------|
|-----------------------------------------------------|
|-----------------------------------------------------|
|-----------------------------------------------------|


  Eb5                      Bb5VI
   E     E  E      E   E E E    E E    E E    E
   |     |  |      |   | | |    | |    | |    |
   /     /  /      /   / / /    / /    / /    /

                   ~~~~
   E     E  E     +E   E E E    E E    E Q
|-------11------------11S6------6------6--------|
|----------14b16-(14)------9b11-6-9b11-6-9b11---|
|-13b15-----------------------------------------|
|-----------------------------------------------|
|-----------------------------------------------|
|-----------------------------------------------|


  Ab5           Eb5
  E E E E   E E  E  E  E     E  E    E
  | | | |   | |  |  |  |     |  |    |
  / / / /   / /  /  /  /     /  /    /

  E E E E   E E  E  E  E     E  E    E
|-4-4-------4-4s11-11-------11---------|
|-4---4-7b9-4-4s11-11-14b16----14b16-0-|
|--------------------------------------|
|--------------------------------------|
|--------------------------------------|
|--------------------------------------|


  Eb5                         Eb5
  E E E E E E   E E E E E E     E  E  E     E  E  E     E  E  E  E  E  E
  | | | | | |   | | | | | |     |  |  |     |  |  |     |  |  |  |  |  |
  / / / / / /   / / / / / /     /  /  /     /  /  /     /  /  /  /  /  /

  E E E E E E a E E E E E E     E  E  E  a  E  E  E  a  E  E  E  E  E  E
|---0-----2-------4---4---4-|-----12----------14----------16----16----16--||
|-0---0---------------------|--------------------------------------17-----||
|-1---1-2---2-2s4---4---4---|-/13----13-13s14----14-14s16----16-----------||
|---------------------------|---------------------------------------------||
|---------------------------|---------------------------------------------||
|---------------------------|---------------------------------------------||


 Chorus
  A               E
  Gtr II
  E E  E   E  E E E E E  E  E E
|----------0-------------0------|
|-------------2-------------0---|
|------2--------0-----1-------0-|
|---2---------------2-----------|
|-0-----------------------------|
|-----------------0-------------|
|
| Gtr IV
|      ~~~~~~~        ~~~~~~
| Q    E  +E  E E Q   E +Q.
|-------------------------------|
|-----10-(10)-------------------|
|---------------------9-(9)-----|
|-----------------9---9-(9)-----|
|-------------4-5-7-------------|
|-0-----------------------------|


  C#m         D             A           E
  E E E E E E E E E E E E   E E E E E E E E E E E E
|-------------------2-----|-------0-----------0-----|
|-------5---------3---3---|---------2-----------0---|
|-----6---6-----2-------0-|-----2-----0-----1-----0-|
|---6-------6-0-----------|---2-----------2---------|
|-4-----------------------|-0-----------------------|
|-------------------------|-------------0-----------|
|
| E E E E E E E E E E E E   E Q   Q   E E Q   Q   E
|-----0-------------2-----|---5---5-----------------|
|-------5---------3---3---|---5---5-----------------|
|---------6-----2-------2-|-------------------9-----|
|---6-------6-0-----------|-2---------2-9-9---9---9-|
|-4-----------------------|-0-----------7-7-------7-|
|-------------------------|-------------------------|


  D
  E E E E E E  E E  E E  E E
|-------2-------------2------|
|-----3---3---------3--------|
|---2-------2----2-----------|
|-2------------0---------0-0-|
|----------------------------|
|----------------------------|
|
| Q   E Q   E  E E  E E  E E
|----------------------------|
|----------------------------|
|----------------------------|
|-7---7-9---9-10-9-10-9-10-9-|
|-5---5-5---5--5-5--5-5--5-5-|
|----------------------------|


  A             E               F#m         D
  E E E  E  E E E E E  E  Q      E E E Q.   E  E E E E E
|--------0-------------0------|--2-----------------2-----|
|-----------2-------------0---|--2---------------3---3---|
|-----2-------0-----1---------|--2-------------2-------0-|
|---2-------------2-----------|--4----------0------------|
|-0---------------------------|--4-----------------------|
|---------------0-------------|--2-----------------------|
|
| Q   E +E  E E Q   E +E  E E    E E E Q.   Q.     E E E
|-----5-(5)-5-----------------|--------------------2-----|
|-----5-(5)-5-----------------|-------------3--------3-3-|
|-------------------9-(9)-9---|-11----------2------------|
|---------------9---9-(9)-9---|-11----------0------------|
|-0-----------7-7-----------7-|--9-----------------------|
|-----------------------------|--------------------------|


  A             E
  E E E  E  E E E E E E E E
|--------0------------0-----|
|-----------2-----------0---|
|-----2-------0-----1-----0-|
|---2-------------2---------|
|-0-------------------------|
|---------------0-----------|
|
| Q   E +E  E E Q   E E E E
|-----5-(5)-5---------------|
|-----5-(5)-5---------------|
|-------------------9-9-9---|
|---------------9---9-9---9-|
|-0-----------7-7-----7-----|
|---------------------------|


  D                         D
  E E E E E E E E E E E E   E E E E E E E E E E E E
|-------2-----------2-----|-------2-----------2-----||
|-----3---3---3---3---3---|-----3---3-------3---3---||
|---2-------2---2-------2-|---2-------2---2-------0-||
|-0-----------------------|-0-----------0-----------||
|-------------------------|-------------------------||
|-------------------------|-------------------------||
|
| Q   E Q   E Q   E Q   E   Q   E Q   E Q   E Q   E
|-------------------------|-------------------------||
|-------------------------|-------------------------||
|-------------------------|-------------------------||
|-7---7-9---9-7---7-9---9-|-7---7-9---9-7---7-9---7-||
|-5---5-5---5-5---5-5---5-|-5---5-5---5-5---5-5---5-||
|-------------------------|-------------------------||


 Interlude
  A             E
  E E E  E  E E E E E E E E
|--------0------------0-----|
|-----------2-----------0---|
|-----2-------0-----1-----0-|
|---2-------------2---------|
|-0-------------------------|
|---------------0-----------|
|
| E E E +E  E E Q   E E E E
|-----5-(5)-5---------------|
|-----5-(5)-5---------------|
|-------------------9-9-9---|
|---2-----------9---9-9-9---|
|-0-----------7-7---------7-|
|---------------------------|


  C#m          D              A           E
  E  E E E E E E  E E E E E   E E E E E E E E E E E E
|---------------------2-----|-------0-----------0-----|
|--------5----------3---3---|---------2-----------0---|
|------6---6------2-------0-|-----2-----0-----1-----0-|
|----6-------6-0------------|---2-----------2---------|
|-4-------------------------|-0-----------------------|
|---------------------------|-------------0-----------|
|
| Q.     E E E Q.     E E E   E Q   Q   E Q   E E E E
|---------------------2-----|---5---5-----------------|
|-----------------------3---|---5---5-----------------|
|--------6----------------2-|-----------------9---9---|
|----------6---0------------|-----------------9---9---|
|-4----------4--------------|-0---------7-7-----7---7-|
|---------------------------|-------------------------|


  D
  E E   E  E  E  E  E  E  E     E  E  E
|----------2--------------------2--------|
|-------3-----3-----------3--------------|
|---2------------2-----2-----------------|
|-2-----------------0--------------0--0--|
|----------------------------------------|
|----------------------------------------|
|
| Q     E  E  E  E  E  E  E  a  E  E  E
|---------10-------12----12-------14-----|
|----------------------------------------|
|-----/11----11S12----12----12s14----14\-|
|-0--------------------------------------|
|----------------------------------------|
|----------------------------------------|


  A           E                 F#m               D
  E E E E E E E E E  E  Q       E E  E   E   E  E E E E E E E
|-------0------------0------|--------2----------2-------2-----|
|---------2-------------0---|-----2----------2--------3---3---|
|-----2-----0-----1---------|-----------------------2-------0-|
|---2-----------2-----------|---4--------4--------0-----------|
|-0-------------------------|---------------------------------|
|-------------0-------------|---------------------------------|
|
| Q   E E E E Q   E +E  E E   a Q    E  +E   E  E Q   E E E E
|-----5-5-5-----------------|---------------------------------|
|-----5-5-5-----------------|---------------------------7-----|
|-----------------9-(9)-9-9-|-------11-(11)-11-11-7-------7---|
|-7---------------9-(9)-9-9-|-------11-(11)-11-11-7---7-------|
|-----------7-7---------7-7-|-7s9------------9--9-5---------5-|
|---------------------------|---------------------------------|


  A              E
  E  E E  E  E E  E  E E   E      E  E
|---------0----------------0-----------------|
|------------2--------------------0----------|
|------2-------0-------1-------------0-------|
|----2---------------2-----------------------|
|-0------------------------------------------|
|-----------------0--------------------------|
|
| Q    E +E  E E  Q    E  +E      E  E
|------5-(5)---------------------------------|
|------5-(5)-5-------------------------------|
|----------------------9--(9)-----9--9-------|
|-----------------9----9--(9)-----9--9-------|
|-0------------7--7----7--(7)-----7--7-------|
|-----------------0--------------------------|
|
| Gtr I
|         ~~~~~~~~~~~~~~~~~~~~
|                                    |--3--|
| Q.      Q.      Q.      +E   a  E  S  S  S
|--------17------16------(16)-16h17-16-17-16-|
|--------------------------------------------|
|--------------------------------------------|
|--------------------------------------------|
|--------------------------------------------|
|--------------------------------------------|


  D
   E E     E       E  E   E        E         E     E  E  E     E
|------------------2----------------------------------2-----------|
|----------3----------3------------3---------------3-----3--------|
|----2--------------------2------------------2-----------------2--|
|--0--------------------------------------------------------------|
|-----------------------------------------------------------------|
|-----------------------------------------------------------------|
|
|  E E     E       E  E   E        E         E     E  E  E     E
|-----------------------------------------------------------------|
|-----------------------------------------------------------------|
|-----------------------------------------------------------------|
|--7-7-----7-------9--9---9--------7---------7-----7--9--9-----9--|
|--5-5-----5-------5--5---5--------5---------5-----5--5--5-----5--|
|-----------------------------------------------------------------|
|
|  E.   S  E      +Q     +S   +S   S     +E     S  E  E  S  S  E
|-17s==16---------------------------------------------------------|
|---------17b19==(17)---(17)r(17)--------------------17-----------|
|---------------------------------16b18r(16)---14-14-16-14-14-14--|
|-----------------------------------------------------------------|
|-----------------------------------------------------------------|
|-----------------------------------------------------------------|


  D
   E           E        E     E          E     E     E          E     E     E     E  E
|-----------------------------2---------------------------------------------2----------||
|-----------------------3----------------3----------------------------3-----------3----||
|--------------2-------------------------------2----------------2--------------------0-||
|--0-------------------------------------------------0---------------------------------||
|--------------------------------------------------------------------------------------||
|--------------------------------------------------------------------------------------||
|
|  E           E        E     E          E     E     E          E     E     E     E  E
|--------------------------------------------------------------------------------------||
|--------------------------------------------------------------------------------------||
|--------------------------------------------------------------------------------------||
|--7-----------7--------7-----9----------9-----9----10---------10----10----10----10-10-||
|--5-----------5--------5-----5----------5-----5-----5----------5-----5-----5-----5--5-||
|--------------------------------------------------------------------------------------||
|
|  S     T  T  S     S  S  S  S     +S   S  S  S  S  S     +S   S  S  S  S  S  S  Q
|--------------------------------------------------------------------------------------||
|-------17-17-------17----17-----------------------------------------------------------||
|-16b18-------16b18----16----16b18r(16)-------14-16-16b18r(16)-14----16----14h16p14----||
|---------------------------------------14-16---------------------16----16-------------||
|--------------------------------------------------------------------------------------||
|--------------------------------------------------------------------------------------||


 Out-Chorus
  A                     E
   E    E  E   E   E  E  E E  E      E  E  E
|--------------0---------------------0-------|
|------------------2--------------------0----|
|----------2----------0-------1------------0-|
|-------2------------------2-----------------|
|--0-----------------------------------------|
|------------------------0-------------------|
|
|  Q       E  +E   E  E  Q    E     +E  E  E
|----------5--(5)--5-------------------------|
|----------5--(5)--5-------------------------|
|-----------------------------9-----(9)-9--9-|
|------------------------9----9-----(9)-9--9-|
|--0------------------7--7----7-----(7)-7--7-|
|--------------------------------------------|
|
|          ~~~~~~~            ~~~~~~~~~~
|  Q       E  +E   E  E  Q    E     +Q     E
|-17b19---17-(17)----------------------------|
|-----------------17-14-17---17b19-(17)---17-|
|--------------------------------------------|
|--------------------------------------------|
|--------------------------------------------|
|--------------------------------------------|


  C#m                   D                     A               E
   E    E  E   E   E  E  E E E  E      E  E   E  E E  E  E  E  E  E E   E   E  E
|-------------------------------2-----------|---------0-----------------0------------|
|--------------5-------------3---------3----|------------2------------------0--------|
|----------6-------6-------2--------------0-|------2--------0-------1----------0-----|
|-------6-------------6--0------------------|----2----------------2------------------|
|--4----------------------------------------|-0--------------------------------------|
|-------------------------------------------|------------------0---------------------|
|
|  Q.          E   E  E  E E E  Q         E   E  Q    Q     E  E  Q     E   E  E
|-------------------------------2-----------|----5----5------------------------------|
|--5-------------------------3------------3-|----5----5------------------------------|
|--6-----------6---6-------2----------------|---------------------------9------------|
|--6------------------6--0------------------|---------------------9---------9--------|
|--4----------------------------------------|-0-------------7--7---------------7-----|
|-------------------------------------------|----------------------------------------|
|
|          ~~~~~~~                                             ~~~~~~~~~~~~
|  Q       E  +E   E  E  Q   E  E     +Q      Q.      E  E  E  Q.      +E   E  E
|-17b19---17-(17)-17-17-17------------------|--------17-17-17-16------(16)-16--------|
|------------------------------17b19-(17)---|---------------------------------19b21==|
|-------------------------------------------|----------------------------------------|
|-------------------------------------------|----------------------------------------|
|-------------------------------------------|----------------------------------------|
|-------------------------------------------|----------------------------------------|


  D
    E    E  E  E     E   E  E      E  E  E  E       E
|--------------2-------------------------2-----------------|
|-----------3--------3----------------3--------------------|
|--------2---------------2---------2-----------------------|
|---2-----------------------0---------------0-------0------|
|----------------------------------------------------------|
|----------------------------------------------------------|
|
|   E    E  E  E    +E   E  E      E  E  E  E       E
|----------------------------------------------------------|
|-----------3---------------3------3--3--3--3-------3------|
|--------2-----4b5r=(4)p=2--2------2--2--2--2-------2------|
|---0-----------------------0------0--0--0--0-------0------|
|----------------------------------------------------------|
|----------------------------------------------------------|
|
|  +E   +Q     Q         E  E     +Q     E  E      +S   S
|-----------------------14---------------------------------|
|-(19)r(19)---17b19---------------------17-----------------|
|--------------------------16b18-(16)----------------------|
|------------------------------------------16pb18r(16)p14--|
|----------------------------------------------------------|
|----------------------------------------------------------|


  A                       E
     E    E  E   E   E  E  E    E     E   E   Q
|----------------0------------------------0---------------|
|--------------------2------------------------0-----------|
|------------2----------0-------------1-------------------|
|---------2---------------------2-------------------------|
|----0----------------------------------------------------|
|--------------------------0------------------------------|
|
| a  Q       E  +Q      E  E    E     E   E   E  E
|------------5--(5)---------------------------------------|
|------------5--(5)-------------5---------5---------------|
|---------------------------------------------------------|
|-0h=2------------------9--9----------9-------9-----------|
|----0------------------7--7----------7-------7--7--------|
|---------------------------------------------------------|
|
|            ~~~~~~~
|    Q       E  +E   E  E  E.      S  E  +E   E  S  S
|---17b19---17-(17)-17-14---------------------------------|
|-------------------------17b19---17-17-(17)-17-14--------|
|--------------------------------------------------16b18==|
|---------------------------------------------------------|
|---------------------------------------------------------|
|---------------------------------------------------------|


    F#m                                         D
      E        E     E           E      E     E  E  E     E     E    E    E
|---------------------------------------------------------------2------------------|
|--------------------------------2------------------------3----------3-------------|
|--------------------2------------------2-----------2---------------------0--------|
|--------------4------------------------------4--0---------------------------------|
|----------------------------------------------------------------------------------|
|-----2----------------------------------------------------------------------------|
|
| a   Q              E          +E      E     E  Q        E     E    E    E
|----------------------------------------------------------------------------------|
|----------------------------------------------------------------------------------|
|--------------------------------------11-----------------2-----4b6--4----2--------|
|-------------------11---------(11)--------------0---------------------------------|
|-7s==9---------------------------------------9------------------------------------|
|----------------------------------------------------------------------------------|
|
|    +S   +S   S  S  S     +S    S   S  S  S  E  E  S  S  S  S  E    E.      S
|-------------------------------------------------------------------19b21---19b21--|
|----------------------------------------------------------------------------------|
|---(16)r(16)-14-16-16b18r(16)--14-----16----14-14-14h16p14h16p14------------------|
|-----------------------------------16----16---------------------------------------|
|----------------------------------------------------------------------------------|
|----------------------------------------------------------------------------------|


  A                        E
    E  E  E       E   E  E  E  E  E      E   E  E
|-----------------0----------------------0------------|
|---------------------2----------------------0--------|
|---------2--------------0--------1-------------0-----|
|------2-----------------------2----------------------|
|---0-------------------------------------------------|
|---------------------------0-------------------------|
|
|   E  Q          Q      E  E  E  E      E   E  E
|------5----------5-----------------------------------|
|------5----------5-----------------------------------|
|---------------------------------9------9---9--9-----|
|------------------------------9---------9---9--9-----|
|---0--------------------7--7------------7---7--7-----|
|-----------------------------------------------------|
|
|                                        ~~~~
|  +Q     E      +E   E  E  E  E  E     +E   E  E
|-(19)---19pb21r(19)-17-17-17-17------------17--------|
|--------------------------------20b22-(20)----20pb22r|
|-----------------------------------------------------|
|-----------------------------------------------------|
|-----------------------------------------------------|
|-----------------------------------------------------|


  D
    E   E  E  E    E  E   E   E       E        E   E  E
|-------------2--------------------------------2-----------|
|----------3-------3------3-----------3------------3-------|
|-------2-------------2-------2-----------------------2----|
|---0------------------------------------------------------|
|----------------------------------------------------------|
|----------------------------------------------------------|
|
|   E   E  E  E    E  E   E   E       E        E   E  E
|----------------------------------------------------------|
|----------------------------------------------------------|
|----------------------------------------------------------|
|---7---7--7--9----9--9---7---7-------7--------9---9--9----|
|---5---5--5--5----5--5---5---5-------5--------5---5--5----|
|----------------------------------------------------------|
|
|  +E   E  E  Q       E  +E   E      +E       +E   E  S  S
|----------------------------------------------------------|
|-(20)-17-17---------20-(20)----------------------------20-|
|------------19b21-----------19pb21r(19)pb20r(19)-19-17----|
|----------------------------------------------------------|
|----------------------------------------------------------|
|----------------------------------------------------------|


  D
   E     E     E     E  E  E        E         E           E     E  E  E
|--------------------2------------------------------------------2----------|
|--------------3--------3---------------------------------3--------3-------|
|--------2-----------------2------------------2-----------------------0----|
|--0--------------------------------0--------------------------------------|
|--------------------------------------------------------------------------|
|--------------------------------------------------------------------------|
|
|  E     E     E     E  E  E        E         E           E     E  E  E
|--------------------------------------------------------------------------|
|--------------------------------------------------------------------------|
|--------------------------------------------------------------------------|
|--7-----7-----7-----9--9--9-------10--------10----------10----10-10-10----|
|--5-----5-----5-----5--5--5--------5---------5-----------5-----5--5--5----|
|--------------------------------------------------------------------------|
|
|  S  S  S  S  E     E  E  S     S  S      S  S        S  S  S  E  E  S  S
|--------------------------------------------------------------------------|
|----20----20-------20-20-------20--------20----------20----20-20-20-------|
|-------17----19b21-------19b21----19pb20----19pb19.5----19----19-17-------|
|-19-----------------------------------------------------------------19-19-|
|--------------------------------------------------------------------------|
|--------------------------------------------------------------------------|


  A                          E
  E  E      E   E   E   E      E  E E  E         E   E
|---------------0----------------------0------------------------|
|-------------------2----------------------------0--------------|
|-----------2-----------0-----------1----------------0----------|
|----2----------------------------2-----------------------------|
|-0-------------------------------------------------------------|
|------------------------------0--------------------------------|
|
| Q         E  +E   E   E      Q    E +E         E   E
|-----------5--(5)--5-------------------------------------------|
|-----------5--(5)--5-------------------------------------------|
|-----------------------------------9-(9)--------9--------------|
|------------------------------9----9-(9)--------9--------------|
|-0---------------------7------7---------------------7----------|
|---------------------------------------------------------------|
|
|                              ~~~~
| E  E     +E   E   E   E     +Q.      S  S     +E   S     +S
|---17b19r(17)-14-----------------------------------------------|
|------------------17-(17)---(17)-------------------------------|
|----------------------16b18r(16)-----14h16b18-(16)-16b18r(16)p=|
|---------------------------------------------------------------|
|---------------------------------------------------------------|
|---------------------------------------------------------------|


  C#m                        D
   E     E    E     E   E  E  E     E     E   E      E    E
|---------------------------------------------2----------------|
|-------------------5---------------------3----------3---------|
|-------------6---------6-----------2---------------------0----|
|--------6-----------------6--0--------------------------------|
|--4-----------------------------------------------------------|
|--------------------------------------------------------------|
|
|  Q.              +E   E  E  E     E     E  +E      E    E
|----------------------------------------------------2---------|
|-----------------------6-----------------3--(3)----------3----|
|--------------------------6--------2--------------------------|
|--6---------------(6)--------0--------------------------------|
|--4---------------(4)-----------------------------------------|
|--------------------------------------------------------------|
|
|                                      ~~~
|  |-----4:3-----|                            |-----4:3------|
|  E   E    E    E  E   E  E  S  S  S  E.    +E    E    E    E
|--------------------------------------------------------------|
|--------------------------------------------------------------|
|-14-------14---16-14--14----14----14------------------14---16-|
|-----16------------------16----16----16----(16)-/16-----------|
|--------------------------------------------------------------|
|--------------------------------------------------------------|


  A                         E
   Q.         Q           E  Q.           Q       E
|-------------------------------------------------------|
|-------------2-----------0--0------------0-------0-----|
|--2----------2-----------0--1------------1-------1-----|
|--2----------2-----------0--2------------2-------2-----|
|--0----------0-----------0--2------------2-------2-----|
|----------------------------0------------0-------0-----|
|
|  E    E  E  Q           E  E    E   E   E    E  E
|-------5--5--5-----------5-----------------------------|
|-------5--5--5-----------5-----------------------------|
|-----------------------------------------9-------------|
|----------------------------9----9-------9----9--9-----|
|--0-------------------------7--------7--------7--7-----|
|-------------------------------------------------------|
|
|  Q       E  E      +E   E  Q       +E   Q       E
|-------------------------------------------------------|
|---------15----------------17b19r==(17)----------------|
|-16b18------16pb18r(16)-14--------------16b18---16b18--|
|-------------------------------------------------------|
|-------------------------------------------------------|
|-------------------------------------------------------|


  D
   Q.       E   E  E        Q.                      E         E      E
|-------------------------------------------------------------------------|
|--3--------3---3--0--------3-----------------------3---------3------0----|
|--2--------2---2--0--------2-----------------------2---------2------0----|
|--0--------0---0--0--------0-----------------------0---------0------0----|
|-------------------------------------------------------------------------|
|-------------------------------------------------------------------------|
|
|  E  E E   E   E  E        E      E         E      E         E      E
|-------------------------------------------------------------------------|
|-------------------------------------------------------------------------|
|-------------------------------------------------------------------------|
|--7--7-7---9---9--9--------7------7---------7------9---------9------7----|
|--5--5-5---5---5--5--------5------5---------5------5---------5------5----|
|-------------------------------------------------------------------------|
|
|                  |--3--|  |-3-|  |--3--|   |-3-|  |--3--|   |-3-|  |3-|
|  Q.      +E   E  S  S  S  E   S  S  S  S  +E   S  S  S  S  +E   S  S  E
|-------------------------------------------------------------------------|
|-17------(17)-17-17-----------17---------------17---------------17-------|
|-14------(14)-14-14h16p14-----14-16-14---------14h16p14---------14h16p14-|
|--------------------------16-----------16-(16)----------16-(16)----------|
|-------------------------------------------------------------------------|
|-------------------------------------------------------------------------|


  A                                 E
   Q.                E   E     E     Q.               Q.
|--------------------0--------------------------------0----------------|
|------------------------2-----------0----------------0----------------|
|--2---------------------------0-----1----------------1----------------|
|--2---------------------------0-----2----------------2----------------|
|--0---------------------------------2---------------------------------|
|------------------------------------0---------------------------------|
|
|  Q        E       +E   E     E     Q            E  +E  E   E
|-----------5-------(5)--5---------------------------------------------|
|-----------5-------(5)--5---------------------------------------------|
|-------------------------------------------------9--(9)-9-------------|
|------------------------------------9------------9--(9)-9---9---------|
|--0---------------------------7-----7-----------------------7---------|
|----------------------------------------------------------------------|
|
|                                                     ~~~~~~~~~~~
|  |----4:3----|
|  E   E  E    E     E   S  S  S  S  S   S  Q        +Q     +S    S
|----------------------------------------------------------------------|
|----------------------------------------------------------------17b19-|
|-----14-16---16b18-16--14-16-14----14--16-16b18====(16)---(16)r-------|
|-16-----------------------------16------------------------------------|
|----------------------------------------------------------------------|
|----------------------------------------------------------------------|


  C#m                                 D
    E  E          E    E   E     E     E E E  E      E     E
|----------------------2-------------------------------------*|
|---2-------------2--------------0-----3------3--------------*|
|---2--2-------------------2-----------2---2---------2-------*|
|---4----------------------------------0-0-----------------3-*|
|---4--------------------------------------------------------*|
|---2--------------------------------------------------------*|
|
|   Q             E   +E   E     E     E E E  E      E     E
|---------------------------------------------2--------------*|
|------------------------------------------3---------3-------*|
|----------------------------------------2-----------------2-*|
|----------------11--(11)-11----11-----0---------------------*|
|---9-------------9---(9)--9-----9---------------------------*|
|------------------------------------------------------------*|
|
|  +E.    S      +E   +E   E     E     Q   E  E     +E     E
|--------------------------------------------19b20-(19)b22---*|
|-(17)---17pb19r(17)-(17)------------------x-----------------*|
|-------------------------16b18-16b18-14---x-----------------*|
|------------------------------------------------------------*|
|------------------------------------------------------------*|
|------------------------------------------------------------*|



Duration Legend
---------------
W - whole; H - half; Q - quarter; E - 8th; S - 16th; T - 32nd; X - 64th; a - acciaccatura
+ - note tied to previous; . - note dotted; .. - note double dotted
Uncapitalized letters represent notes that are staccato (1/2 duration)
Irregular groupings are notated above the duration line
Duration letters will always appear directly above the note/fret number it represents the
duration for.  Duration letters with no fret number below them represent rests.  Multi-
bar rests are notated in the form Wxn, where n is the number of bars to rest for.  Low
melody durations appear below the staff

Tablature Legend
----------------
 h   - hammer-on
 p   - pull-off
 b   - bend
 pb  - pre-bend
 r   - bend release (if no number after the r, then release immediately)
 /\  - slide into or out of (from/to "nowhere")
 s   - legato slide
 S   - shift slide
<n> - natural harmonic
[n]  - artificial harmonic
n(n) - tapped harmonic
 ~   - vibrato
 tr  - trill
 T   - tap
 TP  - trem. picking
 PM  - palm muting
\n/  - tremolo bar dip; n = amount to dip
 \n  - tremolo bar down
 n/  - tremolo bar up
/n\  - tremolo bar inverted dip
 =   - hold bend; also acts as connecting device for hammers/pulls
 <> - volume swell (louder/softer)
 x   - on rhythm slash represents muted slash
 o   - on rhythm slash represents single note slash

Misc Legend
-----------
 |  - bar
||  - double bar
||o - repeat start
o|| - repeat end
*|  - double bar (ending)
 :  - bar (freetime)
 $  - Segno
 &  - Coda
Tempo markers - <E/E./Q/Q./H/H.> = BPM(8/16=s8/s16), where s8 = swing 8ths, s16 = swing 16ths

comments
print report bad tab
2 comments total.
+1 reply
Supernaught wrote on October 8 2009, 08:27 am

Excellent!

0 reply
bittle wrote on June 11 2014, 04:39 pm

great tab!

I want to post or [tab]
guest
You may want to rate the tab now too:
select rating
Please do not post tabs as comments. Select "correction" instead!