Oops, an error
Loading. Please wait.

Fever Tab

ver1
ver1

Whole song

Interactive

More versions @911Tabs.com
3,467 views 3 this week
no commentswrite comment
1 2 3 4 5
please rate
Autoscroll
+/-
esc
set tempo
stop
Hey! There's an official Ultimate Guitar app which is ideal
for learning songs when you're away from computer. Get the app
WARNING: You are trying to view
                                    content from Ultimate-Guitar.com
                                    in an unauthorized application,
                                    which is prohibited.

                                    Please use an official Ultimate
                                    Guitar Tabs application for iPhone,
                                    iPad or Android to access legitimate
                                    chords, guitar, bass, and drum tabs
                                    from Ultimate-Guitar.com database.

                                    Type "ultimate guitar tabs" in Apple
                                    App Store's or Android Market's
                                    search to find the application.
Band: Aerosmith
Song: Fever



Guitar # 1:


     W                   W                   W                 
E||-------------------|-------------------|-------------------|
B||-------------------|-------------------|-------------------|
G||-------------------|-------------------|-------------------|
D||-------------------|-------------------|-------------------|
A||-------------------|-------------------|-------------------|
E||-------------------|-------------------|-------------------|


  W                   W                   W                   W                 
-------------------|-------------------|-------------------|-------------------|
-------------------|-------------------|-------------------|-------------------|
-------------------|-------------------|-------------------|-------------------|
-------------------|-------------------|-------------------|-------------------|
-------------------|-------------------|-------------------|-------------------|
-------------------|-------------------|-------------------|-------------------|


  W                   W                   W                 
-------------------|-------------------|-------------------|
-------------------|-------------------|-------------------|
-------------------|-------------------|-------------------|
-------------------|-------------------|-------------------|
-------------------|-------------------|-------------------|
-------------------|-------------------|-------------------|


             PM PM PM PM    PM PM PM PM PM PM PM PM                             
  Q    E  E  E  E  E  E     E  E  E  E  E  E  E  E     E  E  E  E  E  E  E  E   
-------------------------|--------------------------|--------------------------|
-------------------------|--------------------------|--------------------------|
-------------------------|--------------------------|--------------------------|
--2----2-----------------|--------------------------|--------------------------|
--2-------2--------------|--------------------------|--------------------------|
--0----------0--0--0--0--|--0--0--0--0--0--0--0--0--|--0--0--0--0--0--0--0--0--|


  E  E  E  E  E  E  E  E     E  E  E  E  E  E  E  E   
--------------------------|--------------------------|
--------------------------|--------------------------|
--------------------------|--------------------------|
--------------------------|--------------------------|
--------------------------|--------------------------|
--0--0--0--0--0--0--0--0--|--0--0--0--0--0--0--0--0--|


  E  E  E  E  E  E  E  E     E  E  E  E  E  E  E  E   
--------------------------|--------------------------|
--------------------------|--------------------------|
--------------------------|--------------------------|
--------------------------|--------------------------|
--------------------------|--------------------------|
--0--0--0--0--0--0--0--0--|--0--0--0--0--0--0--0--0--|


  PM PM PM PM PM PM                                    
  E  E  E  E  E  E  Q        Q    E   E  E  E   E  E   
--------------------------|---------------------------|
--------------------------|---------------------------|
--------------------------|---------------------------|
--------------------------|---------------------------|
--------------------------|-----------------5p--2-----|
--0--0--0--0--0--0--x\----|--0----3p--0--L---------0--|


  E   E  E  E   E  E  Q        Q    E   E  E  E   E  E   
----------------------------|---------------------------|
----------------------------|---------------------------|
----------------------------|---------------------------|
--5p--2---------------------|---------------------------|
------------5p--2-----------|-----------------5p--2-----|
---------0---------0--3b----|--0----3p--0--0---------0--|


  E   E  E  E   E  E  Q        Q    E   E  E  E   E  E   
----------------------------|---------------------------|
----------------------------|---------------------------|
----------------------------|---------------------------|
--5p--2---------------------|---------------------------|
------------5p--2-----------|-----------------5p--2-----|
---------0---------0--3b----|--0----3p--0--0---------0--|


  E   E  E  E   E  E  E   E     Q    E   E  E  E   E  E   
-----------------------------|---------------------------|
-----------------------------|---------------------------|
-----------------------------|---------------------------|
--5p--2----------------------|---------------------------|
------------5p--2------------|-----------------5p--2-----|
---------0---------0--3p--0--|--0----3p--0--0---------0--|


  E   E  E  E   E  E  E   E     Q    E   E  E  E   E  E   
-----------------------------|---------------------------|
-----------------------------|---------------------------|
-----------------------------|---------------------------|
--5p--2----------------------|---------------------------|
------------5p--2------------|-----------------5p--2-----|
---------0---------0--3p--0--|--0----3p--0--0---------0--|


  E   E  E  E   E  E  E   E     Q    E   E  E  E   E  E   
-----------------------------|---------------------------|
-----------------------------|---------------------------|
-----------------------------|---------------------------|
--5p--2----------------------|---------------------------|
------------5p--2------------|-----------------5p--2-----|
---------0---------0--3p--0--|--0----3p--0--0---------0--|


  E   E  E  E   E  E  E   E     Q    E   E  E  E   E  E   
-----------------------------|---------------------------|
-----------------------------|---------------------------|
-----------------------------|---------------------------|
--5p--2----------------------|---------------------------|
------------5p--2------------|-----------------5p--2-----|
---------0---------0--3p--0--|--0----3p--0--0---------0--|


  E   E  E  E   E  E  E   E     Q    E   E  E  E   E  E   
-----------------------------|---------------------------|
-----------------------------|---------------------------|
-----------------------------|---------------------------|
--5p--2----------------------|---------------------------|
------------5p--2------------|-----------------5p--2-----|
---------0---------0--3p--0--|--0----3p--0--0---------0--|


  E   E  E  E   E  E  E   E     Q    Q    H         
-----------------------------|-------0----L--------|
-----------------------------|-------0----L--------|
-----------------------------|---------------------|
--5p--2----------------------|---------------------|
------------5p--2------------|---------------------|
---------0---------0--3p--0--|--0------------------|


    E  E  E  E  E  E    Q       Q    H.              E  Q    E  E  E  Q      
-------------0--L------------|--------------------|-------------------------|
-------------0--L------------|--------------------|-------------------------|
-----------------------------|-------2------------|----------2--L-----------|
-----------------------------|-------2------------|----------2--L-----------|
-------0---------------------|--0----0------------|--0--0-------------------|
--3g3-----0--------0--3g3----|--------------------|----------------0--3b----|


  Q    Q    Q.     S S    E  Q    E  E  E    Q       Q    H.            
-------0----L----------|----------0--L------------|--------------------|
-------0----L----------|----------0--L------------|--------------------|
-----------------------|--------------------------|-------2------------|
-----------------------|--------------------------|-------2------------|
-----------------------|--------------------------|--0----0------------|
--0----------------0-0-|--0--0----------0--3g3----|--------------------|


  Q.     E  Q    Q        Q    Q    Q    Q        E  Q    E  E  E  Q      
-----------------------|-------0----L----------|-------------------------|
-----------------------|-------0----L----------|-------------------------|
--2------2--L----------|-----------------------|--4--4----4--L--4--------|
--2------2--L----------|-----------------------|--4--4----4--L--4--------|
--0------0--L----------|-----------------------|--2--2----2--L--2--------|
-----------------3b----|--0--------------3b----|-------------------3b----|


  Q    Q    Q    Q        Q    E  E  E  E  Q        Q    Q    Q    Q      
-------0----L----------|-------------------------|-------0----L----------|
-------0----L----------|-------------------------|-------0----L----------|
-----------------------|--4----4--4--L--4--------|-----------------------|
-----------------------|--4----4--4--L--4--------|-----------------------|
-----------------------|--2----2--2--L--2--------|-----------------------|
--0--------------3b----|-------------------3b----|--0--------------3b----|


  Q    E  E  Q    Q       E  Q.     H           H.           Q      
-----------------------|---------------------|---------------------|
-----------------------|---------------------|---------------------|
--4----4--4--L----4----|--9--7------L--------|--L------------x\----|
--4----4--4--L----4----|--9--7------L--------|--L------------x\----|
--2----2--2--L----2----|--7--5------L--------|--L------------x\----|
-----------------------|---------------------|---------------------|


  Q    E   E  E  E   E  E     E   E  E  E   E  E  Q      
---------------------------|----------------------------|
---------------------------|----------------------------|
---------------------------|----------------------------|
---------------------------|--5p--2---------------------|
-----------------5p--2-----|------------5p--2-----------|
--0----3p--0--0---------0--|---------0---------0--3b----|


  Q    E   E  E  E   E  E     E   E  E  E   E  E  Q      
---------------------------|----------------------------|
---------------------------|----------------------------|
---------------------------|----------------------------|
---------------------------|--5p--2---------------------|
-----------------5p--2-----|------------5p--2-----------|
--0----3p--0--0---------0--|---------0---------0--3b----|


  Q    E   E  E  E   E  E     E   E  E  E   E  E  E   E   
---------------------------|-----------------------------|
---------------------------|-----------------------------|
---------------------------|-----------------------------|
---------------------------|--5p--2----------------------|
-----------------5p--2-----|------------5p--2------------|
--0----3p--0--0---------0--|---------0---------0--3p--0--|


  Q    E   E  E  E   E  E     E   E  E  E   E  E  E   E   
---------------------------|-----------------------------|
---------------------------|-----------------------------|
---------------------------|-----------------------------|
---------------------------|--5p--2----------------------|
-----------------5p--2-----|------------5p--2------------|
--0----3p--0--0---------0--|---------0---------0--3p--0--|


  Q    E   E  E  E   E  E     E   E  E  E   E  E  E   E   
---------------------------|-----------------------------|
---------------------------|-----------------------------|
---------------------------|-----------------------------|
---------------------------|--5p--2----------------------|
-----------------5p--2-----|------------5p--2------------|
--0----3p--0--0---------0--|---------0---------0--3p--0--|


  Q    E   E  E  E   E  E     E   E  E  E   E  E  E   E   
---------------------------|-----------------------------|
---------------------------|-----------------------------|
---------------------------|-----------------------------|
---------------------------|--5p--2----------------------|
-----------------5p--2-----|------------5p--2------------|
--0----3p--0--0---------0--|---------0---------0--3p--0--|


  Q    Q    Q.     E     E  Q    E  Q      Q       Q    H.            
-------0----L---------|----------0--L-----------|--------------------|
-------0----L---------|----------0--L-----------|--------------------|
----------------------|-------------------------|-------2------------|
----------------------|-------------------------|-------2------------|
----------------------|-------------------------|--0----0------------|
--0----------------0--|--0--0------------3g3----|--------------------|


  E   E  E  E  Q    Q        Q    H.                E  E  E  E  E   E     Q     
--------------------------|-------0------------|-------------0--L--------------|
--------------------------|-------0------------|-------------0--L--------------|
------------2--L----------|--------------------|-------------------------------|
------------2--L----------|--------------------|-------------------------------|
--3b--0--0----------------|--------------------|-------0-----------------------|
--------------------3b----|--0-----------------|--3g3-----0--------(0)--3g3----|


  Q    H.              E   Q    E  Q     E   E      Q    Q    Q    Q      
--------------------|----------------------------|-------0----L----------|
--------------------|----------------------------|-------0----L----------|
-------2------------|-----------2--L-------------|-----------------------|
-------2------------|-----------2--L-------------|-----------------------|
--0----0------------|--3b--0----0--L-------------|-----------------------|
--------------------|-------------------(0)--3b--|--0--------------3b----|


  E  Q    E  E  E  Q        Q    Q    Q    Q        Q    E  E  E  E  Q      
-------------------------|-------0----L----------|-------------------------|
-------------------------|-------0----L----------|-------------------------|
--4--4----4--L--4--------|-----------------------|--4----4--4--L--4--------|
--4--4----4--L--4--------|-----------------------|--4----4--4--L--4--------|
--2--2----2--L--2--------|-----------------------|--2----2--2--L--2--------|
-------------------3b----|--0--------------3b----|-------------------3b----|


  Q    Q    Q    Q        Q    E  E  Q    Q       E  Q.     H         
-------0----L----------|-----------------------|---------------------|
-------0----L----------|-----------------------|---------------------|
-----------------------|--4----4--4--L----4----|--9--7------L--------|
-----------------------|--4----4--4--L----4----|--9--7------L--------|
-----------------------|--2----2--2--L----2----|--7--5------L--------|
--0--------------3b----|-----------------------|---------------------|


  E  Q.     H           E  Q.     H           E  Q.     H         
---------------------|---------------------|---------------------|
---------------------|---------------------|---------------------|
--7------------------|---------------------|---------------------|
--7--7------L--------|--7--5------L--------|--5--7------L--------|
--5--7------L--------|--7--5------L--------|--5--7------L--------|
-----5------L--------|--5--3------L--------|--3--5------L--------|


  E  Q.     H           E  Q.     H           E  Q.     H         
---------------------|---------------------|---------------------|
---------------------|---------------------|---------------------|
--9--7------L--------|--7------------------|---------------------|
--9--7------L--------|--7--7------L--------|--7--5------L--------|
--7--5------L--------|--5--7------L--------|--7--5------L--------|
---------------------|-----5------L--------|--5--3------L--------|


  E  Q.     H           E  Q.     H           E  Q.     H         
---------------------|---------------------|---------------------|
---------------------|---------------------|---------------------|
---------------------|--9--7------L--------|--7------------------|
--5--7------L--------|--9--7------L--------|--7--7------L--------|
--5--7------L--------|--7--5------L--------|--5--7------L--------|
--3--5------L--------|---------------------|-----5------L--------|


  E  Q.     H           E  Q.     H           E  Q.     H         
---------------------|---------------------|---------------------|
---------------------|---------------------|---------------------|
---------------------|---------------------|--9--7------L--------|
--7--5------L--------|--5--7------L--------|--9--7------L--------|
--7--5------L--------|--5--7------L--------|--7--5------L--------|
--5--3------L--------|--3--5------L--------|---------------------|


  E  Q.     H           E  Q.     H           E  Q.     H         
---------------------|---------------------|---------------------|
---------------------|---------------------|---------------------|
--7------------------|---------------------|---------------------|
--7--7------L--------|--7--5------L--------|--5--7------L--------|
--5--7------L--------|--7--5------L--------|--5--7------L--------|
-----5------L--------|--5--3------L--------|--3--5------L--------|


  E  E  E  E  E  E  E  E     E  E  E  E  E  E  Q        Q    H.            
--------------------------|--------------------------|--------------------|
--------------------------|--------------------------|--------------------|
--------------------------|--------------------------|-------9------------|
--9--9--9--9--9--9--9--9--|--9--9--9--9--9--9--x\----|-------9------------|
--9--9--9--9--9--9--9--9--|--9--9--9--9--9--9--x\----|-------7------------|
--7--7--7--7--7--7--7--7--|--7--7--7--7--7--7--x\----|--0-----------------|


  H.           Q        W                Q    E   E  E  E   E  E   
---------------------|--------------------------------------------|
---------------------|--------------------------------------------|
--L------------x\----|--------------------------------------------|
--L------------x\----|--------------------------------------------|
--L------------x\----|----------------------------------5p--2-----|
---------------------|-------------------0----3p--0--0---------0--|


  W                E   E  E  E   E  E  E   E     Q    E   E  E  E   E  E   
----------------------------------------------|---------------------------|
----------------------------------------------|---------------------------|
----------------------------------------------|---------------------------|
-------------------5p--2----------------------|---------------------------|
-----------------------------5p--2------------|-----------------5p--2-----|
--------------------------0---------0--3p--0--|--0----3p--0--0---------0--|


  E   E  E  E   E  E  E   E     Q    E   E  E  E   E  E   
-----------------------------|---------------------------|
-----------------------------|---------------------------|
-----------------------------|---------------------------|
--5p--2----------------------|---------------------------|
------------5p--2------------|-----------------5p--2-----|
---------0---------0--3p--0--|--0----3p--0--0---------0--|


  E   E  E  E   E  E  E   E     Q    E   E  E  E   E  E   
-----------------------------|---------------------------|
-----------------------------|---------------------------|
-----------------------------|---------------------------|
--5p--2----------------------|---------------------------|
------------5p--2------------|-----------------5p--2-----|
---------0---------0--3p--0--|--0----3p--0--0---------0--|


  E   E  E  E   E  E  Q        Q    E   E  E  E   E  E   
----------------------------|---------------------------|
----------------------------|---------------------------|
----------------------------|---------------------------|
--5p--2---------------------|---------------------------|
------------5p--2-----------|-----------------5p--2-----|
---------0---------0--3b----|--0----3p--0--0---------0--|


  E   E  E  E   E  E  Q        Q    E   E  E  E   E  E   
----------------------------|---------------------------|
----------------------------|---------------------------|
----------------------------|---------------------------|
--5p--2---------------------|---------------------------|
------------5p--2-----------|-----------------5p--2-----|
---------0---------0--3b----|--0----3p--0--0---------0--|


  E   E  E  E   E  E  Q        Q    E   E  E  E   E  E   
----------------------------|---------------------------|
----------------------------|---------------------------|
----------------------------|---------------------------|
--5p--2---------------------|---------------------------|
------------5p--2-----------|-----------------5p--2-----|
---------0---------0--3b----|--0----3p--0--0---------0--|


  E   E  E  E   E  E  Q        Q    E   E  E  E   E  E   
----------------------------|---------------------------|
----------------------------|---------------------------|
----------------------------|---------------------------|
--5p--2---------------------|---------------------------|
------------5p--2-----------|-----------------5p--2-----|
---------0---------0--3b----|--0----3p--0--0---------0--|


  E   E  E  E   E  E  Q        Q    Q    E  E  E  E      H         Q.      E   
----------------------------|-------0----L------------|-----------------------|
----------------------------|-------0----L------------|--------------------0--|
----------------------------|-------------------------|--------------------0--|
--5p--2---------------------|---------------------2b--|--L~--------L~---------|
------------5p--2-----------|-------------------------|-----------------------|
---------0---------0--3b----|--0----------------------|-----------------------|


  Q    Q    Q.     E      H         Q     E   E     Q    Q    E  E  E  E    
-----------------------|-------------------------|-------0----L------------|
-----------------------|-------------------------|-------0----L------------|
-------2----L------4b--|--L~--------L~----L~--x--|-------------------------|
-------2----L----------|-------------------------|-------------------------|
--0----0----L----------|-------------------------|-------------------------|
-----------------------|-------------------------|--0------------------2b--|


  H         Q     E   E     Q    Q    Q    E  S T  T   
-------------------------|----------------------------|
-------------------------|----------------------------|
-------------------------|-------2----L----L--L-4p-2h-|
-------------------------|-------2----L----L--L-------|
-------------------------|--0----0----L----L--L-------|
--L~--------L~----L~--0--|----------------------------|


  Q.       E    E     S  S Q       Q    Q    Q    Q      
--------------------------------|-------0----L----------|
--------------------------------|-------0----L----------|
--0------2g2pb--Lpbr--Lp-0------|-----------------------|
---------------------------2----|-----------------------|
--------------------------------|-----------------------|
--------------------------------|--0--------------3b----|


  E  Q    E  E  E  Q        Q    Q    Q    Q        Q    E  E  E  E  Q      
-------------------------|-------0----L----------|-------------------------|
-------------------------|-------0----L----------|-------------------------|
--4--4----4--L--4--------|-----------------------|--4----4--4--L--4--------|
--4--4----4--L--4--------|-----------------------|--4----4--4--L--4--------|
--2--2----2--L--2--------|-----------------------|--2----2--2--L--2--------|
-------------------3b----|--0--------------3b----|-------------------3b----|


  Q    Q    Q    Q        Q    E  E  Q    Q       E  Q.     H         
-------0----L----------|-----------------------|---------------------|
-------0----L----------|-----------------------|---------------------|
-----------------------|--4----4--4--L----4----|--9--7------L--------|
-----------------------|--4----4--4--L----4----|--9--7------L--------|
-----------------------|--2----2--2--L----2----|--7--5------L--------|
--0--------------3b----|-----------------------|---------------------|


  E  Q.     H           E  Q.     H           E  Q.     H         
---------------------|---------------------|---------------------|
---------------------|---------------------|---------------------|
--7------------------|---------------------|---------------------|
--7--7------L--------|--7--5------L--------|--5--7------L--------|
--5--7------L--------|--7--5------L--------|--5--7------L--------|
-----5------L--------|--5--3------L--------|--3--5------L--------|


  E  Q.     H           E  Q.     H           E  Q.     H         
---------------------|---------------------|---------------------|
---------------------|---------------------|---------------------|
--9--7------L--------|--7------------------|---------------------|
--9--7------L--------|--7--7------L--------|--7--5------L--------|
--7--5------L--------|--5--7------L--------|--7--5------L--------|
---------------------|-----5------L--------|--5--3------L--------|


  E  Q.     H           W                   W                 
---------------------|-------------------|-------------------|
---------------------|-------------------|-------------------|
---------------------|-------------------|-------------------|
--5--7------L--------|-------------------|-------------------|
--5--7------L--------|-------------------|-------------------|
--3--5------L--------|-------------------|-------------------|


  W                   W                   W                   W                 
-------------------|-------------------|-------------------|-------------------|
-------------------|-------------------|-------------------|-------------------|
-------------------|-------------------|-------------------|-------------------|
-------------------|-------------------|-------------------|-------------------|
-------------------|-------------------|-------------------|-------------------|
-------------------|-------------------|-------------------|-------------------|


  W                   W                   W                   W                 
-------------------|-------------------|-------------------|-------------------|
-------------------|-------------------|-------------------|-------------------|
-------------------|-------------------|-------------------|-------------------|
-------------------|-------------------|-------------------|-------------------|
-------------------|-------------------|-------------------|-------------------|
-------------------|-------------------|-------------------|-------------------|


    Q    E   E  E  E   E  E     E   E  E  E   E  E  E   E   4x
|----------------------------|------------------------------||
|----------------------------|------------------------------||
|*---------------------------|-----------------------------*||
|*---------------------------|--5p--2----------------------*||
|------------------5p--2-----|------------5p--2-------------||
|---0----3p--0--0---------0--|---------0---------0--3p--0---||


  W                     Q    E   E  E  E   E  E   
-------------------||----------------------------|
-------------------||----------------------------|
-------------------||*---------------------------|
-------------------||*-----------------5p--0-----|
-------------------||---0----3p--0--0---------0--|
-------------------||----------------------------|


  E   E  E  E   E  E  E   E        Q    Q    Q    Q       
------------------------------||------------------------||
------------------------------||------------------------||
--5p--2----------------------*||*----------------------*||
------------5p--2------------*||*--9----9----9----9----*||
---------0---------0--3p--0---||---9----9----9----9-----||
------------------------------||---7----7----7----7-----||


  E  E  E  E  E  E  E  E     E  E  E  E  E  E  E  E     Q    Q    Q.     E    
--------------------------|--------------------------|-----------------------|
--------------------------|--------------------------|-----------------------|
--------------------------|--------------------------|-----------------------|
--9--9--9--9--9--9--9--9--|--9--9--9--9--9--9--9--9--|-------------------2b--|
--9--9--9--9--9--9--9--9--|--9--9--9--9--9--9--9--9--|-------2----L----------|
--7--7--7--7--7--7--7--7--|--7--7--7--7--7--7--7--7--|--0----0----L----------|


  E   E  E  E   E     S  S Q        Q    Q    E    E  E  E   
------0--------------------------|-----------------------0--|
---------0-----------------------|--------------------0-----|
---------------------------------|-------2----L--2g2--------|
--L~--------2~--Lpbr--Lp-0-------|-------2----L-------------|
---------------------------2~----|--0----0----L-------------|
---------------------------------|--------------------------|


  E    E     E   E  E  E  Q       Q    Q    Q    E  E   
-------------------------------|-------0----L----------|
-------------------------------|-------0----L----------|
-----2g2pbr--Lp--0--0----------|-----------------------|
-----------------------2-------|-----------------------|
-------------------------------|-----------------0--0--|
--------------------------0----|--0--------------------|


  E  E  E  E  E  E  Q       Q    Q    E  E  E  E   
-------------------------|---------------3--3--0--|
-------------------------|---------------2--2--0--|
-----------------0-------|-------2----L-----------|
--------0--0--2----------|-------2----L-----------|
--2--2--------------0----|--0----0----L-----------|
-------------------------|------------------------|


  E  E  E  E  E  E  E      E      Q     Q    Q    Q     
--3--3--0--3--L--0--0---------|--------------0----0----|
--2--2--0--2--L--0--0--15g15--|---L\---------0----0----|
------------------------------|------------------------|
------------------------------|------------------------|
------------------------------|------------------------|
------------------------------|---------0--------------|


  Q    E  E  E  E  Q        Q    Q    Q    Q        Q    E  E  E  E  Q      
-------------------------|-------0----L----------|-------------------------|
-------------------------|-------0----L----------|-------------------------|
--4----4--4--L--4--------|-----------------------|--4----4--4--L--4--------|
--4----4--4--L--4--------|-----------------------|--4----4--4--L--4--------|
--2----2--2--L--2--------|-----------------------|--2----2--2--L--2--------|
-------------------3b----|--0--------------3b----|-------------------3b----|


  Q    Q    Q    Q        E  Q    E  E  E  Q        Q    Q    Q    Q      
-------0----L----------|-------------------------|-------0----L----------|
-------0----L----------|-------------------------|-------0----L----------|
-----------------------|--4--4----4--L--4--------|-----------------------|
-----------------------|--4--4----4--L--4--------|-----------------------|
-----------------------|--2--2----2--L--2--------|-----------------------|
--0--------------3b----|-------------------3b----|--0--------------3b----|


  Q    E  E  E  E  Q        Q    Q    Q    Q        E  Q    E  E  E  Q      
-------------------------|-------0----L----------|-------------------------|
-------------------------|-------0----L----------|-------------------------|
--4----4--4--L--4--------|-----------------------|--4--4----4--L--4--------|
--4----4--4--L--4--------|-----------------------|--4--4----4--L--4--------|
--2----2--2--L--2--------|-----------------------|--2--2----2--L--2--------|
-------------------3b----|--0--------------3b----|-------------------3b----|


  Q    Q    Q    Q        Q    E  E  E  E  Q        Q    Q    Q    Q      
-------0----L----------|-------------------------|-------0----L----------|
-------0----L----------|-------------------------|-------0----L----------|
-----------------------|--4----4--4--L--4--------|-----------------------|
-----------------------|--4----4--4--L--4--------|-----------------------|
-----------------------|--2----2--2--L--2--------|-----------------------|
--0--------------3b----|-------------------3b----|--0--------------3b----|


  Q    E  E  E  E  Q        E  Q.     H           W                  
-------------------------|---------------------|-------------------||
-------------------------|--9--7------L--------|-------------------||
--4----4--4--L--4--------|--9--7------L--------|-------------------||
--4----4--4--L--4--------|--9--7------L--------|-------------------||
--2----2--2--L--2--------|--7--5------L--------|-------------------||
-------------------3b----|---------------------|-------------------||










Guitar # 2:


     W                   W                   W                 
E||-------------------|-------------------|-------------------|
B||-------------------|-------------------|-------------------|
G||-------------------|-------------------|-------------------|
D||-------------------|-------------------|-------------------|
A||-------------------|-------------------|-------------------|
E||-------------------|-------------------|-------------------|


  W                   W                   W                   W                 
-------------------|-------------------|-------------------|-------------------|
-------------------|-------------------|-------------------|-------------------|
-------------------|-------------------|-------------------|-------------------|
-------------------|-------------------|-------------------|-------------------|
-------------------|-------------------|-------------------|-------------------|
-------------------|-------------------|-------------------|-------------------|


  W                   W                   H        Q    E  S S  
-------------------|-------------------|---------------------0-|
-------------------|-------------------|-----------------------|
-------------------|-------------------|-----------------------|
-------------------|-------------------|-----------------------|
-------------------|-------------------|-----------------------|
-------------------|-------------------|-----------------------|


   |---3---|   |---3---|  |----3---|             
   E   E   E   E   E   E  E    E   E   E  S   S  
--12p--0------------------0h--12p--0------0h-12-|
----------12--12p--0--12--------------12--------|
------------------------------------------------|
------------------------------------------------|
------------------------------------------------|
------------------------------------------------|


   |---3---|   |---3--|   |---3--|           
   E   E   E   E  E   E   E  E   E   E   E   
---Lp--0------12---------12---------10--10--|
----------12------0--12------0--12----------|
--------------------------------------------|
--------------------------------------------|
--------------------------------------------|
--------------------------------------------|


   |---3---|   |---3---|   |---3---|         
   E   E   E   E   E   E   E   E   E  E  E   
---Lp--0------12p--0------12p--0------0-----|
----------12----------12----------12-----0--|
--------------------------------------------|
--------------------------------------------|
--------------------------------------------|
--------------------------------------------|


   |---3---|   |---3---|   |---3--|           
   E   E   E   E   E   E   E   E  E   E   E   
--12p--0------12p--0------12p--0--0--10--10--|
----------12----------12-------------10--10--|
---------------------------------------------|
---------------------------------------------|
---------------------------------------------|
---------------------------------------------|


           |---3---|   |---3---|   |---3---|   
   E   E   E   E   E   E   E   E   E   E   E   
---L--12--12p--0------12p--0------12p--0------|
---L--12----------12----------12----------12--|
----------------------------------------------|
----------------------------------------------|
----------------------------------------------|
----------------------------------------------|


   |---3---|   |---3---|   |---3---|           
   E   E   E   E   E   E   E   E   E   E   E   
--12p--0------12p--0------12p--0------10--10--|
----------12----------12----------12--10--10--|
----------------------------------------------|
----------------------------------------------|
----------------------------------------------|
----------------------------------------------|


                                         TP      TP           TP                
   E   E   E   E   E   E   E   E     E   Q.      H            W                 
---L--12--12--10--10--12--12--10--|-----15------15--------|--15----------------|
---L--12--12--10--10--12--12--10--|-----------------------|--------------------|
----------------------------------|-----------------------|--------------------|
----------------------------------|-----------------------|--------------------|
----------------------------------|-----------------------|--------------------|
----------------------------------|-----------------------|--------------------|


  E  E  Q    H           H        Q    Q       W                  
--0--0----------------|---------------------|--------------------|
----------------------|----------------0----|--L\----------------|
----------------------|---------------------|--------------------|
----------------------|---------------------|--------------------|
----------------------|---------------------|--------------------|
----------------------|---------------------|--------------------|


  Q    E    E  Q    E  E     E  E  E  E  S S S S E  E    
-----------------------0--|-----------------------------|
--------------------0-----|-----------------------------|
----------2g2--L----------|--0-----0-----0-0-0-0-0------|
--------------------------|-----2-----2-------------2~--|
--------------------------|-----------------------------|
--------------------------|-----------------------------|


                \1/ \1/ \1/       \1/                                    
  H         E   E   E   E      E  Q    E  H            W                 
----------------------------|-----------------------|-------------------|
----------------------------|-----------------------|-------------------|
----------------------------|-----------------------|-------------------|
--L~--------L~--L---L---L---|--L--L----L--L\--------|-------------------|
----------------------------|-----------------------|-------------------|
----------------------------|-----------------------|-------------------|


  W                   E   Q.       Q.       S   S  
-------------------|------------------------------|
-------------------|-----15~-------L~------15p-12-|
-------------------|------------------------------|
-------------------|------------------------------|
-------------------|------------------------------|
-------------------|------------------------------|


      S  S  Q.       Q      E    E      E  E  Q    H         
------------------------------------|-----------------------|
--------12-15~-------L~----15p--12--|-----------------------|
--14g14-----------------------------|--14-------------------|
------------------------------------|-----------------------|
------------------------------------|-----------------------|
------------------------------------|-----------------------|


  W                   Q     E   E  E   Q.          W                  
-------------------|---------------------------|---------------------|
-------------------|-----------15--------------|---------------------|
-------------------|-------12--14-----12~------|---L~----------------|
-------------------|---------------------------|---------------------|
-------------------|---------------------------|---------------------|
-------------------|---------------------------|---------------------|


  Q    Q    Q    E  E      E  Q      E    E     S  S E  E   
-------0----L-----------|-----0----------------------------|
-------0----L-----------|----------------------------------|
--------------------2s--|--4-------2g2pb--Lpbr--Lp-0-------|
------------------------|----------------------------2--0--|
------------------------|----------------------------------|
--0---------------------|----------------------------------|


                                 |---3--|    |----3----|        
  H        Q    E   E       Q    E  E   E    E     E   E  Q     
-------------------15b--|---L----0-----------------------------|
------------------------|-----------3p--0----------------------|
------------------------|------------------2g2pbr--Lp--0-------|
------------------------|---------------------------------2----|
------------------------|--------------------------------------|
------------------------|--------------------------------------|


  Q    Q    Q.     E      E     E   E     E   E     E   E     E   
-------0----L----------|-----------------------------------------|
-------0----L----------|-----------------------------------------|
-------------------2b--|--Lpbr--Lb--Lpbr--Lb--Lpbr--Lb--Lpbr--L--|
-----------------------|-----------------------------------------|
-----------------------|-----------------------------------------|
--0--------------------|-----------------------------------------|


  Q     Q    H           E  E  E  E  E  E  Q        Q    Q    Q    Q      
----------------------|--------------------------|-------0----L----------|
----------------------|--------------------------|-------0----L----------|
--L~------------------|--2--------2--------------|-----------------------|
----------------------|--2--------2--------------|-----------------------|
----------------------|--0--------0--------------|-----------------------|
----------------------|-----------------0--3b----|--0--------------3b----|


  E  Q    E  E  E  Q        Q    Q    Q    Q        Q    E  E  E  E  Q      
-------------------------|-------0----L----------|-------------------------|
-------------------------|-------0----L----------|-------------------------|
--4--4----4--L--4--------|-----------------------|--4----4--4--L--4--------|
--4--4----4--L--4--------|-----------------------|--4----4--4--L--4--------|
--2--2----2--L--2--------|-----------------------|--2----2--2--L--2--------|
-------------------3b----|--0--------------3b----|-------------------3b----|


  Q    Q    Q    Q        Q    E  E  Q    Q       E  Q.     H         
-------0----L----------|-----------------------|---------------------|
-------0----L----------|-----------------------|---------------------|
-----------------------|--4----4--4--L----4----|--9------------------|
-----------------------|--4----4--4--L----4----|--9--0------L--------|
-----------------------|--2----2--2--L----2----|--7--0------L--------|
--0--------------3b----|-----------------------|---------------------|


  H.           Q        H          H            H         E  Q     E   
---------------------|----------------------|--10---------L-----------|
---------------------|-----------8g8--------|---L---------L--L\-------|
---------------x\----|----------------------|-------------------------|
--L------------x\----|----------------------|-------------------------|
--L------------x\----|----------------------|-------------------------|
---------------------|----------------------|-------------------------|


  W                   W                   W                   W                 
-------------------|-------------------|-------------------|-------------------|
-------------------|-------------------|-------------------|-------------------|
-------------------|-------------------|-------------------|-------------------|
-------------------|-------------------|-------------------|-------------------|
-------------------|-------------------|-------------------|-------------------|
-------------------|-------------------|-------------------|-------------------|


  W                   W                   W                   W                 
-------------------|-------------------|-------------------|-------------------|
-------------------|-------------------|-------------------|-------------------|
-------------------|-------------------|-------------------|-------------------|
-------------------|-------------------|-------------------|-------------------|
-------------------|-------------------|-------------------|-------------------|
-------------------|-------------------|-------------------|-------------------|


  W                   W                   Q    Q    Q.     E    
-------------------|-------------------|-------0----L----------|
-------------------|-------------------|-------0----L----------|
-------------------|-------------------|-------------------2s--|
-------------------|-------------------|-----------------------|
-------------------|-------------------|-----------------------|
-------------------|-------------------|--0--------------------|


  E  E  E    E    E     S  S E   E     Q    Q    Q.     E    
-----0------------------------------|-----------------------|
------------------------------------|-------------------3b--|
--4-----2--2g2pb--Lpbr--Lp-0--------|--2----2----L----------|
-----------------------------2p--0--|--2----2----L----------|
------------------------------------|--0----0----L----------|
------------------------------------|-----------------------|


  E  E  E    E  E  E    E  E     Q    Q    Q.     E    
-----0-------------0-------0--|-------0----L------3b--|
--L-----0--3g3--L-----3g3-----|-------0----L----------|
------------------------------|-----------------------|
------------------------------|-----------------------|
------------------------------|-----------------------|
------------------------------|--0--------------------|


  Q    E  S  S E    E     E   E     Q.     E  E  Q    E   
--L----0-------------------------|-----------------------|
----------3p-0-------------------|-----------------------|
---------------0--2g2pbr--Lp--0--|---------0-----2----2--|
---------------------------------|--2------------2----2--|
---------------------------------|------------0--0----0--|
---------------------------------|-----------------------|


  E  E  E    E    E     S  S Q       Q    Q    Q    Q      
----------------------------------|-------0----L----------|
----------------------------------|-------0----L----------|
--L--0--2--2g2pb--Lpbr--Lp-0------|-----------------------|
--L--------------------------2----|-----------------------|
--L-------------------------------|-----------------------|
----------------------------------|--0--------------3b----|


  E  Q    E  E  E  Q        Q    Q    Q    Q        Q    E  E  E  E  Q      
-------------------------|-------0----L----------|-------------------------|
-------------------------|-------0----L----------|-------------------------|
--4--4----4--L--4--------|-----------------------|--4----4--4--L--4--------|
--4--4----4--L--4--------|-----------------------|--4----4--4--L--4--------|
--2--2----2--L--2--------|-----------------------|--2----2--2--L--2--------|
-------------------3b----|--0--------------3b----|-------------------3b----|


  Q    Q    Q    Q        Q    E  E  Q    Q       E  Q.     H         
-------0----L----------|-----------------------|---------------------|
-------0----L----------|-----------------------|---------------------|
-----------------------|--4----4--4--L----4----|--9------------------|
-----------------------|--4----4--4--L----4----|--9--0------L--------|
-----------------------|--2----2--2--L----2----|--7--0------L--------|
--0--------------3b----|-----------------------|---------------------|


  E  Q.     H           E  Q.     H           E  Q.     H         
---------------------|-----3------L--------|---------------------|
--3------------------|-----3------L--------|---------------------|
--2--2------L--------|--2--0------L--------|--0--2------L--------|
--0--2------L--------|--2--0------L--------|--0--2------L--------|
-----0------L--------|--0------------------|-----0------L--------|
---------------------|-----3------L--------|---------------------|


   E   Q.     H           E  Q.     H           E  Q.     H         
-----------------------|---------------------|-----3------L--------|
--(9)--7------L--------|---------------------|-----3------L--------|
---9---7------L--------|--7--2------L--------|--2--0------L--------|
---9---7------L--------|--7--2------L--------|--2--0------L--------|
---7---5------L--------|--5--0------L--------|--0------------------|
-----------------------|---------------------|-----3------L--------|


  E  Q.     H           E  Q.     H           E  Q.     H         
---------------------|---------------------|---------------------|
---------------------|---------------------|--3------------------|
--0--2------L--------|--9------------------|--2--2------L--------|
--0--2------L--------|--9--0------L--------|--0--2------L--------|
-----0------L--------|--7--0------L--------|-----0------L--------|
---------------------|---------------------|---------------------|


  E  Q.     H           E  Q.     H           E  Q.     H         
-----3------L--------|---------------------|---------------------|
-----3------L--------|---------------------|---------------------|
--2--0------L--------|--0--2------L--------|--9------------------|
--2--0------L--------|--0--2------L--------|--9--0------L--------|
--0------------------|-----0------L--------|--7--0------L--------|
-----3------L--------|---------------------|---------------------|


  E  Q.     H           E  Q.     H           E  Q.     H         
---------------------|-----3------L--------|---------------------|
--3------------------|-----3------L--------|---------------------|
--2--2------L--------|--2--0------L--------|--0--2------L--------|
--0--2------L--------|--2--0------L--------|--0--2------L--------|
-----0------L--------|--0------------------|-----0------L--------|
---------------------|-----3------L--------|---------------------|


  E  E  E  E  E  E  E  E     E  E  E  E  E  E  Q      
--------------------------|--------------------------|
--------------------------|--------------------------|
--4--4--4--4--4--4--4--4--|--4--4--4--4--4--4--x\----|
--4--4--4--4--4--4--4--4--|--4--4--4--4--4--4--x\----|
--2--2--2--2--2--2--2--2--|--2--2--2--2--2--2--x\----|
--------------------------|--------------------------|


  Q    E   E  E  E   E  E     E   E  E  E   E  E  E   E   
---------------------------|-----------------------------|
---------------------------|-----------------------------|
---------------------------|-----------------------------|
---------------------------|--5p--2----------------------|
-----------------5p--2-----|------------5p--2------------|
--0----3p--0--0---------0--|---------0---------0--3p--0--|


  Q    E   E  E  E   E  E     E   E  E  E   E  E  E   E   
---------------------------|-----------------------------|
---------------------------|-----------------------------|
---------------------------|-----------------------------|
---------------------------|--5p--2----------------------|
-----------------5p--2-----|------------5p--2------------|
--0----3p--0--0---------0--|---------0---------0--3p--0--|


  Q    E   E  E  E   E  E     E   E  E  E   E  E  E   E   
---------------------------|-----------------------------|
---------------------------|-----------------------------|
---------------------------|-----------------------------|
---------------------------|--5p--2----------------------|
-----------------5p--2-----|------------5p--2------------|
--0----3p--0--0---------0--|---------0---------0--3p--0--|


  Q    E   E  E  E   E  E     E   E  E  E   E  E  E   E   
---------------------------|-----------------------------|
---------------------------|-----------------------------|
---------------------------|-----------------------------|
---------------------------|--5p--2----------------------|
-----------------5p--2-----|------------5p--2------------|
--0----3p--0--0---------0--|---------0---------0--3p--0--|


  Q    E   E  E  E   E  E     E   E  E  E   E  E  Q      
---------------------------|----------------------------|
---------------------------|----------------------------|
---------------------------|----------------------------|
---------------------------|--5p--2---------------------|
-----------------5p--2-----|------------5p--2-----------|
--0----3p--0--0---------0--|---------0---------0--3b----|


  Q    E   E  E  E   E  E     E   E  E  E   E  E  Q      
---------------------------|----------------------------|
---------------------------|----------------------------|
---------------------------|----------------------------|
---------------------------|--5p--2---------------------|
-----------------5p--2-----|------------5p--2-----------|
--0----3p--0--0---------0--|---------0---------0--3b----|


  Q    E   E  E  E   E  E     E   E  E  E   E  E  Q      
---------------------------|----------------------------|
---------------------------|----------------------------|
---------------------------|----------------------------|
---------------------------|--5p--2---------------------|
-----------------5p--2-----|------------5p--2-----------|
--0----3p--0--0---------0--|---------0---------0--3b----|


  Q    E   E  E  E   E  E     E   E  E  E   E  E  Q      
---------------------------|----------------------------|
---------------------------|----------------------------|
---------------------------|----------------------------|
---------------------------|--5p--2---------------------|
-----------------5p--2-----|------------5p--2-----------|
--0----3p--0--0---------0--|---------0---------0--3b----|


  Q    E   E  E  E   E  E     E   E  E  E   E  E  Q        W                 
---------------------------|----------------------------|-------------------|
---------------------------|----------------------------|-------------------|
---------------------------|----------------------------|-------------------|
---------------------------|--5p--2---------------------|-------------------|
-----------------5p--2-----|------------5p--2-----------|-------------------|
--0----3p--0--0---------0--|---------0---------0--3b----|-------------------|


  W                   W                   W                   W                 
-------------------|-------------------|-------------------|-------------------|
-------------------|-------------------|-------------------|-------------------|
-------------------|-------------------|-------------------|-------------------|
-------------------|-------------------|-------------------|-------------------|
-------------------|-------------------|-------------------|-------------------|
-------------------|-------------------|-------------------|-------------------|


  W                   W                   W                 
-------------------|-------------------|-------------------|
-------------------|-------------------|-------------------|
-------------------|-------------------|-------------------|
-------------------|-------------------|-------------------|
-------------------|-------------------|-------------------|
-------------------|-------------------|-------------------|


  Q    Q    Q    Q        E  Q    E  E  E  Q        Q    Q    Q    Q      
-------0----L----------|-------------------------|-------0----L----------|
-------0----L----------|-------------------------|-------0----L----------|
-----------------------|--4--4----4--L--4--------|-----------------------|
-----------------------|--4--4----4--L--4--------|-----------------------|
-----------------------|--2--2----2--L--2--------|-----------------------|
--0--------------3b----|-------------------3b----|--0--------------3b----|


  Q    E  E  E  E  Q        Q    Q    Q    Q        Q    E  E  Q    Q     
-------------------------|-------0----L----------|-----------------------|
-------------------------|-------0----L----------|-----------------------|
--4----4--4--L--4--------|-----------------------|--4----4--4--L----4----|
--4----4--4--L--4--------|-----------------------|--4----4--4--L----4----|
--2----2--2--L--2--------|-----------------------|--2----2--2--L----2----|
-------------------3b----|--0--------------3b----|-----------------------|


  E  Q.     H           E  Q.     H           E  Q.     H         
---------------------|---------------------|-----3------L--------|
---------------------|--3------------------|-----3------L--------|
--9------------------|--2--2------L--------|--2--0------L--------|
--9--0------L--------|--0--2------L--------|--2--0------L--------|
--7--0------L--------|-----0------L--------|--0------------------|
---------------------|---------------------|-----3------L--------|


  E  Q.     H           E  Q.     H           E  Q.     H         
---------------------|---------------------|---------------------|
---------------------|---------------------|--3------------------|
--0--2------L--------|--9------------------|--2--2------L--------|
--0--2------L--------|--9--0------L--------|--0--2------L--------|
-----0------L--------|--7--0------L--------|-----0------L--------|
---------------------|---------------------|---------------------|


  E  Q.     H           E  Q.     H            E  Q.     H         
-----3------L--------|---------------------|----------------------|
-----3------L--------|---------------------|----------------------|
--2--0------L--------|--0--2------L--------|--11--9------L--------|
--2--0------L--------|--0--2------L--------|--11--9------L--------|
--0------------------|-----0------L--------|---9--7------L--------|
-----3------L--------|---------------------|----------------------|


  E  Q.     H           E  Q.     H           E  Q.     H         
---------------------|---------------------|---------------------|
---------------------|---------------------|---------------------|
--9------------------|---------------------|---------------------|
--9--9------L--------|--9--7------L--------|--7--9------L--------|
--7--9------L--------|--9--7------L--------|--7--9------L--------|
-----7------L--------|--7--5------L--------|--5--7------L--------|


  E  Q.     H           E  Q.     H           E  Q.     H         
---------------------|---------------------|---------------------|
---------------------|---------------------|---------------------|
--9--7------L--------|--7------------------|---------------------|
--9--7------L--------|--7--7------L--------|--7--5------L--------|
--7--5------L--------|--5--7------L--------|--7--5------L--------|
---------------------|-----5------L--------|--5--3------L--------|


  E  Q.     H           Q    Q    Q    Q       E  E  E  E  E  E  E  E   
---------------------|----------------------|--------------------------|
---------------------|----------------------|--------------------------|
---------------------|----------------------|--------------------------|
--5--7------L--------|--9----9----9----9----|--9--9--9--9--9--9--9--9--|
--5--7------L--------|--9----9----9----9----|--9--9--9--9--9--9--9--9--|
--3--5------L--------|--7----7----7----7----|--7--7--7--7--7--7--7--7--|


    W                   W                 4x  W                 
|--------------------|--------------------||-------------------|
|--------------------|--------------------||-------------------|
|*-------------------|-------------------*||-------------------|
|*-------------------|-------------------*||-------------------|
|--------------------|--------------------||-------------------|
|--------------------|--------------------||-------------------|


    W                   W                      W                   
|--------------------|--------------------||---------------------||
|--------------------|--------------------||---------------------||
|*-------------------|-------------------*||*-------------------*||
|*-------------------|-------------------*||*-------------------*||
|--------------------|--------------------||---------------------||
|--------------------|--------------------||---------------------||


  W                   W                   W                   W                 
-------------------|-------------------|-------------------|-------------------|
-------------------|-------------------|-------------------|-------------------|
-------------------|-------------------|-------------------|-------------------|
-------------------|-------------------|-------------------|-------------------|
-------------------|-------------------|-------------------|-------------------|
-------------------|-------------------|-------------------|-------------------|


  W                   W                   W                   W                 
-------------------|-------------------|-------------------|-------------------|
-------------------|-------------------|-------------------|-------------------|
-------------------|-------------------|-------------------|-------------------|
-------------------|-------------------|-------------------|-------------------|
-------------------|-------------------|-------------------|-------------------|
-------------------|-------------------|-------------------|-------------------|


  W                   E   Q    E  Q    Q        Q    Q    Q    Q      
-------------------|-------------------------|-------0----L----------|
-------------------|-------------------------|-------0----L----------|
-------------------|-----------2--2----------|-----------------------|
-------------------|-----------2--2----------|-----------------------|
-------------------|--3b--0----0--0----------|-----------------------|
-------------------|-------------------3b----|--0--------------3b----|


  E  Q    E  E  E  Q        Q    Q    Q    Q        Q    E  E  E  E  Q      
-------------------------|-------0----L----------|-------------------------|
-------------------------|-------0----L----------|-------------------------|
--4--4----4--L--4--------|-----------------------|--4----4--4--L--4--------|
--4--4----4--L--4--------|-----------------------|--4----4--4--L--4--------|
--2--2----2--L--2--------|-----------------------|--2----2--2--L--2--------|
-------------------3b----|--0--------------3b----|-------------------3b----|


  Q    Q    Q    Q        E  Q    E  E  E  Q        Q    Q    Q    Q      
-------0----L----------|-------------------------|-------0----L----------|
-------0----L----------|-------------------------|-------0----L----------|
-----------------------|--4--4----4--L--4--------|-----------------------|
-----------------------|--4--4----4--L--4--------|-----------------------|
-----------------------|--2--2----2--L--2--------|-----------------------|
--0--------------3b----|-------------------3b----|--0--------------3b----|


  Q    E  E  E  E  Q        Q    Q    Q    Q        E  Q    E  E  E  Q      
-------------------------|-------0----L----------|-------------------------|
-------------------------|-------0----L----------|-------------------------|
--4----4--4--L--4--------|-----------------------|--4--4----4--L--4--------|
--4----4--4--L--4--------|-----------------------|--4--4----4--L--4--------|
--2----2--2--L--2--------|-----------------------|--2--2----2--L--2--------|
-------------------3b----|--0--------------3b----|-------------------3b----|


  Q    Q    Q    Q        Q    E  E  E  E  Q        Q    Q    Q    Q      
-------0----L----------|-------------------------|-------0----L----------|
-------0----L----------|-------------------------|-------0----L----------|
-----------------------|--4----4--4--L--4--------|-----------------------|
-----------------------|--4----4--4--L--4--------|-----------------------|
-----------------------|--2----2--2--L--2--------|-----------------------|
--0--------------3b----|-------------------3b----|--0--------------3b----|


  Q    E  E  E  E  Q        E  Q.     H           W                  
-------------------------|---------------------|-------------------||
-------------------------|---------------------|-------------------||
--4----4--4--L--4--------|--9------------------|-------------------||
--4----4--4--L--4--------|--9--0------L--------|--L----------------||
--2----2--2--L--2--------|--7--0------L--------|--L----------------||
-------------------3b----|---------------------|-------------------||










Guitar # 3:


     W                   W                   W                 
E||-------------------|-------------------|-------------------|
B||-------------------|-------------------|-------------------|
G||-------------------|-------------------|-------------------|
D||-------------------|-------------------|-------------------|
A||-------------------|-------------------|-------------------|
E||-------------------|-------------------|-------------------|


  W                   W                   W                   W                 
-------------------|-------------------|-------------------|-------------------|
-------------------|-------------------|-------------------|-------------------|
-------------------|-------------------|-------------------|-------------------|
-------------------|-------------------|-------------------|-------------------|
-------------------|-------------------|-------------------|-------------------|
-------------------|-------------------|-------------------|-------------------|


  W                   W                   W                   W                 
-------------------|-------------------|-------------------|-------------------|
-------------------|-------------------|-------------------|-------------------|
-------------------|-------------------|-------------------|-------------------|
-------------------|-------------------|-------------------|-------------------|
-------------------|-------------------|-------------------|-------------------|
-------------------|-------------------|-------------------|-------------------|


  W                   W                   W                   W                 
-------------------|-------------------|-------------------|-------------------|
-------------------|-------------------|-------------------|-------------------|
-------------------|-------------------|-------------------|-------------------|
-------------------|-------------------|-------------------|-------------------|
-------------------|-------------------|-------------------|-------------------|
-------------------|-------------------|-------------------|-------------------|


  W                   W                   W                   W                 
-------------------|-------------------|-------------------|-------------------|
-------------------|-------------------|-------------------|-------------------|
-------------------|-------------------|-------------------|-------------------|
-------------------|-------------------|-------------------|-------------------|
-------------------|-------------------|-------------------|-------------------|
-------------------|-------------------|-------------------|-------------------|


  W                   W                   W                   W                 
-------------------|-------------------|-------------------|-------------------|
-------------------|-------------------|-------------------|-------------------|
-------------------|-------------------|-------------------|-------------------|
-------------------|-------------------|-------------------|-------------------|
-------------------|-------------------|-------------------|-------------------|
-------------------|-------------------|-------------------|-------------------|


  W                   W                   W                   W                 
-------------------|-------------------|-------------------|-------------------|
-------------------|-------------------|-------------------|-------------------|
-------------------|-------------------|-------------------|-------------------|
-------------------|-------------------|-------------------|-------------------|
-------------------|-------------------|-------------------|-------------------|
-------------------|-------------------|-------------------|-------------------|


  W                   W                   W                   W                 
-------------------|-------------------|-------------------|-------------------|
-------------------|-------------------|-------------------|-------------------|
-------------------|-------------------|-------------------|-------------------|
-------------------|-------------------|-------------------|-------------------|
-------------------|-------------------|-------------------|-------------------|
-------------------|-------------------|-------------------|-------------------|


  W                   W                   W                   W                 
-------------------|-------------------|-------------------|-------------------|
-------------------|-------------------|-------------------|-------------------|
-------------------|-------------------|-------------------|-------------------|
-------------------|-------------------|-------------------|-------------------|
-------------------|-------------------|-------------------|-------------------|
-------------------|-------------------|-------------------|-------------------|


  W                   W                   W                   W                 
-------------------|-------------------|-------------------|-------------------|
-------------------|-------------------|-------------------|-------------------|
-------------------|-------------------|-------------------|-------------------|
-------------------|-------------------|-------------------|-------------------|
-------------------|-------------------|-------------------|-------------------|
-------------------|-------------------|-------------------|-------------------|


  W                   W                   W                   W                 
-------------------|-------------------|-------------------|-------------------|
-------------------|-------------------|-------------------|-------------------|
-------------------|-------------------|-------------------|-------------------|
-------------------|-------------------|-------------------|-------------------|
-------------------|-------------------|-------------------|-------------------|
-------------------|-------------------|-------------------|-------------------|


  W                   W                   W                   W                 
-------------------|-------------------|-------------------|-------------------|
-------------------|-------------------|-------------------|-------------------|
-------------------|-------------------|-------------------|-------------------|
-------------------|-------------------|-------------------|-------------------|
-------------------|-------------------|-------------------|-------------------|
-------------------|-------------------|-------------------|-------------------|


  W                   W                   W                   W                 
-------------------|-------------------|-------------------|-------------------|
-------------------|-------------------|-------------------|-------------------|
-------------------|-------------------|-------------------|-------------------|
-------------------|-------------------|-------------------|-------------------|
-------------------|-------------------|-------------------|-------------------|
-------------------|-------------------|-------------------|-------------------|


  W                   W                   W                   W                 
-------------------|-------------------|-------------------|-------------------|
-------------------|-------------------|-------------------|-------------------|
-------------------|-------------------|-------------------|-------------------|
-------------------|-------------------|-------------------|-------------------|
-------------------|-------------------|-------------------|-------------------|
-------------------|-------------------|-------------------|-------------------|


  W                   W                   W                   W                 
-------------------|-------------------|-------------------|-------------------|
-------------------|-------------------|-------------------|-------------------|
-------------------|-------------------|-------------------|-------------------|
-------------------|-------------------|-------------------|-------------------|
-------------------|-------------------|-------------------|-------------------|
-------------------|-------------------|-------------------|-------------------|


  W                   W                   W                   W                 
-------------------|-------------------|-------------------|-------------------|
-------------------|-------------------|-------------------|-------------------|
-------------------|-------------------|-------------------|-------------------|
-------------------|-------------------|-------------------|-------------------|
-------------------|-------------------|-------------------|-------------------|
-------------------|-------------------|-------------------|-------------------|


  W                   W                   W                   W                 
-------------------|-------------------|-------------------|-------------------|
-------------------|-------------------|-------------------|-------------------|
-------------------|-------------------|-------------------|-------------------|
-------------------|-------------------|-------------------|-------------------|
-------------------|-------------------|-------------------|-------------------|
-------------------|-------------------|-------------------|-------------------|


  W                   W                   W                   W                 
-------------------|-------------------|-------------------|-------------------|
-------------------|-------------------|-------------------|-------------------|
-------------------|-------------------|-------------------|-------------------|
-------------------|-------------------|-------------------|-------------------|
-------------------|-------------------|-------------------|-------------------|
-------------------|-------------------|-------------------|-------------------|


  W                   W                   W                   W                 
-------------------|-------------------|-------------------|-------------------|
-------------------|-------------------|-------------------|-------------------|
-------------------|-------------------|-------------------|-------------------|
-------------------|-------------------|-------------------|-------------------|
-------------------|-------------------|-------------------|-------------------|
-------------------|-------------------|-------------------|-------------------|


  W                   W                   W                   W                 
-------------------|-------------------|-------------------|-------------------|
-------------------|-------------------|-------------------|-------------------|
-------------------|-------------------|-------------------|-------------------|
-------------------|-------------------|-------------------|-------------------|
-------------------|-------------------|-------------------|-------------------|
-------------------|-------------------|-------------------|-------------------|


  W                   W                   W                   W                 
-------------------|-------------------|-------------------|-------------------|
-------------------|-------------------|-------------------|-------------------|
-------------------|-------------------|-------------------|-------------------|
-------------------|-------------------|-------------------|-------------------|
-------------------|-------------------|-------------------|-------------------|
-------------------|-------------------|-------------------|-------------------|


  W                   W                   W                   W                 
-------------------|-------------------|-------------------|-------------------|
-------------------|-------------------|-------------------|-------------------|
-------------------|-------------------|-------------------|-------------------|
-------------------|-------------------|-------------------|-------------------|
-------------------|-------------------|-------------------|-------------------|
-------------------|-------------------|-------------------|-------------------|


  W                   W                   W                   W                 
-------------------|-------------------|-------------------|-------------------|
-------------------|-------------------|-------------------|-------------------|
-------------------|-------------------|-------------------|-------------------|
-------------------|-------------------|-------------------|-------------------|
-------------------|-------------------|-------------------|-------------------|
-------------------|-------------------|-------------------|-------------------|


  W                   W                   W                 
-------------------|-------------------|-------------------|
-------------------|-------------------|-------------------|
-------------------|-------------------|-------------------|
-------------------|-------------------|-------------------|
-------------------|-------------------|-------------------|
-------------------|-------------------|-------------------|


  Q    E  E  E  E  Q       E  E  E  E  Q    E  E     E  E  E  E  E  E  E  E   
-------0--------0-------|--3--------0-------0-----|-----0--------0--------0--|
-------0--------0-------|--2--------0-------------|-----0--------0--------0--|
------------------------|-------------------------|--x-----x--x-----x--x-----|
------------------------|-------------------------|--x-----x--x-----x--x-----|
------------------------|-------------------------|--------------------------|
------------------------|-------------------------|--------------------------|


  E  E   E  E  E  E  Q       E  Q    E  Q    E  E   
-----3b-----0--0--x--3----|--0--3----0--3----0--3--|
-----2b-----0--0-----2----|--0--2----0--2----0--2--|
---------x----------------|------------------------|
---------x----------------|------------------------|
--------------------------|------------------------|
--------------------------|------------------------|


  E  E  E  E  E  S S E  S S     E   E   E   E   E   E      S     S   E   
--L--3--3--3--3--3-3-3--0-0-|--12------12-------------------------------|
--L--2--2--2--2--2-2-2------|------14------15--14--15--14g14pbr--Lp-12--|
----------------------------|-------------------------------------------|
----------------------------|-------------------------------------------|
----------------------------|-------------------------------------------|
----------------------------|-------------------------------------------|


                   PM                       
   E   E   E   E   E      E     E     E     
-------------------------------------------|
------12-----------------------------------|
--14------12------14--14g14pb--14pb--14pb--|
--------------14---------------------------|
-------------------------------------------|
-------------------------------------------|


   E     E      E    E    H            W                   W                 
------------------------------------|-------------------|-------------------|
------------------------------------|-------------------|-------------------|
---Lpb--14pbr--14b---L~---L~--------|-------------------|-------------------|
------------------------------------|-------------------|-------------------|
------------------------------------|-------------------|-------------------|
------------------------------------|-------------------|-------------------|


  W                   W                   W                   W                 
-------------------|-------------------|-------------------|-------------------|
-------------------|-------------------|-------------------|-------------------|
-------------------|-------------------|-------------------|-------------------|
-------------------|-------------------|-------------------|-------------------|
-------------------|-------------------|-------------------|-------------------|
-------------------|-------------------|-------------------|-------------------|


  W                   W                   W                   W                 
-------------------|-------------------|-------------------|-------------------|
-------------------|-------------------|-------------------|-------------------|
-------------------|-------------------|-------------------|-------------------|
-------------------|-------------------|-------------------|-------------------|
-------------------|-------------------|-------------------|-------------------|
-------------------|-------------------|-------------------|-------------------|


  W                   W                   W                   W                 
-------------------|-------------------|-------------------|-------------------|
-------------------|-------------------|-------------------|-------------------|
-------------------|-------------------|-------------------|-------------------|
-------------------|-------------------|-------------------|-------------------|
-------------------|-------------------|-------------------|-------------------|
-------------------|-------------------|-------------------|-------------------|


  W                   W                   W                   W                 
-------------------|-------------------|-------------------|-------------------|
-------------------|-------------------|-------------------|-------------------|
-------------------|-------------------|-------------------|-------------------|
-------------------|-------------------|-------------------|-------------------|
-------------------|-------------------|-------------------|-------------------|
-------------------|-------------------|-------------------|-------------------|


  W                   W                   W                   W                 
-------------------|-------------------|-------------------|-------------------|
-------------------|-------------------|-------------------|-------------------|
-------------------|-------------------|-------------------|-------------------|
-------------------|-------------------|-------------------|-------------------|
-------------------|-------------------|-------------------|-------------------|
-------------------|-------------------|-------------------|-------------------|


  W                   W                   W                   W                 
-------------------|-------------------|-------------------|-------------------|
-------------------|-------------------|-------------------|-------------------|
-------------------|-------------------|-------------------|-------------------|
-------------------|-------------------|-------------------|-------------------|
-------------------|-------------------|-------------------|-------------------|
-------------------|-------------------|-------------------|-------------------|


  W                   W                   W                   W                 
-------------------|-------------------|-------------------|-------------------|
-------------------|-------------------|-------------------|-------------------|
-------------------|-------------------|-------------------|-------------------|
-------------------|-------------------|-------------------|-------------------|
-------------------|-------------------|-------------------|-------------------|
-------------------|-------------------|-------------------|-------------------|


  W                    E  Q.     H           E  Q.     H         
-------------------|----------------------|---------------------|
-------------------|----------------------|---------------------|
-------------------|--11--9------L--------|--9------------------|
-------------------|--11--9------L--------|--9--9------L--------|
-------------------|---9--7------L--------|--7--9------L--------|
-------------------|----------------------|-----7------L--------|


  E  Q.     H           E  Q.     H           E  Q.     H         
---------------------|---------------------|---------------------|
---------------------|---------------------|---------------------|
---------------------|---------------------|--9--7------L--------|
--9--7------L--------|--7--9------L--------|--9--7------L--------|
--9--7------L--------|--7--9------L--------|--7--5------L--------|
--7--5------L--------|--5--7------L--------|---------------------|


  E  Q.     H           E  Q.     H           E  Q.     H         
---------------------|---------------------|---------------------|
---------------------|---------------------|---------------------|
--7------------------|---------------------|---------------------|
--7--7------L--------|--7--5------L--------|--5--7------L--------|
--5--7------L--------|--7--5------L--------|--5--7------L--------|
-----5------L--------|--5--3------L--------|--3--5------L--------|


  Q    Q    Q    Q       E  E  E  E  E  E  E  E       W                 
----------------------|--------------------------||--------------------|
----------------------|--------------------------||--------------------|
----------------------|--------------------------||*-------------------|
--9----9----9----9----|--9--9--9--9--9--9--9--9--||*-------------------|
--9----9----9----9----|--9--9--9--9--9--9--9--9--||--------------------|
--7----7----7----7----|--7--7--7--7--7--7--7--7--||--------------------|


  W                 4x  W                     W                 
--------------------||-------------------||--------------------|
--------------------||-------------------||--------------------|
-------------------*||-------------------||*-------------------|
-------------------*||-------------------||*-------------------|
--------------------||-------------------||--------------------|
--------------------||-------------------||--------------------|


  W                      W                     W                 
--------------------||---------------------||-------------------|
--------------------||---------------------||-------------------|
-------------------*||*-------------------*||-------------------|
-------------------*||*-------------------*||-------------------|
--------------------||---------------------||-------------------|
--------------------||---------------------||-------------------|


  W                   W                   W                   W                 
-------------------|-------------------|-------------------|-------------------|
-------------------|-------------------|-------------------|-------------------|
-------------------|-------------------|-------------------|-------------------|
-------------------|-------------------|-------------------|-------------------|
-------------------|-------------------|-------------------|-------------------|
-------------------|-------------------|-------------------|-------------------|


  W                   W                   W                   W                 
-------------------|-------------------|-------------------|-------------------|
-------------------|-------------------|-------------------|-------------------|
-------------------|-------------------|-------------------|-------------------|
-------------------|-------------------|-------------------|-------------------|
-------------------|-------------------|-------------------|-------------------|
-------------------|-------------------|-------------------|-------------------|


  W                   W                   W                   W                 
-------------------|-------------------|-------------------|-------------------|
-------------------|-------------------|-------------------|-------------------|
-------------------|-------------------|-------------------|-------------------|
-------------------|-------------------|-------------------|-------------------|
-------------------|-------------------|-------------------|-------------------|
-------------------|-------------------|-------------------|-------------------|


  W                   W                   W                   W                 
-------------------|-------------------|-------------------|-------------------|
-------------------|-------------------|-------------------|-------------------|
-------------------|-------------------|-------------------|-------------------|
-------------------|-------------------|-------------------|-------------------|
-------------------|-------------------|-------------------|-------------------|
-------------------|-------------------|-------------------|-------------------|


  W                   W                   W                   W                 
-------------------|-------------------|-------------------|-------------------|
-------------------|-------------------|-------------------|-------------------|
-------------------|-------------------|-------------------|-------------------|
-------------------|-------------------|-------------------|-------------------|
-------------------|-------------------|-------------------|-------------------|
-------------------|-------------------|-------------------|-------------------|


  W                   W                   W                   W                 
-------------------|-------------------|-------------------|-------------------|
-------------------|-------------------|-------------------|-------------------|
-------------------|-------------------|-------------------|-------------------|
-------------------|-------------------|-------------------|-------------------|
-------------------|-------------------|-------------------|-------------------|
-------------------|-------------------|-------------------|-------------------|


  W                  
-------------------||
-------------------||
-------------------||
-------------------||
-------------------||
-------------------||










Guitar # 4:


      W                   W                   W                 
E ||-------------------|-------------------|-------------------|
B ||-------------------|-------------------|-------------------|
G#||-------------------|-------------------|-------------------|
D ||-------------------|-------------------|-------------------|
A ||-------------------|-------------------|-------------------|
E ||-------------------|-------------------|-------------------|


  W                   W                   W                   W                 
-------------------|-------------------|-------------------|-------------------|
-------------------|-------------------|-------------------|-------------------|
-------------------|-------------------|-------------------|-------------------|
-------------------|-------------------|-------------------|-------------------|
-------------------|-------------------|-------------------|-------------------|
-------------------|-------------------|-------------------|-------------------|


  W                   W                   W                   W                 
-------------------|-------------------|-------------------|-------------------|
-------------------|-------------------|-------------------|-------------------|
-------------------|-------------------|-------------------|-------------------|
-------------------|-------------------|-------------------|-------------------|
-------------------|-------------------|-------------------|-------------------|
-------------------|-------------------|-------------------|-------------------|


  W                   W                   W                   W                 
-------------------|-------------------|-------------------|-------------------|
-------------------|-------------------|-------------------|-------------------|
-------------------|-------------------|-------------------|-------------------|
-------------------|-------------------|-------------------|-------------------|
-------------------|-------------------|-------------------|-------------------|
-------------------|-------------------|-------------------|-------------------|


  W                   W                   W                   W                 
-------------------|-------------------|-------------------|-------------------|
-------------------|-------------------|-------------------|-------------------|
-------------------|-------------------|-------------------|-------------------|
-------------------|-------------------|-------------------|-------------------|
-------------------|-------------------|-------------------|-------------------|
-------------------|-------------------|-------------------|-------------------|


  W                   W                   W                   W                 
-------------------|-------------------|-------------------|-------------------|
-------------------|-------------------|-------------------|-------------------|
-------------------|-------------------|-------------------|-------------------|
-------------------|-------------------|-------------------|-------------------|
-------------------|-------------------|-------------------|-------------------|
-------------------|-------------------|-------------------|-------------------|


  W                   W                   W                   W                 
-------------------|-------------------|-------------------|-------------------|
-------------------|-------------------|-------------------|-------------------|
-------------------|-------------------|-------------------|-------------------|
-------------------|-------------------|-------------------|-------------------|
-------------------|-------------------|-------------------|-------------------|
-------------------|-------------------|-------------------|-------------------|


  W                   W                   W                   W                 
-------------------|-------------------|-------------------|-------------------|
-------------------|-------------------|-------------------|-------------------|
-------------------|-------------------|-------------------|-------------------|
-------------------|-------------------|-------------------|-------------------|
-------------------|-------------------|-------------------|-------------------|
-------------------|-------------------|-------------------|-------------------|


  W                   W                   W                   W                 
-------------------|-------------------|-------------------|-------------------|
-------------------|-------------------|-------------------|-------------------|
-------------------|-------------------|-------------------|-------------------|
-------------------|-------------------|-------------------|-------------------|
-------------------|-------------------|-------------------|-------------------|
-------------------|-------------------|-------------------|-------------------|


  W                   W                   W                   W                 
-------------------|-------------------|-------------------|-------------------|
-------------------|-------------------|-------------------|-------------------|
-------------------|-------------------|-------------------|-------------------|
-------------------|-------------------|-------------------|-------------------|
-------------------|-------------------|-------------------|-------------------|
-------------------|-------------------|-------------------|-------------------|


  W                   W                   W                   W                 
-------------------|-------------------|-------------------|-------------------|
-------------------|-------------------|-------------------|-------------------|
-------------------|-------------------|-------------------|-------------------|
-------------------|-------------------|-------------------|-------------------|
-------------------|-------------------|-------------------|-------------------|
-------------------|-------------------|-------------------|-------------------|


  W                   W                   W                   W                 
-------------------|-------------------|-------------------|-------------------|
-------------------|-------------------|-------------------|-------------------|
-------------------|-------------------|-------------------|-------------------|
-------------------|-------------------|-------------------|-------------------|
-------------------|-------------------|-------------------|-------------------|
-------------------|-------------------|-------------------|-------------------|


  W                   W                   W                   W                 
-------------------|-------------------|-------------------|-------------------|
-------------------|-------------------|-------------------|-------------------|
-------------------|-------------------|-------------------|-------------------|
-------------------|-------------------|-------------------|-------------------|
-------------------|-------------------|-------------------|-------------------|
-------------------|-------------------|-------------------|-------------------|


  W                   W                   W                   W                 
-------------------|-------------------|-------------------|-------------------|
-------------------|-------------------|-------------------|-------------------|
-------------------|-------------------|-------------------|-------------------|
-------------------|-------------------|-------------------|-------------------|
-------------------|-------------------|-------------------|-------------------|
-------------------|-------------------|-------------------|-------------------|


  W                   W                   W                   W                 
-------------------|-------------------|-------------------|-------------------|
-------------------|-------------------|-------------------|-------------------|
-------------------|-------------------|-------------------|-------------------|
-------------------|-------------------|-------------------|-------------------|
-------------------|-------------------|-------------------|-------------------|
-------------------|-------------------|-------------------|-------------------|


  W                   W                   W                   W                 
-------------------|-------------------|-------------------|-------------------|
-------------------|-------------------|-------------------|-------------------|
-------------------|-------------------|-------------------|-------------------|
-------------------|-------------------|-------------------|-------------------|
-------------------|-------------------|-------------------|-------------------|
-------------------|-------------------|-------------------|-------------------|


  W                   W                   W                   W                 
-------------------|-------------------|-------------------|-------------------|
-------------------|-------------------|-------------------|-------------------|
-------------------|-------------------|-------------------|-------------------|
-------------------|-------------------|-------------------|-------------------|
-------------------|-------------------|-------------------|-------------------|
-------------------|-------------------|-------------------|-------------------|


  W                   W                   W                   W                 
-------------------|-------------------|-------------------|-------------------|
-------------------|-------------------|-------------------|-------------------|
-------------------|-------------------|-------------------|-------------------|
-------------------|-------------------|-------------------|-------------------|
-------------------|-------------------|-------------------|-------------------|
-------------------|-------------------|-------------------|-------------------|


  W                   W                   W                   W                 
-------------------|-------------------|-------------------|-------------------|
-------------------|-------------------|-------------------|-------------------|
-------------------|-------------------|-------------------|-------------------|
-------------------|-------------------|-------------------|-------------------|
-------------------|-------------------|-------------------|-------------------|
-------------------|-------------------|-------------------|-------------------|


  W                   W                   W                   W                 
-------------------|-------------------|-------------------|-------------------|
-------------------|-------------------|-------------------|-------------------|
-------------------|-------------------|-------------------|-------------------|
-------------------|-------------------|-------------------|-------------------|
-------------------|-------------------|-------------------|-------------------|
-------------------|-------------------|-------------------|-------------------|


  W                   W                   W                   W                 
-------------------|-------------------|-------------------|-------------------|
-------------------|-------------------|-------------------|-------------------|
-------------------|-------------------|-------------------|-------------------|
-------------------|-------------------|-------------------|-------------------|
-------------------|-------------------|-------------------|-------------------|
-------------------|-------------------|-------------------|-------------------|


  W                   W                   W                   W                 
-------------------|-------------------|-------------------|-------------------|
-------------------|-------------------|-------------------|-------------------|
-------------------|-------------------|-------------------|-------------------|
-------------------|-------------------|-------------------|-------------------|
-------------------|-------------------|-------------------|-------------------|
-------------------|-------------------|-------------------|-------------------|


  W                   W                   W                   W                 
-------------------|-------------------|-------------------|-------------------|
-------------------|-------------------|-------------------|-------------------|
-------------------|-------------------|-------------------|-------------------|
-------------------|-------------------|-------------------|-------------------|
-------------------|-------------------|-------------------|-------------------|
-------------------|-------------------|-------------------|-------------------|


  W                   W                   W                   W                 
-------------------|-------------------|-------------------|-------------------|
-------------------|-------------------|-------------------|-------------------|
-------------------|-------------------|-------------------|-------------------|
-------------------|-------------------|-------------------|-------------------|
-------------------|-------------------|-------------------|-------------------|
-------------------|-------------------|-------------------|-------------------|


  W                   W                   W                   W                 
-------------------|-------------------|-------------------|-------------------|
-------------------|-------------------|-------------------|-------------------|
-------------------|-------------------|-------------------|-------------------|
-------------------|-------------------|-------------------|-------------------|
-------------------|-------------------|-------------------|-------------------|
-------------------|-------------------|-------------------|-------------------|


  W                   W                   W                   W                 
-------------------|-------------------|-------------------|-------------------|
-------------------|-------------------|-------------------|-------------------|
-------------------|-------------------|-------------------|-------------------|
-------------------|-------------------|-------------------|-------------------|
-------------------|-------------------|-------------------|-------------------|
-------------------|-------------------|-------------------|-------------------|


  W                   W                   W                 
-------------------|-------------------|-------------------|
-------------------|-------------------|-------------------|
-------------------|-------------------|-------------------|
-------------------|-------------------|-------------------|
-------------------|-------------------|-------------------|
-------------------|-------------------|-------------------|


  Q     E    E    E    E  E   E     E   E    E    E    Q     Q     
---------------------------------|--------------------------------|
-------14s--15s--14s--15-----15--|-----15s--14s--15~---L~---------|
-------14s--15s--14s--15-----15--|-----15s--14s--15~---L~---------|
---------------------------------|--------------------------------|
---------------------------------|--------------------------------|
---------------------------------|--------------------------------|


                                                   |----3----|         
  E   E    E    E   H            E    E   E    E   E    E    E   Q     
-----------------------------|----------------------------------/7----|
-----15s--14s--15--15--------|--14p--12--14p--12--15p--14p--12--------|
-----15s--14s--15--15--------|----------------------------------------|
-----------------------------|----------------------------------------|
-----------------------------|----------------------------------------|
-----------------------------|----------------------------------------|


   Q      Q      Q     Q       E  Q    E  H           Q    H.            
--17s----19~-----L~---------|--0--0----0-----------|-------0------------|
----------------------------|--0--0----0-----------|-------0------------|
----------------------------|----------------------|--------------------|
----------------------------|----------------------|--------------------|
----------------------------|----------------------|--------------------|
-----------------------0----|----------------------|--0-----------------|


    E  E  E  E  E  E    Q       Q    H.              E   Q    E  E  E  Q      
-------------0--L------------|--------------------|--------------------------|
-------------0--L------------|--------------------|--------------------------|
-----------------------------|-------2------------|-----------2--L-----------|
-----------------------------|-------2------------|-----------2--L-----------|
-------0---------------------|--0----0------------|--3b--0----0--L--0--------|
--3g3-----0--------0--3g3----|--------------------|--------------------3b----|


  Q    H.                E  E  E  E  E  E    Q       Q    H.            
-------0------------|-------------0--L------------|--------------------|
-------0------------|-------------0--L------------|--------------------|
--------------------|-----------------------------|-------2------------|
--------------------|-----------------------------|-------2------------|
--------------------|-------0---------------------|--0----0------------|
--0-----------------|--3g3-----0--------0--3g3----|--------------------|


  E   Q    E  E  E  Q        W                   W                 
--------------------------|-------------------|-------------------|
--------------------------|-------------------|-------------------|
-----------2--L-----------|-------------------|-------------------|
-----------2--L-----------|-------------------|-------------------|
--3b--0----0--L--0--------|-------------------|-------------------|
--------------------3b----|-------------------|-------------------|


  W                   W                   W                   W                 
-------------------|-------------------|-------------------|-------------------|
-------------------|-------------------|-------------------|-------------------|
-------------------|-------------------|-------------------|-------------------|
-------------------|-------------------|-------------------|-------------------|
-------------------|-------------------|-------------------|-------------------|
-------------------|-------------------|-------------------|-------------------|


  W                   W                   W                   W                 
-------------------|-------------------|-------------------|-------------------|
-------------------|-------------------|-------------------|-------------------|
-------------------|-------------------|-------------------|-------------------|
-------------------|-------------------|-------------------|-------------------|
-------------------|-------------------|-------------------|-------------------|
-------------------|-------------------|-------------------|-------------------|


  W                   W                   W                   W                 
-------------------|-------------------|-------------------|-------------------|
-------------------|-------------------|-------------------|-------------------|
-------------------|-------------------|-------------------|-------------------|
-------------------|-------------------|-------------------|-------------------|
-------------------|-------------------|-------------------|-------------------|
-------------------|-------------------|-------------------|-------------------|


  W                   W                   W                   W                 
-------------------|-------------------|-------------------|-------------------|
-------------------|-------------------|-------------------|-------------------|
-------------------|-------------------|-------------------|-------------------|
-------------------|-------------------|-------------------|-------------------|
-------------------|-------------------|-------------------|-------------------|
-------------------|-------------------|-------------------|-------------------|


  W                   W                   W                   W                 
-------------------|-------------------|-------------------|-------------------|
-------------------|-------------------|-------------------|-------------------|
-------------------|-------------------|-------------------|-------------------|
-------------------|-------------------|-------------------|-------------------|
-------------------|-------------------|-------------------|-------------------|
-------------------|-------------------|-------------------|-------------------|


  W                   W                     W                 
-------------------|-------------------||--------------------|
-------------------|-------------------||--------------------|
-------------------|-------------------||*-------------------|
-------------------|-------------------||*-------------------|
-------------------|-------------------||--------------------|
-------------------|-------------------||--------------------|


  W                 4x  W                     W                 
--------------------||-------------------||--------------------|
--------------------||-------------------||--------------------|
-------------------*||-------------------||*-------------------|
-------------------*||-------------------||*-------------------|
--------------------||-------------------||--------------------|
--------------------||-------------------||--------------------|


  W                      W                     W                 
--------------------||---------------------||-------------------|
--------------------||---------------------||-------------------|
-------------------*||*-------------------*||-------------------|
-------------------*||*-------------------*||-------------------|
--------------------||---------------------||-------------------|
--------------------||---------------------||-------------------|


  W                   Q    H.                E  E  E  E  E  E    Q     
-------------------|-------0------------|-------------0--L------------|
-------------------|-------0------------|-------------0--L------------|
-------------------|--------------------|-----------------------------|
-------------------|--------------------|-----------------------------|
-------------------|--------------------|-------0---------------------|
-------------------|--0-----------------|--3g3-----0--------0--3g3----|


  Q    H.              E   Q    E  E  E  Q        Q    H.            
--------------------|--------------------------|-------0------------|
--------------------|--------------------------|-------0------------|
-------2------------|-----------2--L-----------|--------------------|
-------2------------|-----------2--L-----------|--------------------|
--0----0------------|--3b--0----0--L--0--------|--------------------|
--------------------|--------------------3b----|--0-----------------|


    E  E  E  E  E  E    Q       Q    H.              W                 
-------------0--L------------|--------------------|-------------------|
-------------0--L------------|--------------------|-------------------|
-----------------------------|-------2------------|-------------------|
-----------------------------|-------2------------|-------------------|
-------0---------------------|--0----0------------|-------------------|
--3g3-----0--------0--3g3----|--------------------|-------------------|


  W                   W                   W                   W                 
-------------------|-------------------|-------------------|-------------------|
-------------------|-------------------|-------------------|-------------------|
-------------------|-------------------|-------------------|-------------------|
-------------------|-------------------|-------------------|-------------------|
-------------------|-------------------|-------------------|-------------------|
-------------------|-------------------|-------------------|-------------------|


  W                   W                   W                   W                 
-------------------|-------------------|-------------------|-------------------|
-------------------|-------------------|-------------------|-------------------|
-------------------|-------------------|-------------------|-------------------|
-------------------|-------------------|-------------------|-------------------|
-------------------|-------------------|-------------------|-------------------|
-------------------|-------------------|-------------------|-------------------|


  W                   W                   W                   W                 
-------------------|-------------------|-------------------|-------------------|
-------------------|-------------------|-------------------|-------------------|
-------------------|-------------------|-------------------|-------------------|
-------------------|-------------------|-------------------|-------------------|
-------------------|-------------------|-------------------|-------------------|
-------------------|-------------------|-------------------|-------------------|


  W                   W                   W                 
-------------------|-------------------|-------------------|
-------------------|-------------------|-------------------|
-------------------|-------------------|-------------------|
-------------------|-------------------|-------------------|
-------------------|-------------------|-------------------|
-------------------|-------------------|-------------------|


  W                  
-------------------||
-------------------||
-------------------||
-------------------||
-------------------||
-------------------||




Duration Legend
---------------
W - whole
H - half
Q - quarter
E - 8th
S - 16th
T - 32nd
X - 64th
. - note dotted
|-n-|  - n-tuplets


Tablature Legend
----------------
L - tied note
x - dead note
g - grace note
(n) - ghost note
> - accentuded note
NH - natural harmonic
AH - artificial harmonic
TH - tapped harmonic
SH - semi harmonic
PH - pitch harmonic
h - hammer on
p - pull off
b - bend
br - bendRelease
pb - preBend
pbr - preBendRelease
brb - bendReleaseBend
\n/ - tremolo bar dip
\n - tremolo bar dive
-/n - tremolo bar Release up
/n\ - tremolo bar inverted dip
/n - tremolo bar return
-\n - tremolo bar Release down
S - shift slide
s - legato slide
/ -  slide into from below or out of upwards
\ -  slide into from above or out of downwards
~ - vibrato
W - wide vibrato
tr - trill
TP - tremolo picking
T - tapping
S - slap
P - pop
< - fade in
^ - brush up
v - brush down
comments
We did not receive enough feedback on this tab! Please rate:
print report bad tab
1 2 3 4 5
I want to post or [tab]
guest
You may want to rate the tab now too:
select rating
Please do not post tabs as comments. Select "correction" instead!