Oops, an error
Loading. Please wait.

Get The Lead Out Tab

ver1
ver1

Intro

Whole song

More versions @911Tabs.com
4,941 views 15 this week
1 commentread comment
1 2 3 4 5
excellent!
x 4
Autoscroll
+/-
esc
set tempo
stop
Contributor
Difficulty
Tuning
intermediate
D# G# C# F# A# D#
WARNING: You are trying to view
                                    content from Ultimate-Guitar.com
                                    in an unauthorized application,
                                    which is prohibited.

                                    Please use an official Ultimate
                                    Guitar Tabs application for iPhone,
                                    iPad or Android to access legitimate
                                    chords, guitar, bass, and drum tabs
                                    from Ultimate-Guitar.com database.

                                    Type "ultimate guitar tabs" in Apple
                                    App Store's or Android Market's
                                    search to find the application.
#----------------------------------PLEASE NOTE---------------------------------#
#This file is the author's own work and represents their interpretation of the #
#song. You may only use this file for private study, scholarship, or research. #
#------------------------------------------------------------------------------##

                                GET THE LEAD OUT
                            As recorded by Aerosmith
                           (From the 1976 Album ROCKS)

Transcribed by Brian Murtagh

Gtr I (Eb Ab Db Gb Bb Eb) - 'Rhythm'
Gtr II (Eb Ab Db Gb Bb Eb) - 'Lead'
Gtr III (Eb Ab Db Gb Bb Eb) - 'Fill'

 Intro
  Moderately Slow Rock Q=95
 4/4
  Gtr I
                                       PM|                             PM|
  H.       Q     e e S S E S S S S +E  S S   S S S S S S E S S S S +E  S S
|--------------|---------------------------|--------------------------------|
|--------------|---------------------------|--------------------------------|
|--------------|-----------2-----2-(2)-----|---------------2-----2-(2)------|
|--------------|-----------0-3s4-0-(0)-----|---------------0-3s4-0-(0)------|
|---------17\--|-2-3-4-5-------------------|-2p0-3p0-4-5--------------------|
|--------------|-----------------------3-3-|---------------------------3-3--|


  S S S S S S E E E Q    S S S S +E  S S S S +E  S S S S
|----------------------|---------------------------------|
|----------------------|---------------------------------|
|---------------2------|---------------------------------|
|---------------0------|-------------3s2p0-------5s4p2---|
|-2p0-3p0-4-5----------|-3s2p0-------------------------0-|
|----------------------|-------1-(1)-------3-(3)---------|


  +E  e S S E. S S S     +S  S S     +S
|------------------------------------------|
|------------------------------------------|
|-----0-0h2--------------------------------|
|-----0-0h2----4---4b4.5r(4)p2-------------|
|-(0)--------------------------3b3.5-(3)---|
|------------------------------------------|


    E e S S E. S S S     +S  S S     +S      E S S S S E Q      +Q
||----------------------------------------||-------------------------|
||o--------------------------------------o||-------------------------|
||----0-0h2-------------------------------||---0h2-0h2---------------|
||----0-0h2----4---4b4.5r(4)p2------------||---0h2-0h2---4b4.5--(4)--|
||o-0--------------------------3b3.5-(3)-o||-0-----------2b2.5--(2)--|
||----------------------------------------||-------------------------|


 Verse
                          PM                              PM
  e e S S E S S S S +E  S S   S S S S S S E S S S S +E  S S
|---------------------------|-------------------------------|
|---------------------------|-------------------------------|
|-----------2-----2-(2)-----|---------------2-----2-(2)-----|
|-----------0-3s4-0-(0)-----|---------------0-3s4-0-(0)-----|
|-2-3-4-5-------------------|-2p0-3p0-4-5-------------------|
|-------------------------3-|-----------------------------3-|


                              PM                              PM
  S S S S S S E S S S S +E  S S   S S S S S S E S S S S +E  S S
|-------------------------------|--------------------------------|
|-------------------------------|--------------------------------|
|---------------2-----2-(2)-----|---------------2-----2-(2)------|
|---------------0-3s4-0-(0)-----|---------------0-3s4-0-(0)------|
|-2p0-3p0-4-5-------------------|-2p0-3p0-4-5--------------------|
|-----------------------------3-|-----------------------------3--|


                          PM
  e e S S E S S S S +E  S S   e e S S E S S S S +Q
|---------------------------|------------------------|
|---------------------------|------------------------|
|-----------2-----2-(2)-----|-----------2-----2-(2)--|
|-----------0-3s4-0-(0)-----|-----------0-3s4-0-(0)--|
|-2-3-4-5-------------------|-2-3-4-5----------------|
|-------------------------3-|------------------------|


  S S S S +E  S S S S +E  S S S S
|-----------------------------------|
|-----------------------------------|
|-----------------------------------|
|-------------3s2p0-------5s4p2-----|
|-3s2p0-------------------------0---|
|-------1-(1)-------3-(3)-----------|


    E e S S E. S S S     +S  S S     +S   3x E S S S S E Q      +Q
||----------------------------------------||-------------------------|
||o--------------------------------------o||-------------------------|
||----0-0h2-------------------------------||---0h2-0h2---------------|
||----0-0h2----4---4b4.5r(4)p2------------||---0h2-0h2---4b4.5--(4)--|
||o-0--------------------------3b3.5-(3)-o||-0-----------2b2.5--(2)--|
||----------------------------------------||-------------------------|


                          PM                          PM
  e e S S E S S S S +E  S S   e e S S E S S S S +E  S S
|---------------------------|---------------------------|
|---------------------------|---------------------------|
|-----------2-----2-(2)-----|-----------2-----2-(2)-----|
|-----------0-3s4-0-(0)-----|-----------0-3s4-0-(0)-----|
|-2-3-4-5-------------------|-2-3-4-5-------------------|
|-------------------------3-|-------------------------3-|


                          PM
  e e S S E S S S S +E  S S   S S S S S S E q   e S S
|---------------------------|----------------------------|
|---------------------------|------------------10---9----|
|-----------2-----2-(2)-----|---------------2--10---9----|
|-----------0-3s4-0-(0)-----|---------------0--10---9----|
|-2-3-4-5-------------------|-2p0-3p0-4-5----------------|
|-------------------------3-|----------------------------|


   Chorus
                   1.,2.,3.                 4.
                                                 |-3-|    |-3-|
    +H.      E. S   +H.       e S S  4x     H    S S S E  S S S E
||----------------|------------------||-||-------8-8-8-8\-8-8-8-8\--||
||o-(9)------8--7-|-(7)------10---9-o||-||o-7----7-7-7-7\-7-7-7-7\-o||
||--(9)------8--7-|-(7)------10---9--||-||--7-----------------------||
||--(9)------8--7-|-(7)------10---9--||-||--7-----------------------||
||o---------------|-----------------o||-||o------------------------o||
||----------------|------------------||-||--------------------------||


    E e S S E. S S S     +S  S S     +S   3x E S S S S E Q      +Q
||----------------------------------------||-------------------------|
||o--------------------------------------o||-------------------------|
||----0-0h2-------------------------------||---0h2-0h2---------------|
||----0-0h2----4---4b4.5r(4)p2------------||---0h2-0h2---4b4.5--(4)--|
||o-0--------------------------3b3.5-(3)-o||-0-----------2b2.5--(2)--|
||----------------------------------------||-------------------------|


 Guitar Solo
                          PM
  e e S S E S S S S +E  S S   S S S S S E S E S S +Q
|---------------------------|--------------------------|
|---------------------------|--------------------------|
|-----------2-----2-(2)-----|--------------------------|
|-----------0-3s4-0-(0)-----|--------------------------|
|-2-3-4-5-------------------|-2p0-3p0-4-5s3-3---3-(3)--|
|-------------------------3-|-----------3s1-1---1-(1)--|
|
| Gtr II
| W                           W
|---------------------------|--------------------------|
|---------------------------|--------------------------|
|---------------------------|--------------------------|
|---------------------------|--------------------------|
|---------------------------|--------------------------|
|---------------------------|--------------------------|


  S S S S +E  E +H             S     S S S  +Q   e  e     S  E         S
|--------------------------|---------------------------------------------|
|--------------------------|---------------------------------------------|
|-------------2-(2)--------|---2---------2--(2)--------------------------|
|-------------0-(0)--------|---0-----3s4-0--(0)--------------------------|
|-5-5---5-(5)--------------|---------------------2--3-----4--5s========3-|
|-3-3---3-(3)--------------|---------------------------------3s========1-|
|
|                <
|                                            ~~~~
| H              Q    +Q      +Q            +Q   E  S  S  S  S     +E
|--------------------------|-----------------------10--------------------|
|---------------13---(13)--|-(13)b15-------(13)-------12p10-12b13-(12)---|
|--------------------------|---------------------------------------------|
|--------------------------|---------------------------------------------|
|--------------------------|---------------------------------------------|
|--------------------------|---------------------------------------------|


   E     S  S     +Q         S  S      S  S +E          E
|-------------------------------------------------------------|
|-------------------------------------------------------------|
|-------------------------------------------------------2-----|
|-------------------------------------------------------0-----|
|--3--------3-----(3)--------5--5---------5-(5)---------------|
|--1--------1-----(1)--------3--3---------3-(3)---------------|
|
|  S  S  S  S     +E   S  S  S  S     +E     S   S     +S   S
|-10------------------10--------------------10-------------10-|
|----12p10-12b13-(12)----12p10-12b13-(12)-------13b15-(13)----|
|-------------------------------------------------------------|
|-------------------------------------------------------------|
|-------------------------------------------------------------|
|-------------------------------------------------------------|


   +H                       S      S  S  S  +Q
|--------------------------------------------------------|
|--------------------------------------------------------|
|--(2)----------------------2------------2--(2)----------|
|--(0)----------------------0------3s=4--0--(0)----------|
|--------------------------------------------------------|
|--------------------------------------------------------|
|
|  +S   S  S  S  +S   E  S  S      S  S  S  +S   S  S  S
|-(10)-------------------------------13------------------|
|------13p10-13-(13)-12p10--------13---------------------|
|--------------------------12b14========12r(12)-10-12p10-|
|--------------------------------------------------------|
|--------------------------------------------------------|
|--------------------------------------------------------|


   e             e      S  E            S     E           S  S  +Q
|----------------------------------------------------------------------------|
|----------------------------------------------------------------------------|
|----------------------------------------------------------------------------|
|----------------------------------------------------------------------------|
|--2-------------3------4--5s===========3-----3--------------3--(3)----------|
|--------------------------3s===========1-----1--------------1--(1)----------|
|
|  |----3-----|               |-----3------|
|  S     +S   S  S  S  +S  S  S     +S     S  S       S   S  S  +S   S  S  S
|--------------------------------------------------------13---------13-------|
|----------------------------------------------------13----------------------|
|-12b14r(12)p10----10-(10)---12b14r(12)p==10-12b14==(12)----12r(12)-10-12p10-|
|---------------12-----------------------------------------------------------|
|----------------------------------------------------------------------------|
|----------------------------------------------------------------------------|


   S       S   S  S   E     E    +Q        S  S   S   S
|-------------------------------------------------------|
|-------------------------------------------------------|
|---------------------------2----(2)--------------2-----|
|---------------------------2----(2)--------------2-----|
|--5-------5------5---------0----(0)-------3p=0---------|
|--3-------3------3-------------------------------------|
|
|                           ~~~~~
|  S       S   S  S  +S  S  Q         S S  S  S  +S   S
|-------------15---------------------12-----------------|
|---------15---------------13b14----------13p10-(10)-10-|
|-14b16==(14)----14r(14)--------------------------------|
|-------------------------------------------------------|
|-------------------------------------------------------|
|-------------------------------------------------------|


   S      S S S      +S   S  S     +S  Q  S S E
|-----------------------------------------------|
|-----------------------------------------------|
|-----------------------------------------0-2---|
|---------4---4b4.5r=(4)p=2---------------0-2---|
|----------------------------3b3.5-(3)-0--------|
|-----------------------------------------------|
|
|  ~~~~~~~~~~~~~~~~~~~~~~~~
|  Q                 +E      E         H
|-----------------------------------------------|
|-13pb14============(13)rp==10------------------|
|-----------------------------------------------|
|-----------------------------------------------|
|-----------------------------------------------|
|-----------------------------------------------|


                                                                                2/4
   S    S     S    S        +S      S    S      +S    Q   Q     Q   Q   Q   Q     Q   Q
|------------------------------------------------------------|-----------------|-----------|
|------------------------------------------------------------|-----------------|-----------|
|------------------------------------------------------------|-----------------|-----------|
|-------4----------4b4.5r===(4)p====2-----------------2---4--|--5---7---9--11--|-12--14\---|
|----------------------------------------3b3.5--(3)---0---0--|--0---0---0---0--|--0---0----|
|------------------------------------------------------------|-----------------|-----------|
|
|                                                     ~~~~~~~~~~~~~~~~~~~~~~~~~~~~~~~~~~~
|  |----------6-----------|
|  S  S    S  S  S        S  S     +S   +S      +S   +H         Q   Q   Q   Q     Q   Q
|------------------------------------------------------------|-----------------|-----------|
|------------10h13p======10-13b16r(13)-(13)b16r(13)-(13)-----|-13--13--13--13--|-13--13\---|
|-10h12h==13-------------------------------------------------|-----------------|-----------|
|------------------------------------------------------------|-----------------|-----------|
|------------------------------------------------------------|-----------------|-----------|
|------------------------------------------------------------|-----------------|-----------|


   Verse
                                1.
                            PM                              PM
    e e S S E S S S S +E  S S   S S S S S S E S S S S +E  S S
||----------------------------|--------------------------------||
||o---------------------------|-------------------------------o||
||------------2-----2-(2)-----|---------------2-----2-(2)------||
||------------0-3s4-0-(0)-----|---------------0-3s4-0-(0)------||
||o-2-3-4-5-------------------|-2p0-3p0-4-5-------------------o||
||--------------------------3-|-----------------------------3--||
|
|   Gtr II
|                           PM                              PM
|   e e S S E S S S S +E  S S   e   e   S S E S S S S +E  S S
||----------------------------|--------------------------------||
||o---------------------------|-------------------------------o||
||------------2-----2-(2)-----|---------------2-----2-(2)------||
||--4-5-6-7---0-3s4-0-(0)-----|---------------0-3s4-0-(0)------||
||o---------------------------|-2---3---4-5-------------------o||
||--------------------------3-|-----------------------------3--||


  2.
                            2/4
  S S S S S E S E S S +Q     S  S S S +E.       S
|--------------------------|----------------------|
|--------------------------|--------------------9-|
|--------------------------|--------------------9-|
|--------------------------|--------------------9-|
|-2p0-3p0-4-5s3-3---3-(3)--|-5--5---5-(5)---------|
|-----------3s1-1---1-(1)--|-3--3---3-(3)---------|
|
| W                          H
|--------------------------|----------------------|
|--------------------------|----------------------|
|--------------------------|----------------------|
|--------------------------|----------------------|
|--------------------------|----------------------|
|--------------------------|----------------------|
|
| Gtr III
| W                          Q.            E
|--------------------------|----------------------|
|--------------------------|---------------9------|
|--------------------------|--------------11b13---|
|--------------------------|----------------------|
|--------------------------|----------------------|
|--------------------------|----------------------|


 Chorus
 4/4
   +H.           E    S S       +H.           E    S  S
|-----------------------------|------------------------------|
|--(9)-----------8------7-----|-(7)----------10-------9------|
|--(9)-----------8------7-----|-(7)----------10-------9------|
|--(9)-----------8------7-----|-(7)----------10-------9------|
|-----------------------------|------------------------------|
|-----------------------------|------------------------------|
|
|                                      TP
|   W                            E   E H.
|-----------------------------|------------------------------|
|-----------------------------|------------------------------|
|-----------------------------|------------------------------|
|---6-------------------------|--6s==7-7---------------------|
|-----------------------------|------------------------------|
|---4-------------------------|--4s==5-5---------------------|
|
|  +H.           E    S S       +H.           E    S  S
|-----------------------------|------------------------------|
|--(9)-----------8------7-----|-(7)----------10-------9------|
|-(11)pb13------10b12---9b11==|=(9)r---------12b14---11b13===|
|-----------------------------|------------------------------|
|-----------------------------|------------------------------|
|-----------------------------|------------------------------|


   +H.            E    S S       +H.           E    S  S
|------------------------------|----------------------------|
|--(9)------------8------7-----|-(7)----------10-------9----|
|--(9)------------8------7-----|-(7)----------10-------9----|
|--(9)------------8------7-----|-(7)----------10-------9----|
|------------------------------|----------------------------|
|------------------------------|----------------------------|
|
|          TP                           TP
|   E   E +H.                     E   E H.
|------------------------------|----------------------------|
|------------------------------|----------------------------|
|------------------------------|----------------------------|
|---7S==6-(6)------------------|--6s==7-7-------------------|
|------------------------------|----------------------------|
|---5S==4-(4)------------------|--4s==5-5-------------------|
|
|  +H.            E    S S       +H.           E    S  S
|------------------------------|----------------------------|
|--(9)------------8------7-----|-(7)----------10-------9----|
|-(11)r----------10b12---9b11==|=(9)r---------12b14---11b13-|
|------------------------------|----------------------------|
|------------------------------|----------------------------|
|------------------------------|----------------------------|


   +H.            E    S S       +H.           E    S  S
|------------------------------|----------------------------|
|--(9)------------8------7-----|-(7)----------10-------9----|
|--(9)------------8------7-----|-(7)----------10-------9----|
|--(9)------------8------7-----|-(7)----------10-------9----|
|------------------------------|----------------------------|
|------------------------------|----------------------------|
|
|          TP                           TP
|   E   E +H.                     E   E H.
|------------------------------|----------------------------|
|------------------------------|----------------------------|
|------------------------------|----------------------------|
|---7S==6-(6)------------------|--6s==7-7-------------------|
|------------------------------|----------------------------|
|---5S==4-(4)------------------|--4s==5-5-------------------|
|
|  +H.            E    S S       +H.           E    S  S
|------------------------------|----------------------------|
|--(9)------------8------7-----|-(7)----------10-------9----|
|-(11)r----------10b12---9b11==|=(9)r---------12b14---11b13-|
|------------------------------|----------------------------|
|------------------------------|----------------------------|
|------------------------------|----------------------------|


   H.       E     S S        +H.              E    S S
|-------------------------|----------------------------|
|--9--------8-------7-----|--(7)-------------10------9-|
|--9--------8-------7-----|--(7)-------------10------9-|
|--9--------8-------7-----|--(7)-------------10------9-|
|-------------------------|----------------------------|
|-------------------------|----------------------------|
|
|  ~~~
|  H.      +E     E          +H       +E  E   Q
|-------------------------|----------------------------|
|-------------------------|----------------------------|
|-------------------------|-----------------/12b14-----|
|--9-------(9)s==12-------|-(12)-----(12)s0------------|
|-------------------------|----------------------------|
|-------------------------|----------------------------|
|
|  H.       E     S S        +H.              Q
|-------------------------|----------------------------|
|--9--------8-------7-----|--(7)-----------------------|
|-11r------10b12----9b11==|==(9)r----------------------|
|-------------------------|----------------------------|
|-------------------------|----------------------------|
|-------------------------|----------------------------|


 Guitar Solo
   +H.                                      E         S   S
|-----------------------------------------------------------|
|--(9)--------------------------------------8-------------7-|
|--(9)--------------------------------------8-------------7-|
|--(9)--------------------------------------8-------------7-|
|-----------------------------------------------------------|
|-----------------------------------------------------------|
|
|  +E.  S  E     +E   S   S       +S   +S   S  S     +S   S
|-----------------------------------------------------------|
|--------------------13-(13)-----------------------------10-|
|-(12)-10-12b14-(12)-----12pb14==(12)r(12)-10h12b14-(12)----|
|-----------------------------------------------------------|
|-----------------------------------------------------------|
|-----------------------------------------------------------|


  +H.                                               E     S  S
|---------------------------------------------------------------|
|-(7)----------------------------------------------10--------9--|
|-(7)----------------------------------------------10--------9--|
|-(7)----------------------------------------------10--------9--|
|---------------------------------------------------------------|
|---------------------------------------------------------------|
|
|  S   S      +S   +S   S S  S  S  S  S  S     +S   S  S  s  S
|-10------------------------------------------------------------|
|-----13b15==(13)r(13)-10s9-------------------------------------|
|---------------------------12p10-12p10-12b14-(12)r12p10--------|
|--------------------------------------------------------12-12--|
|---------------------------------------------------------------|
|---------------------------------------------------------------|


  +H.                                           E     S  S
|--------------------------------------------------------------|
|-(9)-------------------------------------------8--------7-----|
|-(9)-------------------------------------------8--------7-----|
|-(9)-------------------------------------------8--------7-----|
|--------------------------------------------------------------|
|--------------------------------------------------------------|
|
|  ~~~                               ~~~~~~~
|                             |--3---|
|  E   e       S  s S  S     +S   S  S  +S   S  S  S  S  S
|--------------------------------------------------------------|
|-------------------------------------------12p10----10-13b15==|
|-----10b10.5-12-12---12b14r(12)p10----------------------------|
|-12--------------------------------12-(12)-------12-----------|
|--------------------------------------------------------------|
|--------------------------------------------------------------|


   +H.                                                     E       S S
|----------------------------------------------------------------------|
|--(7)----------------------------------------------------10---------9-|
|--(7)----------------------------------------------------10---------9-|
|--(7)----------------------------------------------------10---------9-|
|----------------------------------------------------------------------|
|----------------------------------------------------------------------|
|
|  +S   +S   S  S       +S   S  S     +S  S  S     +S   S  E       E
|-----------10-13b13.5-(13)-10-----------------------------------------|
|-(13)r(13)----12b12.5-(12)----13b14-(13)--------------10--------------|
|-------------------------------------------12b14-(12)----10b10.5------|
|-----------------------------------------------------------------12---|
|----------------------------------------------------------------------|
|----------------------------------------------------------------------|


  +H.                                             E    S  S
|----------------------------------------------------------------|
|-(9)---------------------------------------------8-------7------|
|-(9)---------------------------------------------8-------7------|
|-(9)---------------------------------------------8-------7------|
|----------------------------------------------------------------|
|----------------------------------------------------------------|
|
|  e   S  S       +S   S  S S  S  S       +S   S  S S  S  S
|----------------------------------------------------------------|
|-12--12p10b10.5-(10)----12---12p10b10.5-(10)----12---12p10b10.5-|
|-12--12p10b10.5-(10)----12---12p10b10.5-(10)----12---12p10b10.5-|
|---------------------12----------------------12-----------------|
|----------------------------------------------------------------|
|----------------------------------------------------------------|


   +H.                                        E      S S
|--------------------------------------------------------|
|--(7)---------------------------------------10----------|
|--(7)---------------------------------------10----------|
|--(7)---------------------------------------10--------7-|
|------------------------------------------------------0-|
|--------------------------------------------------------|
|
|                                ~~
|  +S   S  S S  S     +S   S  S  E  S  S     +S   S  E
|--------------------------------------------------------|
|-(10)----12---12b13r(12)p10-----------------------------|
|-(10)----12---12b13r(12)p10-------10-12b14r(12)p10------|
|------12--------------------12-12------------------12---|
|--------------------------------------------------------|
|--------------------------------------------------------|


  Q  Q  Q  Q    Q  Q  Q  Q
|-------------|-------------|
|-------------|-------------|
|-------------|-------------|
|-7--7--7--7--|-7--7--7--7--|
|-0--0--0--0--|-0--0--0--0--|
|-------------|-------------|
|
| W             W
|-------------|-------------|
|-------------|-------------|
|-2-----------|-------------|
|-2-----------|-------------|
|-0-----------|-------------|
|-------------|-------------|


 Outro
  Q  Q  Q  Q    Q  Q  Q  Q
|-------------|-------------|
|-------------|-------------|
|-------------|-------------|
|-7--7--7--7--|-7--7--7--7--|
|-0--0--0--0--|-0--0--0--0--|
|-------------|-------------|
|
| W             W
|-------------|-------------|
|-------------|-------------|
|-------------|-------------|
|-------------|-------------|
|-------------|-------------|
|-------------|-------------|


  Q   Q  Q      Q    Q  Q  Q  Q
|------------------|-------------|
|------------------|-------------|
|------------------|-------------|
|-7---7--7------7--|-7--7--7--7--|
|-0---0--0------0--|-0--0--0--0--|
|------------------|-------------|
|
|     <     <
| Q   Q  S  E S Q    W
|----12------------|-------------|
|----------14------|-------------|
|------------------|-------------|
|------------------|-------------|
|------------------|-------------|
|------------------|-------------|


  Q  Q   Q   Q     Q   Q   Q   Q
|----------------|-----------------|
|----------------|-----------------|
|----------------|-----------------|
|-7--7---7---7---|-7---7---7---7---|
|-0--0---0---0---|-0---0---0---0---|
|----------------|-----------------|
|
|    < < < < < <   < < < < < < < <
| Q  E E E E E E   E E E E E E E E
|----------------|-----------------|
|------5-5-5-5-5-|-5-5-5-5-5-5-5-5-|
|----5-5-5-5-5-5-|-5-5-5-5-5-5-5-5-|
|----------------|-----------------|
|----------------|-----------------|
|----------------|-----------------|


  Q   Q   Q   Q     Q  Q  Q   Q
|-----------------|---------------|
|-----------------|---------------|
|-----------------|---------------|
|-7---7---7---7---|-7--7--7---7---|
|-0---0---0---0---|-0--0--0---0---|
|-----------------|---------------|
|
| < < < < < < < <         <
| E E E E E E E E   H     Q  +Q
|-----------------|---------------|
|-5-5-5-5-5-5-3-2-|---------------|
|-----5-5-5-5-3-2-|-------2--(2)--|
|-----------------|-------2--(2)--|
|-----------------|-------0--(0)--|
|-----------------|---------------|


  Q   Q    Q   Q    Q       Q   Q    Q
|-----------------|--------------------------------------|
|-----------------|--------------------------------------|
|-----------------|--------------------------------------|
|-7---7----7---7--|-7-------7---7----7-------------------|
|-0---0----0---0--|-0-------0---0----0-------------------|
|-----------------|--------------------------------------|
|
| <
|                      ~~~~~~~~
| Q  +Q   +H        S  E.  +H       +E   S       +S
|-----------------|--------------------------------------|
|-----------------|--------------------------------------|
|-2--(2)--(2)-----|--------------------------------------|
|-2--(2)--(2)-----|---12--(12)-----(12)-12b13.5r(12)b14==|
|-0--(0)--(0)-----|--------------------------------------|
|-----------------|--------------------------------------|


    Q     Q    Q  Q      Q   Q  Q  Q
|--------------------|----------------|
|--------------------|----------------|
|--------------------|----------------|
|---7-----7----7--7--|---7---7--7--7--|
|---0-----0----0--0--|---0---0--0--0--|
|--------------------|----------------|
|
|              ~~~~~~~~~~~~~
|  +Q    +Q    H        +W
|--------------------|----------------|
|--------------------|----------------|
|--------------------|----------------|
|-(12)r=(12)--12-----|-(12)-----------|
|--------------------|----------------|
|--------------------|----------------|


  Q  Q  Q  Q    Q  Q  Q  Q
|-------------|-------------*|
|-------------|-------------*|
|-------------|-------------*|
|-7--7--7--7--|-7--7--7--7--*|
|-0--0--0--0--|-0--0--0--0--*|
|-------------|-------------*|
|
| W             W
|-------------|-------------*|
|-------------|-------------*|
|-------------|-------------*|
|-------------|-------------*|
|-------------|-------------*|
|-------------|-------------*|


Duration Legend
---------------
W - whole; H - half; Q - quarter; E - 8th; S - 16th; T - 32nd; X - 64th; a - acciaccatura
+ - note tied to previous; . - note dotted; .. - note double dotted
Uncapitalized letters represent notes that are staccato (1/2 duration)
Irregular groupings are notated above the duration line
Duration letters will always appear directly above the note/fret number it represents the
duration for.  Duration letters with no fret number below them represent rests.  Multi-
bar rests are notated in the form Wxn, where n is the number of bars to rest for.  Low
melody durations appear below the staff

Tablature Legend
----------------
 h   - hammer-on
 p   - pull-off
 b   - bend
 pb  - pre-bend
 r   - bend release (if no number after the r, then release immediately)
 /\  - slide into or out of (from/to "nowhere")
 s   - legato slide
 S   - shift slide
  - natural harmonic
[n]  - artificial harmonic
n(n) - tapped harmonic
 ~   - vibrato
 tr  - trill
 T   - tap
 TP  - trem. picking
 PM  - palm muting
\n/  - tremolo bar dip; n = amount to dip
 \n  - tremolo bar down
 n/  - tremolo bar up
/n\  - tremolo bar inverted dip
 =   - hold bend; also acts as connecting device for hammers/pulls
 <>  - volume swell (louder/softer)
 x   - on rhythm slash represents muted slash
 o   - on rhythm slash represents single note slash

Misc Legend
-----------
 |  - bar
||  - double bar
||o - repeat start
o|| - repeat end
*|  - double bar (ending)
 :  - bar (freetime)
 $  - Segno
 &  - Coda
Tempo markers -  = BPM(8/16=s8/s16), where s8 = swing 8ths, s16 = swing 16ths


comments
print report bad tab
1 comment total.
0 reply
aerorocker101 wrote on June 10 2011, 08:36 pm

REALLY awesome tab, just all the little writings are a bit confusing, other then that, great job!!

I want to post or [tab]
guest
You may want to rate the tab now too:
select rating
Please do not post tabs as comments. Select "correction" instead!