Oops, an error
Loading. Please wait.

Girls Of Summer Tab

ver2
ver2

Whole song

More versions @911Tabs.com
442 views 1 this week
no commentswrite comment
1 2 3 4 5
please rate
Autoscroll
+/-
esc
set tempo
stop
Contributor
WARNING: You are trying to view
                                    content from Ultimate-Guitar.com
                                    in an unauthorized application,
                                    which is prohibited.

                                    Please use an official Ultimate
                                    Guitar Tabs application for iPhone,
                                    iPad or Android to access legitimate
                                    chords, guitar, bass, and drum tabs
                                    from Ultimate-Guitar.com database.

                                    Type "ultimate guitar tabs" in Apple
                                    App Store's or Android Market's
                                    search to find the application.
#----------------------------------PLEASE NOTE---------------------------------#
#This file is the author's own work and represents their interpretation of the #
#song. You may only use this file for private study, scholarship, or research. #
#------------------------------------------------------------------------------#

GIRLS OF SUMMER
As recorded by Aerosmith
(From the 2002 Album O, YEAH! ULTIMATE AEROSMITH HITS)

Transcribed by tonedeafidiot
	

Words and Music by Tyler/Perry/Frederiksen

D
x x 0 2 3 2
	
G5
3 x 0 0 3 3
	
Am
x 0 2 2 1 0
	
Cm
x 3 5 5 4 x
G5(type 2)
3 x 0 0 3 x
	
Bm
x 2 4 4 3 x
	
Em7
0 2 2 0 3 0
	
Bb
x 1 3 3 3 x
C
x 3 5 5 5 x
	
A
x 0 2 2 2 0

Gtr I (E A D G B E) - 'Clean'
Gtr II (E A D G B E) - 'Acoustic'
Gtr III (E A D G B E) - 'Slight Distortion'
Gtr IV (B E A D F# B) - 'Baritone w/Tremolo'
Gtr V (D A D G B E) - 'Two Distortion Guitars'
Gtr VI (D G D G B D) - 'Clean w/Flanger'

 Intro
  Moderately Fast  Q=152
                     D         Dsus4   Dsus2       D
 4/4
  Gtr I
                     <         <       <           <
  W          H    Q  Q    +Q   Q  +Q   Q    +H     Q  +Q
|----------|---------2--|-(2)--3--(3)--0--|-(0)----2--(2)--|
|----------|---------3--|-(3)--3--(3)--3--|-(3)----3--(3)--|
|----------|---------2--|-(2)----------2--|-(2)----2--(2)--|
|----------|------------|-----------------|----------------|
|----------|------------|-----------------|----------------|
|----------|------------|-----------------|----------------|


  Slower Q=122
  D
  Gtr II
  Q.     E +H        Q.     E +H
  |      |  |        |      |  |
  /      /  /        /      /  /

  E  E E E  E Q.     E  E E E  E Q.
|-2------0---------|-3------2---------|
|----3------3------|----3------3------|
|------2------2----|------2------2----|
|------------------|------------------|
|------------------|------------------|
|------------------|------------------|


                                      G5
  Q.     E +H        Q.     E +Q.     S S
  |      |  |        |      |  |      | |
  /      /  /        /      /  /      / /

  E  E E E  E Q.     E  E E E  E  Q.
|-2------0---------|-3------2-------------||
|----3------3------|----3------3----------||
|------2------2----|------2-------2-------||
|------------------|----------------------||
|------------------|----------------------||
|------------------|----------------------||


 Verse
  G5
  Q.   E +Q.   E   Q.   E +Q.   S S    Q.   E +Q.   E
  |    |  |    |   |    |  |    | |    |    |  |    |
  /    /  /    /   /    /  /    / /    /    /  /    /

  Q.   E +Q.   E   W                  +W
|-3----3-(3)---3-|-3----------------|-(3)-------------|
|-3----3-(3)---3-|-3----------------|-(3)-------------|
|-0----0-(0)-----|------------------|-----------------|
|-0----0-(0)-----|------------------|-----------------|
|----------------|------------------|-----------------|
|-3----3-(3)-----|------------------|-----------------|


                       Am            Cm                  G5
                       Gtr II
   Q.   E +E E E S S    Q.   E +Q.   S S    Q.   E +Q.   S S
   |    |  | | | | |    |    |  |    | |    |    |  |    | |
   /    /  / / / / /    /    /  /    / /    /    /  /    / /

                       Gtr III
  +W                    W                   W
|-(3)----------------|-^0----------------|-------------------|
|-(3)----------------|-^1----------------|-!4----------------|
|--------------------|-^2----------------|-!5----------------|
|--------------------|-^2----------------|-!5----------------|
|--------------------|-^0----------------|-!3----------------|
|--------------------|-------------------|-------------------|


                                         G5
  Q.   E +Q.   S S   Q.   E +Q.    S S   Q.   E +Q.   E
  |    |  |    | |   |    |  |     | |   |    |  |    |
  /    /  /    / /   /    /  /     / /   /    /  /    /

  W                  H      +Q.    E     W
|------------------|--------------!3---|-----------------|
|-3----------------|-3------(3)---!3---|-----------------|
|-0----------------|-0------(0)---!0---|-----------------|
|-0----------------|-0------(0)---!0---|-----------------|
|------------------|-------------------|-----------------|
|-3----------------|-3------(3)--------|-3---------------|
|
| Gtrs I, IV
| W                  W                   Q.   E +H
|------------------|-------------------|-----------------|
|------------------|-------------------|-----------------|
|------------------|-------------------|-----------------|
|------------------|-------------------|------0-(0)------|
|------------------|-------------------|-----------------|
|------------------|-------------------|-3---------------|


   Q.   E +Q.   S S   Q.   E +Q.   E   Q.   E +E  E E S S
   |    |  |    | |   |    |  |    |   |    |  |  | | | |
   /    /  /    / /   /    /  /    /   /    /  /  / / / /

  +W                  W                W
|-------------------|----------------|---------------------|
|-------------------|----------------|---------------------|
|-------------------|----------------|---------------------|
|-------------------|----------------|---------------------|
|-------------------|----------------|---------------------|
|-(3)---------------|----------------|---------------------|
|
|  Q.   E +H          Q.   E +H        Q.   E +H
|-------------------|----------------|---------------------|
|-------------------|----------------|---------------------|
|-------------------|----------------|---------------------|
|-------0-(0)-------|------0-(0)-----|------0-(0)----------|
|-------------------|----------------|---------------------|
|--3----------------|-3--------------|-3-------------------|
|
| Gtr IV
|  Q.   E +H          Q.   E +H        Q.   E +H
|-------------------|----------------|---------------------|
|-------------------|----------------|---------------------|
|-------------------|----------------|---------------------|
|-------0-(0)-------|------0-(0)-----|------0-(0)----------|
|-------------------|----------------|---------------------|
|--0----------------|-3--------------|-0-------------------|


  Am              Cm              G5(type 2)
  Gtr III
  W               W               W
  |               |               |
  /               /               /

  Gtrs II, IV
  Q.   E +H       Q.   E +H       Q.   E +H
|---------------|---------------|---------------|
|---------------|---------------|---------------|
|---------------|---------------|---------------|
|------2-(2)----|------5-(5)----|------0-(0)----|
|-0-------------|-3-------------|---------------|
|---------------|---------------|-3-------------|


                   N.C.
  +W               W          W
   |
   /

   Q.   E +H       W          W
|----------------|----------|------||
|----------------|----------|------||
|----------------|----------|------||
|-------0-(0)----|----------|------||
|----------------|----------|------||
|--3-------------|----------|------||


 Chorus
  $
  D              Bm                   G5                   Em7
  Gtr II
  E E E E +E E E S S   E E E E +E E E S S   E E E E +E E E S S
  | | | |  | | | | |   | | | |  | | | | |   | | | |  | | | | |
  / / / /  / / / / /   / / / /  / / / / /   / / / /  / / / / /

  Gtr V
  W                    W                    W
|--------------------|--------------------|-7-------------------|
|-3------------------|-3------------------|-8-------------------|
|-2------------------|-2------------------|-0-------------------|
|-0------------------|-4------------------|-0-------------------|
|-0------------------|-2------------------|---------------------|
|-0------------------|--------------------|-5-------------------|


                  D                    Bm                   G5
  E E E E +E  E E S S   E E E E +E E E S S   E E E E +E E E S S
  | | | |  |  | | | |   | | | |  | | | | |   | | | |  | | | | |
  / / / /  /  / / / /   / / / /  / / / / /   / / / /  / / / / /

  E E E E +E  E E E     W                    W
|---------------------|--------------------|---------------------|
|---------------------|--------------------|---------------------|
|---------------------|--------------------|-2-------------------|
|-2-2-2-2-(2)-2-2-2---|-0------------------|-4-------------------|
|-2-2-2-2-(2)-2-2-2---|-0------------------|-2-------------------|
|-2-2-2-2-(2)-2-2-2---|-0------------------|---------------------|


                 Em7                    D     G5            Bb
  E E E E +E E E S S   E E E   E +E E E S S   Q  E E +E E E S S
  | | | |  | | | | |   | | |   |  | | | | |   |  | |  | | | | |
  / / / /  / / / / /   / / /   /  / / / / /   /  / /  / / / / /

  W                    E E S S E  E E E E     W
|-7------------------|----------------------|-------------------|
|-8------------------|----------------------|-------------------|
|-0------------------|----------------------|-------------------|
|-0------------------|-2-2-2-2-2--2-2-2-2---|-5-----------------|
|--------------------|-2-2-2-2-2--2-2-2-2---|-5-----------------|
|-5------------------|-2-2-2-2-2--2-2-2-2---|-5-----------------|


                             To Coda
                   D                                    G5
  Q  E E +E E Q    Q.     E +H         Q.     E +Q.     S S
  |  | |  | | |    |      |  |         |      |  |      | |
  /  / /  / / /    /      /  /         /      /  /      / /

  W                W                  +W
|----------------|------------------|-----------------------||
|----------------|-3----------------|-(3)-------------------||
|----------------|-2----------------|-(2)-------------------||
|-8--------------|-0----------------|-(0)-------------------||
|-8--------------|-0----------------|-(0)-------------------||
|-8--------------|-0----------------|-(0)-------------------||
|
| Gtr I
| W                E  E E E  E Q.      E  E E E  E  Q.
|----------------|-2------0---------|--3------2-------------||
|----------------|----3------3------|-----3------3----------||
|----------------|------2------2----|-------2-------2-------||
|----------------|------------------|-----------------------||
|----------------|------------------|-----------------------||
|----------------|------------------|-----------------------||


 Verse
  G5
  Q.     E +Q.    E   Q.     E +Q.     S S   Q.     E +Q.    E
  |      |  |     |   |      |  |      | |   |      |  |     |
  /      /  /     /   /      /  /      / /   /      /  /     /

  Gtr VI
  E  E E E +E  Q  E   E  E E E  E  E E S S   E  E E E +E  Q  E
|------0------------|----0---0-----0---0---|-------------------|
|-8------7-(7)----7S|=5----5----3----3---3S|=8----8-7-(7)----7-|
|----7---------7----|----------------------|----7---------7----|
|-------------------|----------------------|-------------------|
|-------------------|----------------------|-------------------|
|-------------------|----------------------|-------------------|


                        Am             Cm                    G5
  Q.     E +E E E S S   Q.    E +Q.    S S   Q.     E +Q.    S S
  |      |  | | | | |   |     |  |     | |   |      |  |     | |
  /      /  / / / / /   /     /  /     / /   /      /  /     / /

  E  E E E  E E E E     E E E E +E  Q  E     E  E E E +E  Q  E
|----0---0--------0---|-1p0---------0------|----0---------0------|
|-5----5----3---3-----|-----4S1-(1)----3S==|=8----8S4-(4)----4---|
|-------------2-------|--------------------|---------------------|
|---------------------|--------------------|---------------------|
|---------------------|--------------------|---------------------|
|---------------------|--------------------|---------------------|


                                                  D.S. al Coda
  Q.      E +Q.     S S    Q.      E +Q.   S S   W          W
  |       |  |      | |    |       |  |    | |
  /       /  /      / /    /       /  /    / /

  E  E E  E  E  E E E     +E   E E E  H          W          W
|-9------10-------9-----|-----10------9--------|----------|-------||
|----8-------8------8---|-(8)----8----8--------|----------|-------||
|------7--------7-------|----------7-----------|----------|-------||
|-----------------------|----------------------|----------|-------||
|-----------------------|----------------------|----------|-------||
|-----------------------|----------------------|----------|-------||


                     Bridge
  &
  D            Bb                   C
  Q.   E +Q.   S S    Q   E E E E E S S
  |    |  |    | |    |   | | | | | | |
  /    /  /    / /    /   / / / / / / /

  Gtr I
  W                   Q   Q   E Q   E
|------------------||-----1-----1-------|
|------------------||-1-------1-----1---|
|------------------||-------------------|
|------------------||-------------------|
|------------------||-------------------|
|------------------||-------------------|
|
| Gtr V
| W                   W
|------------------||-------------------|
|-3----------------||-------------------|
|-2----------------||-------------------|
|-0----------------||-8-----------------|
|-0----------------||-8-----------------|
|-0----------------||-8-----------------|
|
| Gtr III
| W                   E E E E E E E E
|------------------||-------------------|
|------------------||-------------------|
|------------------||-----3-----3-------|
|------------------||---3-----3-----3---|
|------------------||-1-----1-----1-----|
|------------------||-------------------|


                 G5                 D                   Bb
   Q   E E E E E E   +Q   E E E E E S S   Q   E E E E E S S
   |   | | | | | |    |   | | | | | | |   |   | | | | | | |
   /   / / / / / /    /   / / / / / / /   /   / / / / / / /

   Q   Q   E Q   E    Q   Q   E Q   E     E E Q   E Q   E
|------3-----3-----|------3-----3-------|-----2-----2-------|
|--1-------3-----3-|--3-------3-----3---|-3-3-----3-----3---|
|------------------|--------------------|-------------------|
|------------------|--------------------|-------------------|
|------------------|--------------------|-------------------|
|------------------|--------------------|-------------------|
|
|  W                  W                   W
|------------------|--------------------|-------------------|
|------------------|--------------------|-------------------|
|------------------|--------------------|-------------------|
|-10---------------|--5-----------------|-7-----------------|
|-10---------------|--5-----------------|-5-----------------|
|-10---------------|--5-----------------|-0-----------------|
|
|  E E E E E E E E    E E E E E E E E     E E E E E E E E
|------------------|--------------------|-------------------|
|------------------|--------------------|-------------------|
|------5-----5-----|--------------------|-----7-----7-------|
|----5-----5-----5-|------5-----5-------|---7-----7-----7---|
|--3-----3-----3---|----5-----5-----5---|-5-----5-----5-----|
|------------------|--3-----3-----3-----|-------------------|


                C                        G5
  E E E E E E E S S    E E E E E E E E   E E E E E E E E
  | | | | | | | | |    | | | | | | | |   | | | | | | | |
  / / / / / / / / /    / / / / / / / /   / / / / / / / /

  E E Q   E Q   E      Q   Q   E Q   E   Q   Q   E E E E
|-----1-----1-------|------3-----3-----|-----3-----3-3---|
|-3-1-----1-----1---|--3-------3-----3-|-3-------3-----3-|
|-------------------|------------------|-----------------|
|-------------------|------------------|-----------------|
|-------------------|------------------|-----------------|
|-------------------|------------------|-----------------|
|
| W                    W                 W
|-------------------|------------------|-----------------|
|-------------------|------------------|-----------------|
|-------------------|------------------|-----------------|
|-8-----------------|-10---------------|-5---------------|
|-8-----------------|-10---------------|-5---------------|
|-8-----------------|-10---------------|-5---------------|
|
| E E E E E E E E      E E E E E E E E   E E E E E E E E
|-------------------|------------------|-----------------|
|-------------------|------------------|-----------------|
|-----3-----3-------|------5-----5-----|-----------------|
|---3-----3-----3---|----5-----5-----5-|-----5-----5-----|
|-1-----1-----1-----|--3-----3-----3---|---5-----5-----5-|
|-------------------|------------------|-3-----3-----3---|


  A                                     G5     G5   Gmaj7
                                               Gtr II
   W                  +H.            +E S S    W
   |                   |              | | |
   /                   /              / / /

  +E  E E E E Q   E    Q   E E +E  E  Q        Q.   E +Q.   E
|-------5-3---7-----|--5-----7-(7)----7-----||-3----2-(2)---2-|
|-(3)-5-----5-----5-|------5-------5--------||-3----3-(3)---3-|
|-------------------|-----------------------||-0----0-(0)---0-|
|-------------------|-----------------------||-0----0-(0)---0-|
|-------------------|-----------------------||----------------|
|-------------------|-----------------------||-3----3-(3)---3-|
|
|                                              >
|  W                  +W                       H       H
|-------------------|-----------------------||----------------|
|-------------------|-----------------------||-3--------------|
|-------------------|-----------------------||-0--------------|
|--7----------------|-(7)-------------------||-0--------------|
|--7----------------|-(7)-------------------||----------------|
|--7----------------|-(7)-------------------||-5--------------|
|
|  E  E E E E E E E    Q   E E +E  E  Q        W
|-------------------|-----------------------||----------------|
|-------------------|-----------------------||----------------|
|-------------------|--7-----6-(6)----------||----------------|
|-------7-----7-----|-----------------9-----||----------------|
|-----7-----7-----7-|------7-------7--------||----------------|
|--5------5-----5---|-----------------------||----------------|


  G6   G5                 Gmaj7         G6   G5      Am
  Q.   E +Q.   S S   Q.   E +Q.   S S   Q.   E +Q.   S S
|-0------------3-3-|-3----2-(2)-------|-0------------0-0-|
|-3----3-(3)---3-3-|-3----3-(3)-------|-3----3-(3)---1-1-|
|-0----0-(0)---0-0-|-0----0-(0)---0-0-|-0----0-(0)---2-2-|
|-0----0-(0)---0-0-|-0----0-(0)---0-0-|-0----0-(0)---2-2-|
|------------------|------------------|--------------0-0-|
|-3----3-(3)---3-3-|-3----3-(3)---3-3-|-3----3-(3)-------|


               Cm                 G5    G5
                                        Gtr I
  W                  W                  Q.     E +H         +W
                                        |      |  |          |
                                        /      /  /          /

                                        Gtr II
  Q.   E +Q.   S S   Q.   E +Q.   S S   E  E E E  E E E E    E E E E E E Q
|-0----0-(0)-------|--------------3-3-|-7------8------7---|----8-----7--------||
|-1----1-(1)---4-4-|-4----4-(4)---3-3-|----8------8-----8-|------8-----8------||
|-2----2-(2)---5-5-|-5----5-(5)---0-0-|------7------7-----|--7-----7-----7----||
|-2----2-(2)---5-5-|-5----5-(5)---0-0-|-------------------|-------------------||
|-0----0-(0)---3-3-|-3----3-(3)-------|-------------------|-------------------||
|------------------|--------------3-3-|-------------------|-------------------||


 Chorus
  D              Bm                   G5                   Em7
  E E E E +E E E S S   E E E E +E E E S S   E E E E +E E E S S
  | | | |  | | | | |   | | | |  | | | | |   | | | |  | | | | |
  / / / /  / / / / /   / / / /  / / / / /   / / / /  / / / / /

  Gtr V
  W                    W                    W
|--------------------|--------------------|-7-------------------|
|-3------------------|-3------------------|-8-------------------|
|-2------------------|-2------------------|-0-------------------|
|-0------------------|-4------------------|-0-------------------|
|-0------------------|-2------------------|---------------------|
|-0------------------|--------------------|-5-------------------|


                  D                    Bm                   G5
  E E E E +E  E E S S   E E E E +E E E S S   E E E E +E E E S S
  | | | |  |  | | | |   | | | |  | | | | |   | | | |  | | | | |
  / / / /  /  / / / /   / / / /  / / / / /   / / / /  / / / / /

  E E E E +E  E E E     W                    W
|---------------------|--------------------|---------------------|
|---------------------|--------------------|---------------------|
|---------------------|--------------------|-2-------------------|
|-2-2-2-2-(2)-2-2-2---|-0------------------|-4-------------------|
|-2-2-2-2-(2)-2-2-2---|-0------------------|-2-------------------|
|-2-2-2-2-(2)-2-2-2---|-0------------------|---------------------|


                 Em7                    D
  E E E E +E E E S S   E E E   E +E E E S S
  | | | |  | | | | |   | | |   |  | | | | |
  / / / /  / / / / /   / / /   /  / / / / /

  W                    E E S S E  E E E E
|-7------------------|----------------------|
|-8------------------|----------------------|
|-0------------------|----------------------|
|-0------------------|-2-2-2-2-2--2-2-2-2---|
|--------------------|-2-2-2-2-2--2-2-2-2---|
|-5------------------|-2-2-2-2-2--2-2-2-2---|


  G5               Em7
  Q  E E +Q  E E   E E E E +E E E S S
  |  | |  |  | |   | | | |  | | | | |
  /  / /  /  / /   / / / /  / / / / /

  W                E E E E  E E E E
|----------------|----------------------|
|-3--------------|----------------------|
|-0--------------|----------------------|
|-0--------------|-2-2-2-2--2-2-2-2-----|
|----------------|-2-2-2-2--2-2-2-2-----|
|-5--------------|-2-2-2-2--2-2-2-2-----|


  G5                Bb               D
  Q  E E +E E E E   Q  E E +E E Q    Q.     E +H         Q.     E +H
  |  | |  | | | |   |  | |  | | |    |      |  |         |      |  |
  /  / /  / / / /   /  / /  / / /    /      /  /         /      /  /

  W                 W                W                  +W
|-----------------|----------------|------------------|--------------------|
|-----------------|----------------|-3----------------|-(3)----------------|
|-----------------|----------------|-2----------------|-(2)----------------|
|-5---------------|-8--------------|-0----------------|-(0)----------------|
|-5---------------|-8--------------|-0----------------|-(0)----------------|
|-5---------------|-8--------------|-0----------------|-(0)----------------|
|
| Gtr I
| W                 W                E  E E E  E Q.      E  E E E  E Q.
|-----------------|----------------|-2------0---------|--3------2----------|
|-----------------|----------------|----3------3------|-----3------3-------|
|-----------------|----------------|------2------2----|-------2------2-----|
|-----------------|----------------|------------------|--------------------|
|-----------------|----------------|------------------|--------------------|
|-----------------|----------------|------------------|--------------------|


                                          Bb                    C
   Q.     E +H         Q.     E +H         Q.   E +H             W
   |      |  |         |      |  |         |    |  |             |
   /      /  /         /      /  /         /    /  /             /

  Gtr III
   W                   W                   H      +E  E S S E    W
|-------------------|-------------------|---------------------|-------*|
|-------------------|-------------------|---------------------|-/5----*|
|-------------------|-------------------|-/7------(7)-7-7s5-3-|-------*|
|-------------------|-------------------|---------------------|-------*|
|-------------------|-------------------|---------------------|-------*|
|-------------------|-------------------|---------------------|-------*|
|
| Gtr V
| +W                  +W                   W                     W
|-------------------|-------------------|---------------------|-------*|
|-(3)---------------|-(3)---------------|---------------------|-------*|
|-(2)---------------|-(2)---------------|---------------------|-------*|
|-(0)---------------|-(0)---------------|--8------------------|-10----*|
|-(0)---------------|-(0)---------------|--8------------------|-10----*|
|-(0)---------------|-(0)---------------|--8------------------|-10----*|
|
| Gtr I
|  E  E E E  E Q.      E  E E E  E Q.      W                     W
|--2------0---------|--3------2---------|---------------------|-------*|
|-----3------3------|-----3------3------|---------------------|-------*|
|-------2------2----|-------2------2----|---------------------|-------*|
|-------------------|-------------------|---------------------|-------*|
|-------------------|-------------------|---------------------|-------*|
|-------------------|-------------------|---------------------|-------*|



Duration Legend
---------------
W - whole; H - half; Q - quarter; E - 8th; S - 16th; T - 32nd; X - 64th; a - acciaccatura
+ - note tied to previous; . - note dotted; .. - note double dotted
Uncapitalized letters represent notes that are staccato (1/2 duration)
Irregular groupings are notated above the duration line
Duration letters will always appear directly above the note/fret number it represents the
duration for.  Duration letters with no fret number below them represent rests.  Multi-
bar rests are notated in the form Wxn, where n is the number of bars to rest for.  Low
melody durations appear below the staff

Tablature Legend
----------------
 h   - hammer-on
 p   - pull-off
 b   - bend
 pb  - pre-bend
 r   - bend release (if no number after the r, then release immediately)
 /\  - slide into or out of (from/to "nowhere")
 s   - legato slide
 S   - shift slide
 - natural harmonic
[n]  - artificial harmonic
n(n) - tapped harmonic
 ~   - vibrato
 tr  - trill
 T   - tap
 TP  - trem. picking
 PM  - palm muting
\n/  - tremolo bar dip; n = amount to dip
 \n  - tremolo bar down
 n/  - tremolo bar up
/n\  - tremolo bar inverted dip
 =   - hold bend; also acts as connecting device for hammers/pulls
 <> - volume swell (louder/softer)
 x   - on rhythm slash represents muted slash
 o   - on rhythm slash represents single note slash

Misc Legend
-----------
 |  - bar
||  - double bar
||o - repeat start
o|| - repeat end
*|  - double bar (ending)
 :  - bar (freetime)
 $  - Segno
 &  - Coda
Tempo markers -  = BPM(8/16=s8/s16), where s8 = swing 8ths, s16 = swing 16ths

comments
We did not receive enough feedback on this tab! Please rate:
print report bad tab
1 2 3 4 5
I want to post or [tab]
guest
You may want to rate the tab now too:
select rating
Please do not post tabs as comments. Select "correction" instead!