Oops, an error
Loading. Please wait.

I Dont Want To Miss A Thing Tab

ver5
ver5

Whole song

Interactive

More versions @911Tabs.com
21,673 views 24 this week
no commentswrite comment
1 2 3 4 5
excellent!
x 1
Autoscroll
+/-
esc
set tempo
stop
Contributor
Hey! There's an official Ultimate Guitar app which is ideal
for learning songs when you're away from computer. Get the app
WARNING: You are trying to view
                                    content from Ultimate-Guitar.com
                                    in an unauthorized application,
                                    which is prohibited.

                                    Please use an official Ultimate
                                    Guitar Tabs application for iPhone,
                                    iPad or Android to access legitimate
                                    chords, guitar, bass, and drum tabs
                                    from Ultimate-Guitar.com database.

                                    Type "ultimate guitar tabs" in Apple
                                    App Store's or Android Market's
                                    search to find the application.
#----------------------------------PLEASE NOTE---------------------------------#
#This file is the author's own work and represents their interpretation of the #
#song. You may only use this file for private study, scholarship, or research. #
#------------------------------------------------------------------------------#

I DON'T WANT TO MISS A THING
As recorded by Aerosmith
(From the 1998 Album I DON'T WANT TO MISS A THING)

Transcribed by cbliss66@speednet.com (slaya)
        


Arranged by Aerosmith

Gtr I (E A D G B E) - 'Strings'
Gtr II (E A D G B E) - 'Dist. guitar'
Gtr III (E A D G B E) - 'Clean tone electric'
Gtr IV (E A D G B E) - 'Piano'
Gtr V (E A D G B E) - 'Violin'
Gtr VI (E A D G B E) - 'Acoustic'

 Intro
  Moderately Q=121
  Bsus4       C#m           E
 4/4
  Gtr I
   W           +W            +W            +W
|-12--------|-(12)--------|-(12)--------|-(12)----|
|-----------|-------------|-------------|---------|
|--9--------|--(9)--------|--(9)--------|--(9)----|
|-----------|-------------|-------------|---------|
|-----------|-------------|---7---------|--(7)----|
|--7--------|---9---------|-------------|---------|
   W            W             W            +W


  Bsus4       C#m           E             N.C.
   W           +W            +W            E.  +Q      H        +S
|-12--------|-(12)--------|-(12)--------|-12--(12)-------------------|
|-----------|-------------|-------------|-------------12-------(12)--|
|--9--------|--(9)--------|--(9)--------|-11----9-----------9---(9)--|
|-----------|-------------|-------------|----------12-11-12----------|
|-----------|-------------|---7---------|--9----7-----------7---(7)--|
|--7--------|---9---------|-------------|----------10--9-10----------|
   W            W             W            E.   E   E  E  E Q   +S


  Bsus4       C#m           E         Bsus4   N.C.
   W           +W            +H.       +Q      E.  E  E  E  E  Q   +S
|-12--------|-(12)--------|-(12)------(12)--|-14--12----------12--(12)--|
|-----------|-------------|-----------------|--------15-14-15-----------|
|--9--------|--(9)--------|--(9)------------|-11---9-----------9---(9)--|
|-----------|-------------|-----------------|--------12-11-12-----------|
|-----------|-------------|---7-------------|--9---7-----------7---(7)--|
|--7--------|---9---------|-------------7---|--------10--9-10-----------|
   W            W             H.        Q      E.  E  E  E  E  Q   +S


  Bsus4       C#m           E             N.C.
 4/4
   W           +W            +W            E. E  E  H     +S
|-12--------|-(12)--------|-(12)--------|-10--9---------------||
|-----------|-------------|-------------|-------12-10----(10)-||
|--9--------|--(9)--------|--(9)--------|--7------------------||
|-----------|-------------|-------------|---------------------||
|-----------|-------------|---7---------|-(7)-----------------||
|--7--------|---9---------|-------------|---------------------||
   W            W             W            W


 1st Verse
  (F#madd11)       (Esus4)          (F#madd11)
  Gtr IV
   E E Q  E E Q     E E Q  E E Q     E E Q  E E Q     E  E Q   E  E  Q
|----------------|----------------|----------------|---------------------|
|------0------0--|------0------0--|------0------0--|-------0---------0---|
|----2------2----|----2------2----|----2------2----|-----2--------2------|
|--4------4------|--2------2------|--4------4------|--4--------4---------|
|----------------|----------------|----------------|---------------------|
|----------------|----------------|----------------|---------------------|
|
| Gtr VI
|  W                W                W               +W
|----------------|----------------|----------------|---------------------|
|----------------|----------------|-^3-------------|-(3)-----------------|
|-^2-------------|-^2-------------|-^4-------------|-(4)-----------------|
|-^4-------------|-^2-------------|-^4-------------|-(4)-----------------|
|-^0-------------|-^0-------------|-^2-------------|-(2)-----------------|
|-^2-------------|-^0-------------|-^2-------------|-(2)-----------------|
|
| Gtr V
|  <
|  W                W                W               +H       +E  Q.
|----------------|----------------|----------------|---------------------|
|----------------|--5-------------|----------------|---------------------|
|--7-------------|----------------|--7-------------|-(7)------(7)--------|
|----------------|----------------|----------------|--------------7------|
|----------------|----------------|----------------|---------------------|
|----------------|----------------|----------------|---------------------|


  (Gadd9)          (F#madd11)       (Esus4)
   E E Q  E E Q     E E Q  E E Q     E E Q  E E Q     E  E Q   E  E  Q
|----------------|----------------|----------------|---------------------|
|------0------0--|------0------0--|------0------0--|-------0---------0---|
|----2------2----|----2------2----|----2------2----|-----2--------2------|
|--5------5------|--4------4------|--2------2------|--2--------2---------|
|----------------|----------------|----------------|---------------------|
|----------------|----------------|----------------|---------------------|
|
|  W                W                W               +W
|----------------|----------------|----------------|---------------------|
|----------------|----------------|-^3-------------|-(3)-----------------|
|-^0-------------|-^2-------------|-^0-------------|-(0)-----------------|
|-^0-------------|-^4-------------|-^2-------------|-(2)-----------------|
|-^2-------------|-^0-------------|-^2-------------|-(2)-----------------|
|-^3-------------|-^2-------------|-^0-------------|-(0)-----------------|
|
|  W                W                W               +H       +E  Q.
|----------------|----------------|----------------|---------------------|
|----------------|----------------|----------------|--------------5------|
|----------------|----------------|----------------|---------------------|
|--9-------------|--7-------------|----------------|---------------------|
|----------------|----------------|--7-------------|-(7)------(7)--------|
|----------------|----------------|----------------|---------------------|


  (F#madd11)       (Esus4)          (F#madd11)
   E E Q  E E Q     E E Q  E E Q     E E Q  E E Q     E  E Q   E  E Q
|----------------|----------------|----------------|---------------------|
|------0------0--|------0------0--|------0------0--|-------0--------0----|
|----2------2----|----2------2----|----2------2----|-----2--------2------|
|--4------4------|--2------2------|--4------4------|--4--------4---------|
|----------------|----------------|----------------|---------------------|
|----------------|----------------|----------------|---------------------|
|
|  W                W                W               +W
|----------------|----------------|----------------|---------------------|
|----------------|----------------|-^3-------------|-(3)-----------------|
|-^2-------------|-^2-------------|-^4-------------|-(4)-----------------|
|-^4-------------|-^2-------------|-^4-------------|-(4)-----------------|
|-^0-------------|-^0-------------|-^2-------------|-(2)-----------------|
|-^2-------------|-^0-------------|-^2-------------|-(2)-----------------|
|
|  W                W                W               +H       +E  Q   E
|----------------|----------------|----------------|---------------------|
|----------------|--5-------------|----------------|---------------------|
|--7-------------|----------------|--7-------------|-(7)------(7)-6---7--|
|----------------|----------------|----------------|---------------------|
|----------------|----------------|----------------|---------------------|
|----------------|----------------|----------------|---------------------|


  (Gadd9)          (F#madd11)       (Esus4)
   E E Q  E E Q     E E Q  E E Q     E E Q  E E Q     E  E Q  E E Q
|----------------|----------------|----------------|------------------|
|------0------0--|------0------0--|------0------0--|-------0------0---|
|----2------2----|----2------2----|----2------2----|-----2------2-----|
|--5------5------|--4------4------|--2------2------|--2-------2-------|
|----------------|----------------|----------------|------------------|
|----------------|----------------|----------------|------------------|
|
|  W                W                W               +W
|----------------|----------------|----------------|------------------|
|----------------|----------------|-^3-------------|-(3)--------------|
|-^0-------------|-^2-------------|-^0-------------|-(0)--------------|
|-^0-------------|-^4-------------|-^2-------------|-(2)--------------|
|-^2-------------|-^0-------------|-^2-------------|-(2)--------------|
|-^3-------------|-^2-------------|-^0-------------|-(0)--------------|
|
|  W                W                W               +W
|----------------|----------------|----------------|------------------|
|----------------|----------------|----------------|------------------|
|----------------|--7-------------|----------------|------------------|
|--9-------------|----------------|----------------|------------------|
|----------------|----------------|--7-------------|-(7)--------------|
|----------------|----------------|----------------|------------------|


  $
  (F#madd11)        (Gadd9)           A5
                                    Gtr III
   E  E Q  E E Q     E  E Q  E E Q     Q   Q   Q   Q     Q   Q   Q   Q
|-----------------|-----------------|-----------------|------------------||
|-------0------0--|-------0------0--|-----------------|------------------||
|-----2------2----|-----2------2----|--2---2---2---2--|--2---2---2---2---||
|--4-------4------|--5-------5------|--2---2---2---2--|--2---2---2---2---||
|-----------------|-----------------|--0---0---0---0--|--0---0---0---0---||
|-----------------|-----------------|-----------------|------------------||
|
|                                   Gtr II
|  W                 W                 Q   Q   Q   Q     Q   Q   Q   Q
|-----------------|-----------------|-----------------|------------------||
|-----------------|-----------------|-----------------|------------------||
|--2--------------|--0--------------|--2---2---2---2--|--2---2---2---2---||
|--4--------------|--0--------------|--2---2---2---2--|--2---2---2---2---||
|--0--------------|--2--------------|--0---0---0---0--|--0---0---0---0---||
|--2--------------|--3--------------|-----------------|------------------||
|
|                                   Gtr I
|  W                 W                 q   q   q   q     q   q   Q   Q
|-----------------|-----------------|-10------10------|-10------12-------||
|-(5)-------------|-(7)-------------|-----10------10--|-----10------10---||
|-----------------|-----------------|--7-------7------|--7-------9-------||
|--4--------------|--5--------------|------7-------7--|------7-------7---||
|-----------------|-----------------|-----------------|------------------||
|-----------------|-----------------|-----------------|------------------||


   Chorus
    $$
    D5             A/C#           E5                                 N.C.
    Gtr III
     Q  Q  Q  Q    Q  Q  Q  E E    Q  Q  Q  Q     +E  E E E   Q      E E
||---------------|--------------|-----------0--|--(0)--------------------|
||o--------3-----|-------3------|--------3-----|------3-----^-3----------|
||------2-----2--|----2-----2---|--------------|--------2---^-2----------|
||---0-----------|------------0-|-----2--------|----------0-^-0----------|
||o--------------|-4------------|--------------|-------------------------|
||---------------|--------------|--0-----------|---------------------0-2-|
|
|   Gtr II
|    W             W               W              +H.                E E
||---------------|--------------|--------------|-------------------------|
||o--------------|--------------|--------------|-------------------------|
||---------------|--------------|--------------|-------------------------|
||---7-----------|-7------------|--------------|-------------------------|
||o--5-----------|-4------------|--2-----------|--(2)--------------------|
||---------------|--------------|--0-----------|--(0)----------------0-2-|
|
|   Gtr I
|    W             W               W              +H         +E   Q.
||--10-----------|-9------------|-10-----------|-(10)-------(10)---------|
||o--------------|--------------|--------------|-----------------10------|
||---7-----------|-6------------|--7-----------|--(7)--------(7)---------|
||---------------|--------------|--------------|------------------7------|
||o--------------|--------------|--------------|-------------------------|
||---------------|--------------|--------------|-------------------------|


                         To Coda
                         To Coda
  G5                       A5           D5
   Q  Q  Q  E E    Q   E E Q  E  E       Q   Q  E E Q
|--------3----3-|--------3-------5---||-----------------|
|--------3--3-3-|--------3-------5--o||---------3-------|
|---------------|-------------2------||------2----2-----|
|-----0---------|------0-------------||--0----------0---|
|---------------|----------0--------o||-----------------|
|--3------------|--3-----------------||-----------------|
|
|  W               H       H             W
|---------------|--------------------||-----------------|
|---------------|-------------------o||-----------------|
|---------------|--------------------||-----------------|
|---------------|----------2---------||--7--------------|
|--5------------|--5-------0--------o||--5--------------|
|--3------------|--3-----------------||-----------------|
|
|  W               Q   E H      +E       H.         E E
|---------------|-10-----------------||-----------------|
|-12------------|-----10------------o||-----------------|
|---------------|--7-----7------(7)--||-11----------9-7-|
|--9------------|------7-------------||-----------------|
|---------------|--------5------(5)-o||--9----------7-5-|
|---------------|--------------------||-----------------|


  A/C#              E5
  Q   Q    Q  E E   Q  Q  Q  Q     W
|-----------------|----------0--|-^0-----||
|----------3----3-|-0-----3-----|-^3-----||
|-----2----2----2-|-------------|--------||
|-------------0---|-2--2--------|--------||
|-4---------------|-2-----------|--------||
|-----------------|-0-----------|--------||
|
| W                 W             +W
|-----------------|-------------|--------||
|-----------------|-------------|--------||
|-----------------|-------------|--------||
|-7---------------|-------------|--------||
|-4---------------|-2-----------|-(2)----||
|-----------------|-0-----------|-(0)----||
|
| Q.    Q.    Q     W             +W
|-----------------|-------------|--------||
|-----------------|-------------|--------||
|-6-----7-----9---|-------------|--------||
|-----------------|-9-----------|-(9)----||
|-4-----5-----7---|-------------|--------||
|-----------------|-7-----------|-(7)----||


 2nd Verse
  (F#madd11)       (Esus4)          (F#madd11)
  Gtr IV
   E E Q  E E Q     E E Q  E E Q     E E Q  E E Q     E  E Q  E E Q
|----------------|----------------|----------------|------------------|
|------0------0--|------0------0--|------0------0--|-------0------0---|
|----2------2----|----2------2----|----2------2----|-----2------2-----|
|--4------4------|--2------2------|--4------4------|--4-------4-------|
|----------------|----------------|----------------|------------------|
|----------------|----------------|----------------|------------------|
|
| Gtr VI
|  W                W                W               +W
|----------------|----------------|----------------|------------------|
|----------------|----------------|-^3-------------|-(3)--------------|
|-^2-------------|-^2-------------|-^4-------------|-(4)--------------|
|-^4-------------|-^2-------------|-^4-------------|-(4)--------------|
|-^0-------------|-^0-------------|-^2-------------|-(2)--------------|
|-^2-------------|-^0-------------|-^2-------------|-(2)--------------|
|
| Gtr V
|  W                W                W               +W
|----------------|----------------|----------------|------------------|
|----------------|----------------|----------------|------------------|
|----------------|----------------|----------------|------------------|
|--4-------------|--2-------------|--4-------------|-(4)--------------|
|----------------|----------------|----------------|------------------|
|----------------|----------------|----------------|------------------|


  (Gadd9)          (F#madd11)       (Esus4)
   E E Q  E E Q     E E Q  E E Q     E E Q  E E Q     E  E Q  E E Q
|----------------|----------------|----------------|------------------|
|------0------0--|------0------0--|------0------0--|-------0------0---|
|----2------2----|----2------2----|----2------2----|-----2------2-----|
|--5------5------|--4------4------|--2------2------|--2-------2-------|
|----------------|----------------|----------------|------------------|
|----------------|----------------|----------------|------------------|
|
|  W                W                W               +W
|----------------|----------------|----------------|------------------|
|----------------|----------------|-^3-------------|-(3)--------------|
|-^0-------------|-^2-------------|-^0-------------|-(0)--------------|
|-^0-------------|-^4-------------|-^2-------------|-(2)--------------|
|-^2-------------|-^0-------------|-^2-------------|-(2)--------------|
|-^3-------------|-^2-------------|-^0-------------|-(0)--------------|
|
|  W                W                W               +H       H
|----------------|----------------|----------------|------------------|
|----------------|----------------|----------------|------------------|
|----------------|----------------|----------------|----------7-------|
|--5-------------|--4-------------|----------------|------------------|
|----------------|----------------|--7-------------|-(7)--------------|
|----------------|----------------|----------------|------------------|


                                                         D.S. al Coda
  (F#madd11)        (Esus4)          (F#madd11)
   E  E Q  E E Q     E E Q  E E Q     E E Q  E E Q     E  E Q  E E Q
|-----------------|----------------|----------------|------------------||
|-------0------0--|------0------0--|------0------0--|-------0------0---||
|-----2------2----|----2------2----|----2------2----|-----2------2-----||
|--4-------4------|--2------2------|--4------4------|--4-------4-------||
|-----------------|----------------|----------------|------------------||
|-----------------|----------------|----------------|------------------||
|
|  W                 W                W               +W
|-----------------|----------------|----------------|------------------||
|-----------------|----------------|-^3-------------|-(3)--------------||
|-^2--------------|-^2-------------|-^4-------------|-(4)--------------||
|-^4--------------|-^2-------------|-^4-------------|-(4)--------------||
|-^0--------------|-^0-------------|-^2-------------|-(2)--------------||
|-^2--------------|-^0-------------|-^2-------------|-(2)--------------||
|
| +W                 W                W               +W
|-----------------|----------------|----------------|------------------||
|-----------------|--5-------------|----------------|------------------||
|-(7)-------------|----------------|--7-------------|-(7)--------------||
|-----------------|----------------|----------------|------------------||
|-----------------|----------------|----------------|------------------||
|-----------------|----------------|----------------|------------------||


                    Bridge
  &
  (D5)               C5                             G/B
  Gtr III
  Q  Q   E  E Q      Q  Q  Q  Q     Q   Q  E E Q     Q  Q  Q  Q
|----------------||--------0-----|---------0------|--------------|
|--------3-------||o----------1--|-----------1----|--------3-----|
|----2------2----||--------------|-------------0--|-----0-----0--|
|-0-----------0--||-----2--------|------2---------|--------------|
|----------------||o-3-----------|--3-------------|--2-----------|
|----------------||--------------|----------------|--------------|
|
| Gtr II
| W                  W             +W                W
|----------------||--------------|----------------|--------------|
|----------------||o-------------|----------------|--------------|
|-7--------------||--------------|----------------|--------------|
|-7--------------||--5-----------|-(5)------------|--5-----------|
|-5--------------||o-3-----------|-(3)------------|--2-----------|
|----------------||--------------|----------------|--------------|
|
| Gtr I
|        T
| H      H           W             +W                W
|-------14-------||--8-----------|-(8)------------|-10-----------|
|----------------||o-------------|----------------|--------------|
|-7-----(7)------||--5-----------|-(5)------------|--7-----------|
|----------------||--------------|----------------|--------------|
|-5-----(5)------||o-------------|----------------|--------------|
|----------------||--------------|----------------|--------------|


                    1.
  (G/B)              Bb5                                     A5
    Q   Q  E E E E    Q   Q    Q    Q        Q   Q  Q  E E   Q   Q  Q   Q
|----------3-3---x-|---------------------|---------------1-|-----------------|
|----------3-3---x-|---------------------|----------3----3-|--------1--------|
|-------0----------|-----------3---------|-------3-----3---|------------2----|
|------------------|------3---------3----|-----------------|-----2-----------|
|---2--------------|--1------------------|---1-------------|-0---------------|
|------------------|---------------------|-----------------|-----------------|
|
|  +W                 W                     +W               Q   Q  Q   Q
|------------------|---------------------|-----------------|-----------------|
|------------------|---------------------|-----------------|-----------------|
|------------------|---------------------|-----------------|-----------------|
|--(5)-------------|--3------------------|--(3)------------|-2---2--2---2----|
|--(2)-------------|--1------------------|--(1)------------|-0---0--0---0----|
|------------------|---------------------|-----------------|-----------------|
|
|  +W                 Q   E  Q    Q    E    +W               H.         E  E
|-(10)-------------|-10--12-13---12---10-|-(10)------------|-8---------17-19-|
|------------------|---------------------|-----------------|-----------------|
|--(7)-------------|--7---9-10----9----7-|--(7)------------|-5---------14-16-|
|------------------|---------------------|-----------------|-----------------|
|------------------|---------------------|-----------------|-----------------|
|------------------|---------------------|-----------------|-----------------|


                         2.
  (A5)                    D5
   Q   Q     E E  Q        Q   Q   E E Q
|----------------------||----------1------|
|------------1--------o||------------3----|
|--------------2-------||------2-------2--|
|------2----------2----||--0--------------|
|--0------------------o||-----------------|
|----------------------||-----------------|
|
|                              ~~~~~~~~~~~~
|  Q   Q     E E  E E      Q   H.
|----------------------||-----10----------|
|---------------------o||-----------------|
|----------------------||-----------------|
|--2---2-----2-2--2-2--||--7--------------|
|--0---0-----0-0--0-0-o||--5--------------|
|----------------------||-----------------|
|                          W
|
|  Q   E  E  Q    Q        W
|-20--19-17-15---17----||-13--------------|
|---------------------o||-----------------|
|-17--16-14-12---14----||-10--------------|
|----------------------||-----------------|
|---------------------o||-----------------|
|----------------------||-----------------|


                N.C.  A5
    Q   Q   E E Q      Q     Q     E  E  Q
|-----------1-------|-------------------------|
|-------------3-----|--------------1----------|
|-------2-------2---|-----------------2-------|
|---0---------------|--------2-----------2----|
|-------------------|--0----------------------|
|-------------------|-------------------------|
|
|~~~~~~                ~~
|  +W                  W
|-(10)--------------|-17----------------------|
|-------------------|-------------------------|
|-------------------|-------------------------|
|---7---7---7-------|--2-----2-----2-----2----|
|---5---5---5---5h7-|--0-----0-----0-----0----|
|-------------------|-------------------------|
|   Q   Q   Q   E E    Q     Q     Q     Q
|
|   H       H          E  E  E  E  E  E  E  E
|--15------13-------|-12-13-12-13-12-13-12-13-|
|-------------------|-------------------------|
|--12------10-------|--9-10--9-10--9-10--9-10-|
|-------------------|-------------------------|
|-------------------|-------------------------|
|-------------------|-------------------------|


  (A5)
    Q      Q     E  E  Q        Q         Q          E     E     Q
|---------------------------|----------------------------------------------|
|----------------1----------|------------------------1---------------------|
|-------------------2-------|------------------------------2---------------|
|----------2-----------2----|-------------2----------------------2---------|
|---0-----------------------|---0------------------------------------------|
|---------------------------|----------------------------------------------|
|
|   ~~~~                        ~~~~
|  +W                          +W
|-(17)----------------------|-(17)-----------------------------------------|
|---------------------------|----------------------------------------------|
|---------------------------|----------------------------------------------|
|---2------2-----2-----x--x-|---2---------x-----x----2-----------x----x----|
|---0------0-----0-----x--x-|---0---------x-----x----0-----------x----x----|
|---------------------------|----------------------------------------------|
|   Q      Q     Q     E  E     Q         E     E    Q           E    E
|
|   E   E  E  E  E  E  E  E     S   S  E  S  S  S  E    S  S  S  S  E    S
|--12--13-12-13-12-13-12-13-|---------------------10---------------10------|
|---------------------------|--10--12-14-10-12-14------12-14-12-14------14-|
|---9--10--9-10--9-10--9-10-|----------------------7----------------7------|
|---------------------------|---7---9-11--7--9-11-------9-11--9-11------11-|
|---------------------------|----------------------------------------------|
|---------------------------|----------------------------------------------|


             D.S.S. al Dbl. Coda
   Q        Q        E     E  Q
|---------------------------------------||
|--------------------1------------------||
|--------------------------2------------||
|-----------2-----------------2---------||
|--0------------------------------------||
|---------------------------------------||
|
|  Q        E     E  Q        Q
|---------------------------------------||
|---------------------------------------||
|---------------------------------------||
|--2--------x-----x--2--------2---------||
|--0--------x-----x--0--------0---------||
|---------------------------------------||
|
|  S  E  S  S  S  E  S  S  E  S   S  E
|-10-12----10-12-14----------12--14-17--||
|-------14----------14-15-17------------||
|--7--9-----7--9-11-----------9--11-14--||
|-------11----------11-12-14------------||
|---------------------------------------||
|---------------------------------------||


 Chorus Continued (Out)
  &&
  D5             A/C#           E5                                 N.C.
   Q  Q  Q  Q    Q  Q  Q  E E    Q  Q  Q  Q     +E  E E E   Q      E E
|--------------|--------------|-----------0--|--(0)---------------------|
|--------3-----|-------3------|--------3-----|------3-----^-3-----------|
|-----2-----2--|----2-----2---|--------------|--------2---^-2-----------|
|--0-----------|------------0-|-----2--------|----------0-^-0-----------|
|--------------|-4------------|--------------|--------------------------|
|--------------|--------------|--0-----------|---------------------0-2--|
|
|  W             W               W              +H.                E E
|--------------|--------------|--------------|--------------------------|
|--------------|--------------|--------------|--------------------------|
|--------------|--------------|--------------|--------------------------|
|--7-----------|-7------------|--------------|--------------------------|
|--5-----------|-4------------|--2-----------|--(2)---------------------|
|--------------|--------------|--0-----------|--(0)----------------0-2--|
|
|  W             W               W              +H         +E   Q.
|-10-----------|-9------------|-10-----------|-(10)-------(10)----------|
|--------------|--------------|--------------|-----------------10-------|
|--7-----------|-6------------|--7-----------|--(7)--------(7)----------|
|--------------|--------------|--------------|------------------7-------|
|--------------|--------------|--------------|--------------------------|
|--------------|--------------|--------------|--------------------------|


  G5                       A5         B5             C#5
   Q  Q  Q  E E    Q   E E Q  E  E     Q  Q  Q  Q     Q     Q   Q     Q
|--------3----3-|--------3-------5--|--------------|----------------------|
|--------3--3-3-|--------3-------5--|--------------|----------------------|
|---------------|-------------2-----|--------4-----|------------6---------|
|-----0---------|------0------------|-----4-----4--|--------6---------6---|
|---------------|----------0--------|--2-----------|--4-------------------|
|--3------------|--3----------------|--------------|----------------------|
|
|  W               H       H           W              W
|---------------|-------------------|--------------|----------------------|
|---------------|-------------------|--------------|----------------------|
|---------------|-------------------|--------------|----------------------|
|---------------|----------2--------|--4-----------|--6-------------------|
|--5------------|--5-------0--------|--2-----------|--4-------------------|
|--3------------|--3----------------|--------------|----------------------|
|
|  W               Q   E H      +E     W              E  E  Q   E  E  Q
|---------------|-10----------------|-10-----------|-14-15-17--14-15-17---|
|-12------------|-----10------------|--------------|----------------------|
|---------------|--7-----7------(7)-|--7-----------|-11-12-14--11-12-14---|
|--9------------|------7------------|--------------|----------------------|
|---------------|--------5------(5)-|--------------|----------------------|
|---------------|-------------------|--------------|----------------------|


  E5                               N.C.
   Q   Q   Q   Q    +E  E  E E  Q   E E
|--------------0--|-(0)-----------------|
|----------3------|-----3------^3-------|
|-----------------|--------2---^2-------|
|------2----------|----------0-^0-------|
|-----------------|---------------------|
|--0--------------|-----------------0-2-|
|
|  W                +H.             E E
|-----------------|---------------------|
|-----------------|---------------------|
|-----------------|---------------------|
|-----------------|---------------------|
|--2--------------|-(2)-----------------|
|--0--------------|-(0)-------------0-2-|
|
|  Q   Q   Q   Q     Q     Q    Q   Q
|-10------10------|-10---------10-------|
|-----10------10--|-------10-------10---|
|--7-------7------|--7----------7-------|
|------7-------7--|--------7--------7---|
|-----------------|---------------------|
|-----------------|---------------------|


  G5                             A5
   Q   Q   Q   E E    Q     E  E  Q   E E
|----------3-----3-|-----------3--------5--|
|----------3---3-3-|-----------3--------5--|
|------------------|------------------2----|
|------0-----------|--------0--------------|
|------------------|--------------0--------|
|--3---------------|--3--------------------|
|
|  W                  H           H
|------------------|-----------------------|
|------------------|-----------------------|
|------------------|-----------------------|
|------------------|--------------2--------|
|--5---------------|--5-----------0--------|
|--3---------------|--3--------------------|
|
|  Q   Q   Q   Q      E  E  E  E  Q   Q
|-10------10-------|----17-15-14-----------|
|-----10------10---|-10----------15--17----|
|--7-------7-------|----14-12-11-----------|
|------7-------7---|--7----------12--14----|
|------------------|-----------------------|
|------------------|-----------------------|


    D5             A/C#            E5                               N.C.
     Q  Q  Q  Q     Q  Q  Q  E E    Q  Q  Q  Q     +E   E  E  E  Q  E E
||---------------|---------------|-----------0--|--(0)------------------|
||o--------3-----|--------3------|--------3-----|-------3-------^3------|
||------2-----2--|-----2-----2---|--------------|----------2----^2------|
||---0-----------|-------------0-|-----2--------|-------------0-^0------|
||o--------------|--4------------|--------------|-----------------------|
||---------------|---------------|--0-----------|-------------------0-2-|
|
|    W              W               W              +H.              E E
||---------------|---------------|--------------|-----------------------|
||o--------------|---------------|--------------|-----------------------|
||---------------|---------------|--------------|-----------------------|
||---7-----------|--7------------|--------------|-----------------------|
||o--5-----------|--4------------|--2-----------|--(2)------------------|
||---------------|---------------|--0-----------|--(0)--------------0-2-|
|
|    W              W               W              +E   E  E  E  H
||--10-----------|-17------------|-15-----------|-(15)-15-14-12---------|
||o--------------|---------------|--------------|---------------10------|
||---7-----------|-14------------|-12-----------|-(12)-12-11--9---------|
||---------------|---------------|--------------|----------------7------|
||o--------------|---------------|--------------|-----------------------|
||---------------|---------------|--------------|-----------------------|


  G5                             A5
   Q   Q   Q   E E    Q     E  E  Q   E E  4x
|----------3-----3-|-----------3--------5--||
|----------3---3-3-|-----------3--------5-o||
|------------------|------------------2----||
|------0-----------|--------0--------------||
|------------------|--------------0-------o||
|--3---------------|--3--------------------||
|
|  W                  H           H        4x
|------------------|-----------------------||
|------------------|----------------------o||
|------------------|-----------------------||
|------------------|--------------2--------||
|--5---------------|--5-----------0-------o||
|--3---------------|--3--------------------||
|
|  Q   Q   Q   Q      E  E  E  E  Q   Q    4x
|-10------10-------|----17-15-14-----------||
|-----10------10---|-10----------15--17---o||
|--7-------7-------|----14-12-11-----------||
|------7-------7---|--7----------12--14----||
|------------------|----------------------o||
|------------------|-----------------------||



Duration Legend
---------------
W - whole; H - half; Q - quarter; E - 8th; S - 16th; T - 32nd; X - 64th; a - acciaccatura
+ - note tied to previous; . - note dotted; .. - note double dotted
Uncapitalized letters represent notes that are staccato (1/2 duration)
Irregular groupings are notated above the duration line
Duration letters will always appear directly above the note/fret number it represents the
duration for.  Duration letters with no fret number below them represent rests.  Multi-
bar rests are notated in the form Wxn, where n is the number of bars to rest for.  Low
melody durations appear below the staff

Tablature Legend
----------------
 h   - hammer-on
 p   - pull-off
 b   - bend
 pb  - pre-bend
 r   - bend release (if no number after the r, then release immediately)
 /\  - slide into or out of (from/to "nowhere")
 s   - legato slide
 S   - shift slide
 - natural harmonic
[n]  - artificial harmonic
n(n) - tapped harmonic
 ~   - vibrato
 tr  - trill
 T   - tap
 TP  - trem. picking
 PM  - palm muting
\n/  - tremolo bar dip; n = amount to dip
 \n  - tremolo bar down
 n/  - tremolo bar up
/n\  - tremolo bar inverted dip
 =   - hold bend; also acts as connecting device for hammers/pulls
 <> - volume swell (louder/softer)
 x   - on rhythm slash represents muted slash
 o   - on rhythm slash represents single note slash

Misc Legend
-----------
 |  - bar
||  - double bar
||o - repeat start
o|| - repeat end
*|  - double bar (ending)
 :  - bar (freetime)
 $  - Segno
 &  - Coda
Tempo markers -  = BPM(8/16=s8/s16), where s8 = swing 8ths, s16 = swing 16ths

comments
We did not receive enough feedback on this tab! Please rate:
print report bad tab
1 2 3 4 5
I want to post or [tab]
guest
You may want to rate the tab now too:
select rating
Please do not post tabs as comments. Select "correction" instead!