Oops, an error
Loading. Please wait.

Kings And Queens Tab

ver1
ver1

Whole song

Interactive

More versions @911Tabs.com
30,005 views 45 this week
2 commentsread comments
1 2 3 4 5
accurate
x 17
Autoscroll
+/-
esc
set tempo
stop
Contributor
Tabbers playing skills
advanced +
Hey! There's an official Ultimate Guitar app which is ideal
for learning songs when you're away from computer. Get the app
WARNING: You are trying to view
                                    content from Ultimate-Guitar.com
                                    in an unauthorized application,
                                    which is prohibited.

                                    Please use an official Ultimate
                                    Guitar Tabs application for iPhone,
                                    iPad or Android to access legitimate
                                    chords, guitar, bass, and drum tabs
                                    from Ultimate-Guitar.com database.

                                    Type "ultimate guitar tabs" in Apple
                                    App Store's or Android Market's
                                    search to find the application.
Band: Aerosmith
Song: Kings and Queens
Part: Rhythm and Lead guitars


Rhythm Guitar



     H        E  E  E  E     H.           E  E     H.           E  E   
E||-----------------------|---------------------|---------------------|
B||-----------------------|---------------------|---------------------|
G||-----------------5--6--|--L------------------|---------------6--5--|
D||--3--------L--3--5--6--|--L------------3--4--|--L------------6--5--|
A||--3--------L--3--3--4--|--L------------3--4--|--L------------4--3--|
E||--1--------L--1--------|---------------1--2--|--L------------------|


  Q.     E  H           H        E  E  E  E     H.           E  E   
---------------------|-----------------------|---------------------|
---------------------|-----------------------|---------------------|
--L------9--L--------|-----------------5--6--|--L------------------|
--L------9--L--------|--3--------L--3--5--6--|--L------------3--4--|
--L------7--L--------|--3--------L--3--3--4--|--L------------3--4--|
---------------------|--1--------L--1--------|---------------1--2--|


  H.           E  E     E  E  E  E  E  E  E  E     Q    E  E  E  E  E  E   
---------------------|--------------------------|-------------------------|
---------------------|--------------------------|-------------------------|
---------------------|--------------------------|-------------------------|
--L------------5--6--|--L--6--6--6--6--6--6--6--|--8----8--8--8--8--8--8--|
--L------------5--6--|--L--6--6--6--6--6--6--6--|--8----8--8--8--8--8--8--|
--L------------3--4--|--L--4--4--4--4--4--4--4--|--6----6--6--6--6--6--6--|


  E  E  E  E  E  E  E  E      Q     E   E   E   E   E   E   
--------------------------|--------------------------------|
--------------------------|--------------------------------|
--------------------------|--------------------------------|
--8--8--8--8--8--8--8--8--|--10----10--10--10--10--10--10--|
--8--8--8--8--8--8--8--8--|--10----10--10--10--10--10--10--|
--6--6--6--6--6--6--6--6--|---8-----8---8---8---8---8---8--|


                                                       <                       
   E   E   E   E   E   E   E   E                       W                       
----------------------------------|-----|-----|-----|-------------------|-----|
----------------------------------|-----|-----|-----|-------------------|-----|
----------------------------------|-----|-----|-----|--8----------------|-----|
--10--10--10--10--10--10--10--10--|-----|-----|-----|--8----------------|-----|
--10--10--10--10--10--10--10--10--|-----|-----|-----|--6----------------|-----|
---8---8---8---8---8---8---8---8--|-----|-----|-----|-------------------|-----|


                                      <                                         
                                      W                                         
-----|-----|-----|-----|-----|-----|-------------------|-----|-----|-----|-----|
-----|-----|-----|-----|-----|-----|-------------------|-----|-----|-----|-----|
-----|-----|-----|-----|-----|-----|--8----------------|-----|-----|-----|-----|
-----|-----|-----|-----|-----|-----|--8----------------|-----|-----|-----|-----|
-----|-----|-----|-----|-----|-----|--6----------------|-----|-----|-----|-----|
-----|-----|-----|-----|-----|-----|-------------------|-----|-----|-----|-----|


                                <                                   
                                W                                   
-----|-----|-----|-----|-----|-------------------|-----|-----|-----|
-----|-----|-----|-----|-----|-------------------|-----|-----|-----|
-----|-----|-----|-----|-----|--8----------------|-----|-----|-----|
-----|-----|-----|-----|-----|--8----------------|-----|-----|-----|
-----|-----|-----|-----|-----|--6----------------|-----|-----|-----|
-----|-----|-----|-----|-----|-------------------|-----|-----|-----|


  <                                     <                                   
  W                                     W                                   
-------------------|-----|-----|-----|-------------------|-----|-----|-----|
-------------------|-----|-----|-----|-------------------|-----|-----|-----|
--8----------------|-----|-----|-----|--8----------------|-----|-----|-----|
--8----------------|-----|-----|-----|--8----------------|-----|-----|-----|
--6----------------|-----|-----|-----|--6----------------|-----|-----|-----|
-------------------|-----|-----|-----|-------------------|-----|-----|-----|


                                                           |----3----|     
                    E  E  E  E  E  E  E  E     E  E  E  E  Q    Q    Q     
-----|-----|-----|--------------------------|-----------------------------|
-----|-----|-----|--------------------------|-----------------------------|
-----|-----|-----|--5--5--5--5--5--5--5--5--|--5--5--5--5--5----4---------|
-----|-----|-----|--5--5--5--5--5--5--5--5--|--5--5--5--5--5----4----6----|
-----|-----|-----|--3--3--3--3--3--3--3--3--|--3--3--3--3--3----2----6----|
-----|-----|-----|--------------------------|------------------------4----|


  H        E  E  E  E     H.           E  E     H.           E  E   
-----------------------|---------------------|---------------------|
-----------------------|---------------------|---------------------|
-----------------5--6--|--L------------------|---------------6--5--|
--3--------L--3--5--6--|--L------------3--4--|--L------------6--5--|
--3--------L--3--3--4--|--L------------3--4--|--L------------4--3--|
--1--------L--1--------|---------------1--2--|--L------------------|


  Q.     E  H           H        E  E  E  E     H.           E  E   
---------------------|-----------------------|---------------------|
---------------------|-----------------------|---------------------|
--L------9--L--------|-----------------5--6--|--L------------------|
--L------9--L--------|--3--------L--3--5--6--|--L------------3--4--|
--L------7--L--------|--3--------L--3--3--4--|--L------------3--4--|
---------------------|--1--------L--1--------|---------------1--2--|


  H.           E  E     E  E  E  E  E  E  E  E     Q    E  E  E  E  E  E   
---------------------|--------------------------|-------------------------|
---------------------|--------------------------|-------------------------|
---------------------|--------------------------|-------------------------|
--L------------5--6--|--L--6--6--6--6--6--6--6--|--8----8--8--8--8--8--8--|
--L------------5--6--|--L--6--6--6--6--6--6--6--|--8----8--8--8--8--8--8--|
--L------------3--4--|--L--4--4--4--4--4--4--4--|--6----6--6--6--6--6--6--|


  E  E  E  E  E  E  E  E      Q     E   E   E   E   E   E   
--------------------------|--------------------------------|
--------------------------|--------------------------------|
--------------------------|--------------------------------|
--8--8--8--8--8--8--8--8--|--10----10--10--10--10--10--10--|
--8--8--8--8--8--8--8--8--|--10----10--10--10--10--10--10--|
--6--6--6--6--6--6--6--6--|---8-----8---8---8---8---8---8--|


   E   E   E   E   E   E   E   E      W                   W                 
----------------------------------|--------------------|-------------------|
----------------------------------|--------------------|-------------------|
----------------------------------|--10----------------|--L----------------|
--10--10--10--10--10--10--10--10--|--10----------------|--L----------------|
--10--10--10--10--10--10--10--10--|---8----------------|--L----------------|
---8---8---8---8---8---8---8---8--|--------------------|-------------------|


  W                   W                   W                   W                 
-------------------|-------------------|-------------------|-------------------|
-------------------|-------------------|-------------------|-------------------|
-------------------|-------------------|-------------------|-------------------|
--8----------------|--L----------------|--5----------------|--6----------------|
--8----------------|--L----------------|--5----------------|--6----------------|
--6----------------|--L----------------|--3----------------|--4----------------|


   W                   W                    W                 
--------------------|-------------------|--------------------|
--------------------|-------------------|--------------------|
--10----------------|--L----------------|--10----------------|
--10----------------|--L----------------|--10----------------|
---8----------------|--L----------------|---8----------------|
--------------------|-------------------|--------------------|


  W                   W                   W                   W                 
-------------------|-------------------|-------------------|-------------------|
-------------------|-------------------|-------------------|-------------------|
--L----------------|-------------------|-------------------|-------------------|
--L----------------|--8----------------|--L----------------|--5----------------|
--L----------------|--8----------------|--L----------------|--5----------------|
-------------------|--6----------------|--L----------------|--3----------------|


  W                    Q    Q    E  Q.         Q    Q    E  Q.      
-------------------|-----------------------|-----------------------|
-------------------|-----------------------|-----------------------|
-------------------|--10------------8------|--10------------8------|
--6----------------|--10------------8------|--10------------8------|
--6----------------|---8------------8------|---8------------8------|
--4----------------|-----------------------|-----------------------|


                                     <                                     
   Q    Q    E  Q.         Q    Q    H           E  E   E  E   E  E  Q     
-----------------------|----------------------|---------------------------|
-----------------------|----------------------|---------------------------|
--10------------8------|--10---------8--------|---------------------------|
--10------------8------|--10---------8--------|--------10-----10----------|
---8------------8------|---8---------8--------|--8--8------8------8--L----|
-----------------------|----------------------|---------------------------|


  E  E   E  E   E  E  Q       E  E   E  E   E  E  Q     
---------------------------|---------------------------|
---------------------------|---------------------------|
---------------------------|---------------------------|
--------10-----10----------|--------10-----10----------|
--8--8------8------8--L----|--8--8------8------8--L----|
---------------------------|---------------------------|


  E  E   E  E   E  E  Q        Q    Q    E  Q.         Q    Q    E  Q.      
---------------------------|-----------------------|-----------------------|
---------------------------|-----------------------|-----------------------|
----------------------8----|--10------------8------|--10------------8------|
--------10-----10-----8----|--10------------8------|--10------------8------|
--8--8------8------8--8----|---8------------8------|---8------------8------|
---------------------------|-----------------------|-----------------------|


                                     <                                     
   Q    Q    E  Q.         Q    Q    H           E  E   E  E   E  E  Q     
-----------------------|----------------------|---------------------------|
-----------------------|----------------------|---------------------------|
--10------------8------|--10---------8--------|---------------------------|
--10------------8------|--10---------8--------|--------10-----10----------|
---8------------8------|---8---------8--------|--8--8------8------8--L----|
-----------------------|----------------------|---------------------------|


  E  E   E  E   E  E  Q       E  E   E  E   E  E  Q     
---------------------------|---------------------------|
---------------------------|---------------------------|
---------------------------|---------------------------|
--------10-----10----------|--------10-----10----------|
--8--8------8------8--L----|--8--8------8------8--L----|
---------------------------|---------------------------|


  E  E   E  E   E  E   Q        W                   W                 
----------------------------|--------------------|-------------------|
----------------------------|--------------------|-------------------|
----------------------------|--------------------|-------------------|
--------10-----10-----11----|--10----------------|--L----------------|
--8--8------8------8--11----|--10----------------|--L----------------|
-----------------------9----|---8----------------|--L----------------|


                                               |----3----|     
  H         E   E   E   E      E   E   E   E   Q    Q    Q     
---------------------------|----------------------------------|
---------------------------|----------------------------------|
---------------------------|----------------------------------|
--L--------10--10--10--10--|--10--10--10--10--10----9----6----|
--L--------10--10--10--10--|--10--10--10--10--10----9----6----|
--L---------8---8---8---8--|---8---8---8---8---8----7----4----|


  W                   W                                                         
-------------------|-------------------|-------------------|-------------------|
-------------------|-------------------|-------------------|-------------------|
-------------------|-------------------|-------------------|-------------------|
--3----------------|--L----------------|-------------------|-------------------|
--3----------------|--L----------------|-------------------|-------------------|
--1----------------|--L----------------|-------------------|-------------------|


-------------------|-------------------|-------------------|-------------------|
-------------------|-------------------|-------------------|-------------------|
-------------------|-------------------|-------------------|-------------------|
-------------------|-------------------|-------------------|-------------------|
-------------------|-------------------|-------------------|-------------------|
-------------------|-------------------|-------------------|-------------------|


-------------------|-------------------|-------------------|-------------------|
-------------------|-------------------|-------------------|-------------------|
-------------------|-------------------|-------------------|-------------------|
-------------------|-------------------|-------------------|-------------------|
-------------------|-------------------|-------------------|-------------------|
-------------------|-------------------|-------------------|-------------------|


-------------------|-------------------|-------------------|-------------------|
-------------------|-------------------|-------------------|-------------------|
-------------------|-------------------|-------------------|-------------------|
-------------------|-------------------|-------------------|-------------------|
-------------------|-------------------|-------------------|-------------------|
-------------------|-------------------|-------------------|-------------------|


-------------------|-------------------|-------------------|-------------------|
-------------------|-------------------|-------------------|-------------------|
-------------------|-------------------|-------------------|-------------------|
-------------------|-------------------|-------------------|-------------------|
-------------------|-------------------|-------------------|-------------------|
-------------------|-------------------|-------------------|-------------------|


-------------------|-------------------|-------------------|-------------------|
-------------------|-------------------|-------------------|-------------------|
-------------------|-------------------|-------------------|-------------------|
-------------------|-------------------|-------------------|-------------------|
-------------------|-------------------|-------------------|-------------------|
-------------------|-------------------|-------------------|-------------------|


-------------------|-------------------|-------------------|-------------------|
-------------------|-------------------|-------------------|-------------------|
-------------------|-------------------|-------------------|-------------------|
-------------------|-------------------|-------------------|-------------------|
-------------------|-------------------|-------------------|-------------------|
-------------------|-------------------|-------------------|-------------------|


                              Q    E  E  E  E  E  E     Q    E  E  E  E  E  E   
-------------------|-------|-------------------------|-------------------------|
-------------------|-------|-------------------------|-------------------------|
-------------------|-------|-------4-----3-----2-----|-------------------------|
-------------------|-------|-------------------------|-------6-----5-----4-----|
-------------------|-------|--3-------2-----1-----0--|-------------------------|
-------------------|-------|-------------------------|--8-------4-----3-----2--|


   Q    Q    E  Q.         Q    Q    E  Q.         Q    Q    E  Q.      
-----------------------|-----------------------|-----------------------|
-----------------------|-----------------------|-----------------------|
--10------------8------|--10------------8------|--10------------8------|
--10------------8------|--10------------8------|--10------------8------|
---8------------8------|---8------------8------|---8------------8------|
-----------------------|-----------------------|-----------------------|


                          palm mute next 4 bars                           
             <                                                            
   Q    Q    H            S                    S  E  E   S S  E  E  Q     
----------------------|--------------------------------------------------|
----------------------|--------------------------------------------------|
--10---------8--------|--------------------------------------------------|
--10---------8--------|--11----------------------11-----11---11----------|
---8---------8--------|--11----------------------11-----11---11----------|
----------------------|---9-----------------------9------9----9----------|


   S S  E  E   S S  E  E  Q        S S  E  E   S S  E  E  Q     
-------------------------------|-------------------------------|
-------------------------------|-------------------------------|
-------------------------------|-------------------------------|
--11---11-----11---11----------|--11---11-----11---11----------|
--11---11-----11---11----------|--11---11-----11---11----------|
---9----9------9----9----------|---9----9------9----9----------|


   S S  E  E   S S  E  E  Q        Q    Q    E  Q.         Q    Q    E  Q.      
-------------------------------|-----------------------|-----------------------|
-------------------------------|-----------------------|-----------------------|
--------------------------8----|--10------------8------|--10------------8------|
--11---11-----11---11-----8----|--10------------8------|--10------------8------|
--11---11-----11---11-----8----|---8------------8------|---8------------8------|
---9----9------9----9----------|-----------------------|-----------------------|


                                     <         
   Q    Q    E  Q.         Q    Q    H         
-----------------------|----------------------|
-----------------------|----------------------|
--10------------8------|--10---------8--------|
--10------------8------|--10---------8--------|
---8------------8------|---8---------8--------|
-----------------------|----------------------|


   palm mute next 4 bars                           
   S                    S  E  E   S S  E  E  Q     
--------------------------------------------------|
--------------------------------------------------|
--------------------------------------------------|
--11----------------------11-----11---11----------|
--11----------------------11-----11---11----------|
---9-----------------------9------9----9----------|


   S S  E  E   S S  E  E  Q        S S  E  E   S S  E  E  Q     
-------------------------------|-------------------------------|
-------------------------------|-------------------------------|
-------------------------------|-------------------------------|
--11---11-----11---11----------|--11---11-----11---11----------|
--11---11-----11---11----------|--11---11-----11---11----------|
---9----9------9----9----------|---9----9------9----9----------|


   S S  E  E   S S  E  E  Q        Q    Q    E  Q.         Q    Q    E  Q.      
-------------------------------|-----------------------|-----------------------|
-------------------------------|-----------------------|-----------------------|
--------------------------8----|--10------------8------|--10------------8------|
--11---11-----11---11-----8----|--10------------8------|--10------------8------|
--11---11-----11---11-----8----|---8------------8------|---8------------8------|
---9----9------9----9----------|-----------------------|-----------------------|


                                     <         
   Q    Q    E  Q.         Q    Q    H         
-----------------------|----------------------|
-----------------------|----------------------|
--10------------8------|--10---------8--------|
--10------------8------|--10---------8--------|
---8------------8------|---8---------8--------|
-----------------------|----------------------|


   palm mute next 4 bars                           
   S                    S  E  E   S S  E  E  Q     
--------------------------------------------------|
--------------------------------------------------|
--------------------------------------------------|
--11----------------------11-----11---11----------|
--11----------------------11-----11---11----------|
---9-----------------------9------9----9----------|


   S S  E  E   S S  E  E  Q        S S  E  E   S S  E  E  Q     
-------------------------------|-------------------------------|
-------------------------------|-------------------------------|
-------------------------------|-------------------------------|
--11---11-----11---11----------|--11---11-----11---11----------|
--11---11-----11---11----------|--11---11-----11---11----------|
---9----9------9----9----------|---9----9------9----9----------|


                                   (fade out)                
   S S  E  E   S S  E  E  Q        Q         Q    E  Q.      
-------------------------------|----------------------------|
-------------------------------|----------------------------|
--------------------------8----|--10-----------------8------|
--11---11-----11---11-----8----|--10-----------------8------|
--11---11-----11---11-----8----|---8-----------------8------|
---9----9------9----9----------|----------------------------|


                                                             <         
   Q    Q    E  Q.         Q    Q    E  Q.         Q    Q    H         
-----------------------|-----------------------|----------------------|
-----------------------|-----------------------|----------------------|
--10------------8------|--10------------8------|--10---------8--------|
--10------------8------|--10------------8------|--10---------8--------|
---8------------8------|---8------------8------|---8---------8--------|
-----------------------|-----------------------|----------------------|


   palm mute next 4 bars                           
   S                    S  E  E   S S  E  E  Q     
--------------------------------------------------|
--------------------------------------------------|
--------------------------------------------------|
--11----------------------11-----11---11----------|
--11----------------------11-----11---11----------|
---9-----------------------9------9----9----------|


   S S  E  E   S S  E  E  Q        S S  E  E   S S  E  E  Q     
-------------------------------|-------------------------------|
-------------------------------|-------------------------------|
-------------------------------|-------------------------------|
--11---11-----11---11----------|--11---11-----11---11----------|
--11---11-----11---11----------|--11---11-----11---11----------|
---9----9------9----9----------|---9----9------9----9----------|


   S S  E  E   S S  E  E  Q      
-------------------------------||
-------------------------------||
--------------------------8----||
--11---11-----11---11-----8----||
--11---11-----11---11-----8----||
---9----9------9----9----------||




Lead Guitar



     W                   W                   W                 
E||-------------------|-------------------|-------------------|
B||-------------------|-------------------|-------------------|
G||-------------------|-------------------|-------------------|
D||-------------------|-------------------|-------------------|
A||-------------------|-------------------|-------------------|
E||-------------------|-------------------|-------------------|


  W                   W                   W                   W                 
-------------------|-------------------|-------------------|-------------------|
-------------------|-------------------|-------------------|-------------------|
-------------------|-------------------|-------------------|-------------------|
-------------------|-------------------|-------------------|-------------------|
-------------------|-------------------|-------------------|-------------------|
-------------------|-------------------|-------------------|-------------------|


  W                   W                   W                   W                 
-------------------|-------------------|-------------------|-------------------|
-------------------|-------------------|-------------------|-------------------|
-------------------|-------------------|-------------------|-------------------|
-------------------|-------------------|-------------------|-------------------|
-------------------|-------------------|-------------------|-------------------|
-------------------|-------------------|-------------------|-------------------|


  W                   E  E  E  E  E  E  E  E     E  E  E  E  E  E  E  E   
-------------------|--------------------------|--------------------------|
-------------------|--6-----6--------4--------|--------6--------4--------|
-------------------|-----5--------5-----5-----|-----5--------5-----5-----|
-------------------|-----------3-----------3--|--3--------3-----------3--|
-------------------|--------------------------|--------------------------|
-------------------|--------------------------|--------------------------|


  E  E  E  E  E  E  E  E     E  E  E  E  E  E  E  E   
--------------------------|--------------------------|
--------6--------4--------|--------6--------4-----4--|
-----5--------5-----5-----|-----5--------5-----5-----|
--3--------3-----------3--|--3--------3--------------|
--------------------------|--------------------------|
--------------------------|--------------------------|


  E  E  E  E  E  E  E  E     E  E  E  E  E  E  E  E   
--------------------------|--------------------------|
--------6--------4--------|--------6--------4--------|
-----5--------5-----5-----|-----5--------5-----5-----|
--3--------3-----------3--|--3--------3-----------3--|
--------------------------|--------------------------|
--------------------------|--------------------------|


  E  E  E  E  E  E  E  E     E  E  E  E  E  E  E  E   
--------------------------|--------------------------|
--------6--------4--------|--------6-----------------|
-----5--------5-----5-----|-----5-----5-----5-----5--|
--3--------3-----------3--|--3-----------3-----3-----|
--------------------------|--------------------------|
--------------------------|--------------------------|


  E  E  E  E  E  E  E  E     E  E  E  E  E  E  E  E   
--------------------------|--------------------------|
--------6--------4--------|--------6--------4--------|
-----5--------5-----5-----|-----5--------5-----5-----|
--3--------3-----------3--|--3--------3-----------3--|
--------------------------|--------------------------|
--------------------------|--------------------------|


  E  E  E  E  E  E  E  E     E  E  E  E  E  E  E  E   
--------------------------|--------------------------|
--------6--------4--------|--------6--------4--------|
-----5--------5-----5-----|-----5--------5-----5-----|
--3--------3-----------3--|--3--------3-----------3--|
--------------------------|--------------------------|
--------------------------|--------------------------|


  E  E  E  E  E  E  E  E     E  E  E  E  E  E  E  E   
--------------------------|--------------------------|
--------6--------4--------|--------6--------4--------|
-----5--------5-----5-----|-----5--------5-----5-----|
--3--------3-----------3--|--3--------3-----------3--|
--------------------------|--------------------------|
--------------------------|--------------------------|


  E  E  E  E  E  E  E  E     E  E  E  E  E  E  E  E   
--------------------------|--------------------------|
--------6--------4--------|--------6--------4--------|
-----5--------5-----5-----|-----5--------5-----5-----|
--3--------3-----------3--|--3--------3-----------3--|
--------------------------|--------------------------|
--------------------------|--------------------------|


  E  E  E  E  E  E  E  E     E  E  E  E  E  E  E  E   
--------------------1-----|--------------------1-----|
--------1--------1-----1--|--------1--------1-----1--|
-----3-----3--------------|-----3-----3--------------|
--3-----------3-----------|--3-----------3-----------|
--------------------------|--------------------------|
--------------------------|--------------------------|


  E  E  E  E  E  E  E  E     E  E  E  E  E  E  E  E   
--------------------------|--------------------------|
--------6--------4--------|--------6--------4--------|
-----5--------5-----5-----|-----5--------5-----5-----|
--3--------3-----------3--|--3--------3-----------3--|
--------------------------|--------------------------|
--------------------------|--------------------------|


  E  E  E  E  E  E  E  E     E  E  E  E  E  E  E  E   
--------------------------|--------4-----3-----------|
--------6--------4--------|-----------6-----4-----4--|
-----5--------5-----5-----|-----5--------------5-----|
--3--------3-----------3--|--3-----------------------|
--------------------------|--------------------------|
--------------------------|--------------------------|


  E  E  E  E  E  E  E  E     E  E  E  E  E  E  E  E   
--------------------------|--------------------------|
--------6--------4--------|--------6--------4--------|
-----5--------5-----5-----|-----5--------5-----5-----|
--3--------3-----------3--|--3--------3-----------3--|
--------------------------|--------------------------|
--------------------------|--------------------------|


  E  E  E  E  E  E  E  E     E  E  E  E  E  E  E  E   
--------------------------|--------------------------|
--------6--------4--------|--------6--------4-----4--|
-----5--------5-----5-----|-----5--------5-----5-----|
--3--------3-----------3--|--3--------3--------------|
--------------------------|--------------------------|
--------------------------|--------------------------|


  E  E  E  E  E  E  E  E     E  E  E  E  E  E  E  E   
--------------------------|--------------------------|
--------6--------4--------|--------6--------4--------|
-----5--------5-----5-----|-----5--------5-----5-----|
--3--------3-----------3--|--3--------3-----------3--|
--------------------------|--------------------------|
--------------------------|--------------------------|


  E  E  E  E  E  E  E  E     E  E  E  E  E  E  E  E   
--------------------------|--------------------------|
--------6--------4--------|--6-----6-----4-----4-----|
-----5--------5-----5-----|-----5-----5-----5-----5--|
--3--------3-----------3--|--------------------------|
--------------------------|--------------------------|
--------------------------|--------------------------|


  E  E  E  E  E  E  E  E     E  E  E  E  E  E  E  E   
--------------------------|--------------------------|
--------6--------4--------|--------6-----------------|
-----5--------5-----5-----|-----5--------5-----5-----|
--3--------3-----------3--|--3--------3-----3-----3--|
--------------------------|--------------------------|
--------------------------|--------------------------|


  E  E  E  E  E  E  E  E     E  E  E  E  E  E  E  E   
--------------------------|--------------------------|
--------6--------4--------|--------6--------4--------|
-----5--------5-----5-----|-----5--------5-----5-----|
--3--------3-----------3--|--3--------3-----------3--|
--------------------------|--------------------------|
--------------------------|--------------------------|


  E  E  E  E  E  E  E  E     E  E  E  E  E  E  E  E     W                 
--------------------1-----|--------------------1-----|-------------------|
--------1--------1-----1--|--------1--------1-----1--|-------------------|
-----3-----3--------------|-----3-----3--------------|-------------------|
--3-----------3-----------|--3-----------3-----------|-------------------|
--------------------------|--------------------------|-------------------|
--------------------------|--------------------------|-------------------|


  W                    Q      Q      Q      Q      
-------------------|--13-----13-----13-----13-----|
-------------------|--16b----16b----16b----16b----|
-------------------|------------------------------|
-------------------|------------------------------|
-------------------|------------------------------|
-------------------|------------------------------|


   Q      Q      Q      Q         Q      Q      Q      Q      
--13-----13-----13-----13-----|--13-----13-----13-----13-----|
--16b----16b----16b----16b----|--16b----16b----16b----16b----|
------------------------------|------------------------------|
------------------------------|------------------------------|
------------------------------|------------------------------|
------------------------------|------------------------------|


   Q      Q      Q      Q         Q      Q      Q      Q      
--13-----13-----13-----13-----|--13-----13-----13-----13-----|
--16b----16b----16b----16b----|--16b----16b----16b----16b----|
------------------------------|------------------------------|
------------------------------|------------------------------|
------------------------------|------------------------------|
------------------------------|------------------------------|


   Q      Q      Q      Q         Q      Q      Q      Q      
--13-----13-----13-----13-----|--13-----13-----13-----13-----|
--16b----16b----16b----16b----|--16b----16b----16b----16b----|
------------------------------|------------------------------|
------------------------------|------------------------------|
------------------------------|------------------------------|
------------------------------|------------------------------|


   Q      Q      Q      Q         Q      Q      Q      Q      
--13-----13-----13-----13-----|--13-----13-----13-----13-----|
--16b----16b----16b----16b----|--16b----16b----16b----16b----|
------------------------------|------------------------------|
------------------------------|------------------------------|
------------------------------|------------------------------|
------------------------------|------------------------------|


   Q      Q      Q      Q         Q      Q      Q      Q      
--13-----13-----13-----13-----|--13-----13-----13-----13-----|
--16b----16b----16b----16b----|--16b----16b----16b----16b----|
------------------------------|------------------------------|
------------------------------|------------------------------|
------------------------------|------------------------------|
------------------------------|------------------------------|


   Q      Q      Q      Q                                                      
--13-----13-----13-----13-----|-------|-------|-------|-------|-------|-------|
--16b----16b----16b----16b----|-------|-------|-------|-------|-------|-------|
------------------------------|-------|-------|-------|-------|-------|-------|
------------------------------|-------|-------|-------|-------|-------|-------|
------------------------------|-------|-------|-------|-------|-------|-------|
------------------------------|-------|-------|-------|-------|-------|-------|


-------|-------|-------|-------|-------|-------|-------|-------|-------|-------|
-------|-------|-------|-------|-------|-------|-------|-------|-------|-------|
-------|-------|-------|-------|-------|-------|-------|-------|-------|-------|
-------|-------|-------|-------|-------|-------|-------|-------|-------|-------|
-------|-------|-------|-------|-------|-------|-------|-------|-------|-------|
-------|-------|-------|-------|-------|-------|-------|-------|-------|-------|


-------|-------|-------|-------|-------|-------|-------|-------|-------|-------|
-------|-------|-------|-------|-------|-------|-------|-------|-------|-------|
-------|-------|-------|-------|-------|-------|-------|-------|-------|-------|
-------|-------|-------|-------|-------|-------|-------|-------|-------|-------|
-------|-------|-------|-------|-------|-------|-------|-------|-------|-------|
-------|-------|-------|-------|-------|-------|-------|-------|-------|-------|


                  W                   E   E   E   E   E   E   E   E   
-------|-------|-------------------|---------------------------------|
-------|-------|-------------------|---------------------------------|
-------|-------|-------------------|---------------------------------|
-------|-------|-------------------|---------------------------------|
-------|-------|-------------------|---------11--13--11--13--11--13--|
-------|-------|-------------------|-----13--------------------------|


   Q      E   E   E   E   Q         Q.       E   E   Q.       
--------------------------------|----------------------------|
--------------------------------|----------------------------|
--------------------------------|-----------13--13--13~------|
--------------------------------|--13b-----------------------|
--13b----13--11--13--11--13b----|----------------------------|
--------------------------------|----------------------------|


                                                      |------3-----|     
  E   E   E    E   E   E   E   E       E   E    Q     Q      Q     Q     
-----16-------16--16--16--18--------|----------------11b----------------|
---------19b------------------19b~--|--L--19b~--L-----------13----11----|
--L---------------------------------|-----------------------------------|
------------------------------------|-----------------------------------|
------------------------------------|-----------------------------------|
------------------------------------|-----------------------------------|


   |---3---|                                                                  
   E    E  E   Q    H                                                         
-----------------------------|-------|-------|-------|-------|-------|-------|
--11br--L--9-----------------|-------|-------|-------|-------|-------|-------|
--------------10-------------|-------|-------|-------|-------|-------|-------|
-----------------------------|-------|-------|-------|-------|-------|-------|
-----------------------------|-------|-------|-------|-------|-------|-------|
-----------------------------|-------|-------|-------|-------|-------|-------|


                                           W                  
-------|-------|-------|-------|-------|--13~----------------|
-------|-------|-------|-------|-------|---------------------|
-------|-------|-------|-------|-------|---------------------|
-------|-------|-------|-------|-------|---------------------|
-------|-------|-------|-------|-------|---------------------|
-------|-------|-------|-------|-------|---------------------|


   H          Q      Q          H.           E  S S  
-----------------------------|----------------------|
--------------------11brb----|--L------------L--L-9-|
--12~--------13~-------------|----------------------|
-----------------------------|----------------------|
-----------------------------|----------------------|
-----------------------------|----------------------|


   H           E    E  Q         W                    H        Q       E   E   
------------------------------|--------------------|--------------------------|
-----------------------8br----|--8~----------------|--L--------8br------------|
--10S~--------(x)-------------|--------------------|------------------10------|
-------------------11---------|--------------------|----------------------10--|
------------------------------|--------------------|--------------------------|
------------------------------|--------------------|--------------------------|


  E    E     S S    E   Q.     E     E   E  E    E  E  E  E     E   
----------------------------------|--------------------------------|
-------------------------------8--|--9--------------8--9--L--------|
--8h--10--10g8---8g10~--L---------|-----10--8h--10-----------8g10--|
----------------------------------|--------------------------------|
----------------------------------|--------------------------------|
----------------------------------|--------------------------------|


               |----3----|                                     
     H         E   E     E   Q        H        E   E   E   E   
-----------------------------------|----------------------13--|
---------------8h--9---------------|------------------13------|
--8g10~---------------8g10--10~----|--L-----------10----------|
-----------------------------------|--------------------------|
-----------------------------------|--------------------------|
-----------------------------------|--------------------------|


                              |---3---|                             
   E    E    H.               E   E   E   Q      E    S  S  E   E   
--11b--11b~--L------------|----------------------------------------|
--------------------------|--13------------------------------------|
--------------------------|------10--13----------------------------|
--------------------------|--------------13b----13~--10------------|
--------------------------|-----------------------------13-11------|
--------------------------|------------------------------------13--|


                                     |--3--|                                 
   Q       E   E   E    S  S  S  S   S  S  S     H           E   E   E   E   
---------------------------------------------|------------------------------|
--------------11-----------------------------|----------------------11b--9--|
----------13------12b--12-10-13-12br-L-10----|--------------10--13----------|
--13b~------------------------------------10-|--13b~------------------------|
---------------------------------------------|------------------------------|
---------------------------------------------|------------------------------|


   Q.        S S  E    E    E   S  S     H         E   E   E   E   
-------------------------------------|------------------------13--|
--11brb------9---11b--11br--9--------|--------------------13------|
-------------------------------10----|--10~-----------13----------|
----------------------------------10-|----------------------------|
-------------------------------------|----------------------------|
-------------------------------------|----------------------------|


                   |---3---|   |---3---|   
   E    E    Q     E   E   E   E   E   E   
--11b--11b~--L----------------------------|
------------------13--12--11--------------|
------------------------------13--10------|
--------------------------------------13--|
------------------------------------------|
------------------------------------------|


   |---3---|                                                            
   E   E   E   E   E  E      S  S  E.   S     H            E   Q.       
------------------------------------------|----------------------------|
------------------------------------------|---------------16-----------|
-------------------------13g10-12-13---13-|--15brb------------15b------|
--10--------------------------------------|----------------------------|
------13--11--13--13--L-------------------|----------------------------|
------------------------------------------|----------------------------|


   E   E     E   E   E    E   E   E      W                                    
-----------------------------13------|-----------------------|-------|-------|
--16---------------------13------13--|--16brb----------------|-------|-------|
------15br--13------15b--------------|-----------------------|-------|-------|
----------------15-------------------|-----------------------|-------|-------|
-------------------------------------|-----------------------|-------|-------|
-------------------------------------|-----------------------|-------|-------|


-------|-------|-------|-------|-------|-------|-------|-------|-------|-------|
-------|-------|-------|-------|-------|-------|-------|-------|-------|-------|
-------|-------|-------|-------|-------|-------|-------|-------|-------|-------|
-------|-------|-------|-------|-------|-------|-------|-------|-------|-------|
-------|-------|-------|-------|-------|-------|-------|-------|-------|-------|
-------|-------|-------|-------|-------|-------|-------|-------|-------|-------|


-------|-------|-------|-------|-------|-------|-------|-------|-------|-------|
-------|-------|-------|-------|-------|-------|-------|-------|-------|-------|
-------|-------|-------|-------|-------|-------|-------|-------|-------|-------|
-------|-------|-------|-------|-------|-------|-------|-------|-------|-------|
-------|-------|-------|-------|-------|-------|-------|-------|-------|-------|
-------|-------|-------|-------|-------|-------|-------|-------|-------|-------|


-------|-------|-------|-------|-------|-------|-------|-------|-------||
-------|-------|-------|-------|-------|-------|-------|-------|-------||
-------|-------|-------|-------|-------|-------|-------|-------|-------||
-------|-------|-------|-------|-------|-------|-------|-------|-------||
-------|-------|-------|-------|-------|-------|-------|-------|-------||
-------|-------|-------|-------|-------|-------|-------|-------|-------||



Duration Legend
---------------
W - whole
H - half
Q - quarter
E - 8th
S - 16th
T - 32nd
X - 64th
. - note dotted
|-n-|  - n-tuplets


Tablature Legend
----------------
L - tied note
x - dead note
g - grace note
(n) - ghost note
> - accentuded note
NH - natural harmonic
AH - artificial harmonic
TH - tapped harmonic
SH - semi harmonic
PH - pitch harmonic
h - hammer on
p - pull off
b - bend
br - bendRelease
pb - preBend
pbr - preBendRelease
brb - bendReleaseBend
\n/ - tremolo bar dip
\n - tremolo bar dive
-/n - tremolo bar Release up
/n\ - tremolo bar inverted dip
/n - tremolo bar return
-\n - tremolo bar Release down
S - shift slide
s - legato slide
/ -  slide into from below or out of upwards
\ -  slide into from above or out of downwards
~ - vibrato
W - wide vibrato
tr - trill
TP - tremolo picking
T - tapping
S - slap
P - pop
< - fade in
^ - brush up
v - brush down
comments
print report bad tab
2 comments total.
0 reply
Fredric Chopin wrote on March 28 2009, 10:22 pm

for one, whats "L" as power courds, deffinitlly note tied notes? and for two, this is really only the rhythm. good on rythm but seriously, make a coment next time!

0 reply
BCarey2293 wrote on June 22 2009, 02:52 pm

Actually all of the lead guitar as at the bottom. This tab is damn near perfect. For future readers ALL of the lead guitar stuff even the sitar is on the second half of the page. You'll notice that all of the solos are there and all the lead parts. Since the song is so long he probably split it into 2 parts to make it easier to read.

I want to post or [tab]
guest
You may want to rate the tab now too:
select rating
Please do not post tabs as comments. Select "correction" instead!