Oops, an error
Loading. Please wait.

Mama Kin Tab

ver2
ver2

Whole song

More versions @911Tabs.com
98,021 views 216 this week
6 commentsread comments
1 2 3 4 5
excellent!
x 21
Autoscroll
+/-
esc
set tempo
stop
Contributor
WARNING: You are trying to view
                                    content from Ultimate-Guitar.com
                                    in an unauthorized application,
                                    which is prohibited.

                                    Please use an official Ultimate
                                    Guitar Tabs application for iPhone,
                                    iPad or Android to access legitimate
                                    chords, guitar, bass, and drum tabs
                                    from Ultimate-Guitar.com database.

                                    Type "ultimate guitar tabs" in Apple
                                    App Store's or Android Market's
                                    search to find the application.
MAMA KIN
As recorded by Aerosmith
(From the 1973 Album AEROSMITH)


Transcribed by Paul Bell

 Words and Music by Steven Tyler

 

Gtr I (E A D G B E) - 'Joe Perry - overdrive electric'
Gtr II (E A D G B E) - 'Brad Whitford - overdrive electric'


 Intro
  Q=156
 4/4
  Gtr I
                                                   PM      PM------------|
  Q  E E E E E E   +E  E E E E E E E   +E  E E E E E E E   E E E E E E E E
|----------------|-------------------|-------------------|------------------|
|----------------|-------------------|-------------------|------------------|
|-9--9---7-9---4-|-(4)-4-4---2-4-----|-----------2---2---|------------------|
|-9--9---7-9---4-|-(4)-4-4---2-4-0-2-|-(2)-2-5-2-2-2-2---|------------------|
|-7--7-x-7-7---2-|-(2)-2-2---2-2-0-0-|-(0)-0-0-0-0-0-0-0-|-2-2-4-2-5-2-4-2--|
|----------------|-------------------|-----------------0-|-0-0-0-0-0-0-0-0--|


  Gtr I
  Q    E E E E E E   +E   E E E E E E E
|------------------|--------------------|
|------------------|--------------------|
|-9----9---7-9---4-|-(4)--4-4---2-4-----|
|-9----9---7-9---4-|-(4)--4-4---2-4-0-2-|
|-7----7-x-7-7---2-|-(2)--2-2---2-2-0-0-|
|------------------|--------------------|
|
| Gtr II
| H..            E   +H..             E
|------------------|--------------------|
|------------------|--------------------|
|-9--------------4-|-(4)--------------2-|
|-9--------------4-|-(4)--------------2-|
|-7--------------2-|-(2)--------------0-|
|------------------|--------------------|


               PM       PM-------------|
  +E   E E E E E E E    E  E E E E E E E
|--------------------|--------------------|
|--------------------|--------------------|
|------------2---2---|--------------------|
|-(2)--2-5-2-2-2-2---|--------------------|
|-(0)--0-0-0-0-0-0-0-|--2--2-4-2-5-2-4-2--|
|------------------0-|--0--0-0-0-0-0-0-0--|
|
|                          PM----------|
| +H..             E   +E  E E E E E E E
|--------------------|--------------------|
|--------------------|--------------------|
|-(2)----------------|--------------------|
|-(2)----------------|--------------------|
|-(0)--------------2-|-(2)-2-4-2-5-2-4-2--|
|------------------0-|-(0)-0-0-0-0-0-0-0--|


                                                   PM       PM-------------|
  Q  E E E E E E   +E  E E E E E E E   +E  E E E E E E E    E  E E E E E E E
|----------------|-------------------|-------------------|--------------------|
|----------------|-------------------|-------------------|--------------------|
|-9--9---7-9---4-|-(4)-4-4---2-4-----|-----------2---2---|--------------------|
|-9--9---7-9---4-|-(4)-4-4---2-4-0-2-|-(2)-2-5-2-2-2-2---|--------------------|
|-7--7-x-7-7---2-|-(2)-2-2---2-2-0-0-|-(0)-0-0-0-0-0-0-0-|--2--2-4-2-5-2-4-2--|
|----------------|-------------------|-----------------0-|--0--0-0-0-0-0-0-0--|
|
|      PM                  PM                                  PM----------|
| Q  E E E E E E   +E  E E E E E E E   +E  E E E E E E E   +E  E E E E E E E
|----------------|-------------------|-------------------|--------------------|
|----------------|-------------------|-------------------|--------------------|
|-9--9---7-9---4-|-(4)-4-4---2-4-----|-------------------|--------------------|
|-9--9---7-9-0-4-|-(4)-4-4---2-4-0-2-|-(2)-2-4p2-5p2-4---|--------------------|
|-7--7-7-7-7-0-2-|-(2)-2-2-2-2-2-0-0-|-(0)-0-0---0---0-2-|-(2)-2-4-2-5-2-4-2--|
|----------------|-------------------|-----------------0-|-(0)-0-0-0-0-0-0-0--|


                                                   PM
  Q  E E E E E E   +E  E E E E E E E   +E  E E E E E E E
|----------------|-------------------|-------------------|
|----------------|-------------------|-------------------|
|-9--9---7-9---4-|-(4)-4-4---2-4-----|-----------2---2---|
|-9--9---7-9---4-|-(4)-4-4---2-4-0-2-|-(2)-2-5-2-2-2-2---|
|-7--7-x-7-7---2-|-(2)-2-2---2-2-0-0-|-(0)-0-0-0-0-0-0-0-|
|----------------|-------------------|-----------------0-|
|
|      PM                  PM
| Q  E E E E E E   +E  E E E E E E E   +E  E E E E E E E
|----------------|-------------------|-------------------|
|----------------|-------------------|-------------------|
|-9--9---7-9---4-|-(4)-4-4---2-4-----|-------------------|
|-9--9---7-9-0-4-|-(4)-4-4---2-4-0-2-|-(2)-2-4p2-5p2-4---|
|-7--7-7-7-7-0-2-|-(2)-2-2-2-2-2-0-0-|-(0)-0-0---0---0-2-|
|----------------|-------------------|-----------------0-|


  PM----------------|           TP
  E E E S S S S E E E    E  S S H.
|---------------------|----------------------||
|---------------------|----------------------||
|---------------------|----------------------||
|---------------------|----------------------||
|-2-2-4-2---------4-2-|--2------2/-----------||
|-0-0-0-0-0-0-0-0-0-0-|--0--0-0-0/-----------||
|
|   PM------------|
| E E E E   E   E E E   +E  E   E  E E E E E
|---------------------|----------------------||
|---------------------|----------------------||
|---------------------|----------------------||
|---------------------|----------------------||
|---2-4-2---5---2-4-2-|-(2)-2----------------||
|---0-0-0---0---0-0-0-|-(0)-0---2--2-3-3-4-4-||


 Guitar Solo
  E  Q        +E   E  E  E  E    E   Q    E  +E   E  E  E
|---14pb15r==(14)-------------|---------------------------|
|-----------------------12-11-|---------------------------|
|-----------------12p11-------|-14--12--------------12----|
|-----------------------------|----------14-(14)-14----14-|
|-----------------------------|---------------------------|
|-----------------------------|---------------------------|
|
|                                    PM----------------|
| E  E     E   E   E  E  E  E   +E   E E  E   E   E  E  E
|-----------------------------|---------------------------|
|-----------------------------|---------------------------|
|-----------------------------|---------------------------|
|-2--2-----4p==2---5p=2--4----|---------------------------|
|-0--0-----0-------0-----0--2-|-(2)--2-4--2---5---2--4--2-|
|---------------------------0-|-(0)--0-0--0---0---0--0--0-|


   E.   S  E.  S  Q       E      +E
|------------------------------------|
|---------12-----14b15---14pb15r(14)-|
|-14----x------x---------------------|
|------------------------------------|
|------------------------------------|
|------------------------------------|
|
|  E  E    E E    E    E  E       E
|------------------------------------|
|------------------------------------|
|------------------------------------|
|--2--2----4p2----5p===2--4----------|
|--0--0----0------0-------0-------2--|
|---------------------------------0--|


   e   S  S S  S  S  S  S  S  S  S  S  S  S  S    S  S  S  S  S  S  S  S  E  Q    E
|----------------------------------------------|-------------------------------------|
|-12-----14------14p12----14p12----14p12----14p|=12----14p12----14p12----14-12-------|
|--------12------12-------12-------12-------12-|-------12-------12---------------12--|
|-----14------14-------14-------14-------14----|----14-------14-------14-------------|
|----------------------------------------------|-------------------------------------|
|----------------------------------------------|-------------------------------------|
|
|      PM--------------------------------|              PM
| +E   E    E     E     E     E     E     E       E     E     E     E     E  E E  E
|----------------------------------------------|-------------------------------------|
|----------------------------------------------|-------------------------------------|
|----------------------------------------------|-------------------------------------|
|----------------------------------------------|-------------------------------------|
|-(2)--2----4-----2-----5-----2-----4-----2----|--------2-----4p====2-----5p=2-4p=2--|
|-(0)--0----0-----0-----0-----0-----0-----0----|--------0-----0-----------0----0-----|


                      |--3--|
   Q        +E  E  E  S  S  S  E  E    E   E  E  E  +E   Q    E
|-14pb15r==(14)12-------------------|----------------------------|
|-----------------15-14h15p14-12----|-----------12-(12)-12-------|
|--------------------------------12p|=11---------------------12\-|
|-----------------------------------|-----14-12------------------|
|-----------------------------------|----------------------------|
|-----------------------------------|----------------------------|
|
|                                          PM----------------|
|  E     E   E  E  E  E        E  E   +E   E  E  E   E   E E  E
|-----------------------------------|----------------------------|
|-----------------------------------|----------------------------|
|-----------------------------------|----------------------------|
|--2-----2---4p=2--5p=2--------4----|----------------------------|
|--0-----0---0-----0-----------0--2-|-(2)--2--4--2---5---2-4--2--|
|---------------------------------0-|-(0)--0--0--0---0---0-0--0--|


  E Q      +E  E E E E   Q.     S S S S S S Q
|---4pb5r==(4)-2-------|-------------------------|
|----------------4-2---|-------------------------|
|--------------------2-|-1------1h2p1h2p1h2p1/---|
|----------------------|-------------------------|
|----------------------|-------------------------|
|----------------------|-------------------------|
|
| E E    E  E  E E E E   E  E E E   E   E   E  E
|----------------------|-------------------------|
|----------------------|-------------------------|
|-2-2----2--2--2-2-2-2-|-2--2-2-2---2---2---2--2-|
|-4-4----4--4--4-4-4-4-|-4--4-4-4---4---4---4--4-|
|-4-4----4--4--4-4-4-4-|-4--4-4-4---4---4---4--4-|
|-2-2----2--2--2-2-2-2-|-2--2-2-2---2---2---2--2-|


  E E  Q       E E  E E       E  E  E E     +E  +E   E S  S
|---7--9b10----------------|--------------------------------|
|-x------------7-----------|---------------------------7h10p|
|----------------7--7-9b10-|-----9----9b10==(9)r(9)--7------|
|--------------------------|--------------------------------|
|--------------------------|--------------------------------|
|--------------------------|--------------------------------|
|
| E E  E    E  E E  E E      +E  E  E E      E   E   E E
|--------------------------|--------------------------------|
|--------------------------|--------------------------------|
|--------------------------|--------------------------------|
|--------------------------|--------------------------------|
|-9-9-11p===9-12p9-11-9----|-(9)-9-11-9-----12---9--11------|
|-7-7--7-------7----7-7----|-(7)-9--9-9------9---9---9-0----|


  E E E E E    S S E E       +E   E e E     +Q.    E
|--------------------------|--------------------------||
|-7---7--------------------|--------------------------||
|---9---7-9b10-x-x-x-9b10==|=(9)r-x-9-9b11==(9)r------||
|--------------------------|--------------------------||
|--------------------------|--------------------------||
|--------------------------|--------------------------||
|
| E E E E E    E   E E        E   E Q        H
|--------------------------|--------------------------||
|--------------------------|--------------------------||
|--------------------------|--------------------------||
|--------------------------|--------------------------||
|-5-5-6-6-7----7---8-8-----|--9-----------------------||
|-3-3-4-4-5----5---6-6-----|--7-----------------------||


  Gtr I
       PM                  PM    PM                        PM--------------|
  Q  E E E E E E   +E  E E E E E E E   +E  E E E E E E E   E E E E E E S S E
|----------------|-------------------|-------------------|-------------------|
|----------------|-------------------|-------------------|-------------------|
|-9--9-7-7-9---4-|-(4)-4-4---2-4---2-|-(2)-------2-------|-------------------|
|-9--9-7-7-9-9-4-|-(4)-4-4---2-4---2-|-(2)-2-4-2-2---2---|-------------------|
|-7--7-7-7-7---2-|-(2)-2-2-2-2-2-0-0-|-(0)-0-0-0-0-0-0-0-|-2-2-4-2-5-2-4-4-2-|
|----------------|-------------------|-----------------0-|-0-0-0-0-0-0-0-0-0-|


  Gtr I
                                                                PM--------|
  Q    Q  E Q  E   +E   E E E E E E E   +E  E E E E E E E    E  E E E E E E E
|----------------|--------------------|-------------------|--------------------|
|----------------|--------------------|-------------------|--------------------|
|-9----9--7-9--4-|-(4)--4-4-4-2-4---2-|-(2)-------2-------|--------------------|
|-9----9--7-9--4-|-(4)--4-4-4-2-4---2-|-(2)-2-4-2-2---2---|-----------------2--|
|-7----7--7-7--2-|-(2)--2-2-2-2-2-0-0-|-(0)-0-0-0-0-0-0-2-|-----2-4-2-5-2-4-2--|
|----------------|--------------------|-----------------0-|-----0-0-0-0-0------|
|
| Gtr II
|                                                   PM          PM--------|
| H..          E   +H..             E   +Q    Q   E E E E   +E  E E E E E E E
|----------------|--------------------|-------------------|--------------------|
|----------------|--------------------|-------------------|--------------------|
|-9------------4-|-(4)--------------2-|-(2)---2---2---2---|--------------------|
|-9------------4-|-(4)--------------2-|-(2)---2---2---2---|--------------------|
|-7------------2-|-(2)--------------0-|-(0)---0---0-0-0-2-|-(2)-2-4-2-5-2-4-2--|
|----------------|--------------------|-----------------0-|-(0)-0-0-0-0-0-0-0--|


   Q    Q      +e   Q.        Q     E E    +E   E E   E
|--------------------------|----------------------------|
|--------------------------|----------------------------|
|--------------------------|----------------------------|
|--2----4b5====(4)r-2------|--4b5-----4b5==(4)r---4b5---|
|--2-----------------------|----------------------------|
|--------------------------|----------------------------|
|
|     PM---------------|          PM--------------|
|  E  E E    E  E   E  E E   +E   E E E     E   E E   E
|--------------------------|----------------------------|
|--------------------------|----------------------------|
|--------------------------|----------------------------|
|--------------------------|----------------------------|
|-(2)-2-4----2--5---2--4-2-|-(2)--2-4-2-----5---2-4---2-|
|-(0)-0-0----0--0---0--0-0-|-(0)--0-0-0-----0---0-0---0-|


   E  e      e e e  S S Q
|----------------------------||
|----------------------------||
|----------------------------||
|-----4b4.5==4-4-4r-4p2-4/---||
|----------------------------||
|----------------------------||
|
|     PM----------------|
| +E  E      E E E  E   E  E
|----------------------------||
|----------------------------||
|----------------------------||
|----------------------------||
|-(2)-2------4-2-5--2---4--2-||
|-(0)-0------0-0-0--0---0--0-||


 Verse 1
        PM|             PM  PM|   PM        PM--------|
  Q   E E E E E E   +E  E E E E E E E   +E  E E E E E E E
|-----------------|-------------------|-------------------|
|-----------------|-------------------|-------------------|
|-9---9-----9---4-|-(4)---4-----4---2-|-(2)---------------|
|-9---9---7-9---4-|-(4)-4-4---2-4---2-|-(2)-2-4-2-2-4-2---|
|-7---7-7-7-7-7S2-|-(2)-2-2-2-2-2-0-0-|-(0)-0-0-0-0-0-0-2-|
|-----------------|-------------------|-----------------0-|
|
| E E Q   H          W                   H        Q   E E
|-----------------|-------------------|-------------------|
|-----------------|-------------------|-------------------|
|-----------------|-------------------|-------------------|
|-2---------------|-------------------|-----------------2-|
|-2---------------|-------------------|-----------------2-|
|-0---------------|-------------------|-----------------0-|


                                                  PM|
   E  E E E E E E E   +E  E E E E E S S E   Q   E E E E E E
|-------------------|---------------------|-----------------|
|-------------------|---------------------|-----------------|
|-------------------|---------------------|-9---9-----9---4-|
|-----------------2-|-(2)-----------------|-9---9---7-9---4-|
|-----2-4-2-5-2-4-2-|-(2)-2-4-2-5-2-4-4-2-|-7---7-7-7-7-7S2-|
|-----0-0-0-0-0-0-0-|-(0)-0-0-0-0-0-0-0-0-|-----------------|
|
|     PM--------|         PM------------|
| +E  E E E E E E E   +E  E E E E E E   E   E E Q   H
|-------------------|---------------------|-----------------|
|-------------------|---------------------|-----------------|
|-------------------|---------------------|-----------------|
|-(2)-------------2-|-(2)-----------------|-2---------------|
|-(2)-2-4-2-5-2-4-2-|-(2)-2-4-2-5-2-4---2-|-2---------------|
|-(0)-0-0-0-0-0-0-0-|-(0)-0-0-0-0-0-0---0-|-0---------------|


            PM  PM        PM--------|
  +E  E E E E E E E   +E  E E E E E E E
|-------------------|-------------------|
|-------------------|-------------------|
|-(4)---4p2---4---2-|-(2)---------------|
|-(4)-4-4p2-2-4---2-|-(2)-2-4-2-2-4-2---|
|-(2)-2-2---2-2-0-0-|-(0)-0-0-0-0-0-0-2-|
|-------------------|-----------------0-|
|
|  W                   H        Q   E E
|-------------------|-------------------|
|-------------------|-------------------|
|-------------------|-------------------|
|-------------------|-----------------2-|
|-------------------|-----------------2-|
|-------------------|-----------------0-|


  +E  E E E E E E E   +E  E E E E E S S E
|-------------------|---------------------|
|-------------------|---------------------|
|-------------------|---------------------|
|-----------------2-|-(2)-----------------|
|-(2)-2-4-2-5-2-4-2-|-(2)-2-4-2-5-2-4-4-2-|
|-(0)-0-0-0-0-0-0-0-|-(0)-0-0-0-0-0-0-0-0-|
|
|     PM--------|         PM------------|
| +E  E E E E E E E   +E  E E E E E E   E
|-------------------|---------------------|
|-------------------|---------------------|
|-------------------|---------------------|
|-(2)-------------2-|-(2)-----------------|
|-(2)-2-4-2-5-2-4-2-|-(2)-2-4-2-5-2-4---2-|
|-(0)-0-0-0-0-0-0-0-|-(0)-0-0-0-0-0-0---0-|


        PM|             PM  PM|   PM        PM  PM      PM
  Q   E E E E E E   +E  E E E E E E E   +E  E E E E E E E
|-----------------|-------------------|-------------------|
|-----------------|-------------------|-------------------|
|-9---9-----9---4-|-(4)---4-----4---2-|-(2)---------------|
|-9---9---7-9---4-|-(4)-4-4---2-4---2-|-(2)-2-5-2-5p2-5---|
|-7---7-7-7-7-7S2-|-(2)-2-2-2-2-2-0-0-|-(0)-0-0-0-0---0---|
|-----------------|-------------------|-----------------0-|
|
| E E Q   H          W                   H        Q   E E
|-----------------|-------------------|-------------------|
|-----------------|-------------------|-------------------|
|-----------------|-------------------|-------------------|
|-2---------------|-------------------|-----------------2-|
|-2---------------|-------------------|-----------------2-|
|-0---------------|-------------------|-----------------0-|


   PM-----------|         PM--------|
   E  E E E E E E E    E  E E E E E E  E
|-------------------|--------------------|
|-------------------|--------------------|
|-------------------|--------------------|
|-------------------|--------------------|
|--2--2-4-2-5-2-4-2-|-----2-4-2-5-2-4/---|
|--0--0-0-0-0-0-0-0-|-----0-0-0-0-0-0----|
|
|     PM--------|         PM-----------|
| +E  E E E E E E E   +E  E E E E E E  E
|-------------------|--------------------|
|-------------------|--------------------|
|-------------------|--------------------|
|-(2)-------------2-|-(2)----------------|
|-(2)-2-4-2-5-2-4-2-|-(2)-2-4-2-5-2-4--2-|
|-(0)-0-0-0-0-0-0-0-|-(0)-0-0-0-0-0-0--0-|


        PM|             PM  PM|   PM
  Q   E E E E E E   +E  E E E E E E E
|-----------------|--------------------|
|-----------------|--------------------|
|-9---9-----9---4-|-(4)---4-----4---2--|
|-9---9---7-9---4-|-(4)-4-4---2-4---2--|
|-7---7-7-7-7-7S2-|-(2)-2-2-2-2-2-0-0--|
|-----------------|--------------------|
|
| E E Q   H          W
|-----------------|--------------------|
|-----------------|--------------------|
|-----------------|--------------------|
|-2---------------|--------------------|
|-2---------------|--------------------|
|-0---------------|--------------------|


  +E  E E E E E E E   +E  E E E E E E E
|-------------------|-------------------|
|-------------------|-------------------|
|-(2)---------------|-------------------|
|-(2)-2-5-2-2-5-2---|-------------------|
|-(0)-0-0-0-0-0-0-2-|-(2)-2-4-2-5-2-4-2-|
|-----------------0-|-(0)-0-0-0-0-0-0-0-|
|
|                         PM--------|
|  H        Q   E E   +E  E E E E E E E
|-------------------|-------------------|
|-------------------|-------------------|
|-------------------|-------------------|
|-----------------2-|-(2)-------------2-|
|-----------------2-|-(2)-2-4-2-5-2-4-2-|
|-----------------0-|-(0)-0-0-0-0-0-0-0-|


                      Pre-Chorus
   PM-|                  PM----------|
   E  E E E E E E E    E E E E E E E E
|-------------------||------------------|
|-------------------||------------------|
|-------------------||------------------|
|-------------------||-2----------------|
|-------4-2-5-2-4-2-||-0-0-0-0-0-0-0-2--|
|--0--0-0-0-0-0-0-0-||---------------0--|
|
|     PM----------|
| +E  E E E E E E E    E E E E E E E E
|-------------------||------------------|
|-------------------||------------------|
|-------------------||------------------|
|-(2)---------------||-2-2-4p2-5p2-4----|
|-(2)-2-4-2-5-2-4-2-||-0-0-0---0---0-2--|
|-(0)-0-0-0-0-0-0-0-||---------------0--|


   PM----------------------------------
   E  E E E E E E E   E E E E E E E E
|-------------------|-----------------|
|-------------------|-----------------|
|-------------------|-----------------|
|-------------------|-2-2-4-2-5-2-4-2-|
|--2--2-4-2-5-2-4-2-|-0-0-0-0-0-0-0-0-|
|--0--0-0-0-0-0-0-0-|-----------------|
|
|     PM----------------------------~~~
| +E  E E E E E E E   E E E E E E E E
|-------------------|-----------------|
|-------------------|-----------------|
|-------------------|-----------------|
|-------------------|-2-2-4-2-5-2-4---|
|-(2)-2-4-2-5-2-4-2-|-0-0-0-0-0-0-0---|
|-(0)-0-0-0-0-0-0-0-|---------------3-|


 ---------------------------------------------|
   E  E E E E E E E    E  E E E     E  E    E E
|-------------------|---------------------------|
|-------------------|---------------------------|
|-------------------|---------------------------|
|-------------------|---------------------------|
|--2--------------2-|--2--2-4-2-----5--2----4-2-|
|--0--0-0-0-0-0-0-0-|--0--0-0-0-----0--0----0-0-|
|
|~~~~~
| +H.           E E   +Q.     E    +E  S S  Q
|-------------------|---------------------------|
|-------------------|---------------------------|
|-------------------|---------------------------|
|-------------------|---------------------------|
|-------------------|---------------------------|
|-(3)-----------3-0-|-(0)-----3b4==(3)-4p3rp0---|


  E E E E E E E E   +E  E E E E E E E   E E E E E E E E   E E E E E E E S S
|-----------------|-------------------|-----------------|-------------------|
|-----------------|-------------------|-----------------|-------------------|
|-----------------|-------------------|-----------------|---3---3---3-3-----|
|-2-2-4-2-5-2-4---|-------------------|---4---4---4---4-|---4---4---4-4-----|
|-0-0-0-0-0-0-0-2-|-(2)-2-4-2-5-2-4-2-|---4---4---4---4-|---4---4---4-4-x-x-|
|---------------0-|-(0)-0-0-0-0-0-0-0-|---2---2---2---2-|---2---2---2-2-x-x-|
|
|                       PM----------|
| E E E E E E E E   +E  E E E E E E E   E E E E E E E E   E E E E E E E E
|-----------------|-------------------|-----------------|-------------------|
|-----------------|-------------------|-----------------|-------------------|
|-----------------|-------------------|-2-2-2-2-2-2-2-2-|-2-2-2-2-2-2-2-2---|
|-2-2-4p2-5p2-4---|-------------------|-4-4-4-4-4-4-4-4-|-4-4-4-4-4-4-4-4---|
|-0-0-0---0---0-2-|-(2)-2-4-2-5-2-4-2-|-4-4-4-4-4-4-4-4-|-4-4-4-4-4-4-4-4---|
|---------------0-|-(0)-0-0-0-0-0-0-0-|-2-2-2-2-2-2-2-2-|-2-2-2-2-2-2-2-2---|


  H        +E E  E E   +E  E  E E  E E  E E
|--------------------|----------------------|
|--------------------|----------------------|
|--------------------|----------------------|
|-9--------(9)7--8-9-|-(9)-9--9-9--9-9--9---|
|-9--------(9)7--8-9-|-(9)-9--9-9--9-9--9---|
|-7--------(7)-----7-|-(7)-7--7-7--7-7--7-x-|
|
| E E  E E  E E  E E   +E  E  E E  E E  E E
|--------------------|----------------------|
|--------------------|----------------------|
|--------------------|----------------------|
|--------------------|----------------------|
|-9-9-11p9-12p9-11-9-|-(9)-9-11-9-12-9-11---|
|-7-7--7----7----7-7-|-(7)-9--9-9--9-9--9-0-|


  E E E E E S S E E   Q    Q  E E  Q
|-------------------|-----------------||
|-------------------|-----------------||
|-------------------|-----------------||
|-------------------|-----------x/----||
|-5-5-6-6-7-x-x-8-8-|-9\--------x/----||
|-3-3-4-4-5-x-x-6-6-|-7\--------------||
|
| E E E E E E   E E   E  E Q  H
|-------------------|-----------------||
|-------------------|-----------------||
|-------------------|-----------------||
|-------------------|-----------------||
|-5-5-6-6-7-7---8-8-|-9---------------||
|-3-3-4-4-5-5---6-6-|-7---------------||


 Verse 2 & 3
  $
        PM|             PM  PM|   PM
  Q   E E E E E E   +E  E E E E E E E   +E  E E E E E E E
|-----------------|-------------------|-------------------|
|-----------------|-------------------|-------------------|
|-9---9-----9---4-|-(4)---4-----4---2-|-(2)---------------|
|-9---9---7-9---4-|-(4)-4-4---2-4---2-|-(2)-2-5-2-2-5-2---|
|-7---7-7-7-7-7S2-|-(2)-2-2-2-2-2-0-0-|-(0)-0-0-0-0-0-0-2-|
|-----------------|-------------------|-----------------0-|
|
| E E Q   H          W                   H        Q   E E
|-----------------|-------------------|-------------------|
|-----------------|-------------------|-------------------|
|-----------------|-------------------|-------------------|
|-2---------------|-------------------|-----------------2-|
|-2---------------|-------------------|-----------------2-|
|-0---------------|-------------------|-----------------0-|


                                                                PM  PM|   PM
   E  E E E E E E E    E  E E E E E E E   Q   E E E Q   E   +E  E E E E E E E
|-------------------|-------------------|-----------------|--------------------|
|-------------------|-------------------|-----------------|--------------------|
|-------------------|-------------------|-9---9p7---9\--4-|-(4)---4-----4---2--|
|-------------------|-------------------|-9---9p7-7-9\--4-|-(4)-4-4---2-4---2--|
|--2--2-4-2-5-2-4-2-|-----2-4-2-5-2-4-2-|-7---7---7-7\--2-|-(2)-2-2-2-2-2-0-0--|
|--0--0-0-0-0-0-0-0-|-----0-0-0-0-0-0-0-|-----------------|--------------------|
|
|     PM--------|         PM----------|
| +E  E E E E E E E   +E  E E E E E E E   E E Q   H          W
|-------------------|-------------------|-----------------|--------------------|
|-------------------|-------------------|-----------------|--------------------|
|-------------------|-------------------|-----------------|--------------------|
|-(2)-------------2-|-(2)---------------|-2---------------|--------------------|
|-(2)-2-4-2-5-2-4-2-|-(2)-2-4-2-5-2-4-2-|-2---------------|--------------------|
|-(0)-0-0-0-0-0-0-0-|-(0)-0-0-0-0-0-0-0-|-0---------------|--------------------|


                  PM----------------|
  +E  E E E E E E E    E  E E E E E E E
|-------------------|-------------------|
|-------------------|-------------------|
|-(2)---------------|-------------------|
|-(2)-2-4-2-2-5-2---|-----------------2-|
|-(0)-0-0-0-0-0-0-2-|--2--2-4-2-5-2-4-2-|
|-----------------0-|--0--0-0-0-0-0-0-0-|
|
|                         PM--------|
|  H        Q   E E   +E  E E E E E E E
|-------------------|-------------------|
|-------------------|-------------------|
|-------------------|-------------------|
|-----------------2-|-(2)-------------2-|
|-----------------2-|-(2)-2-4-2-5-2-4-2-|
|-----------------0-|-(0)-0-0-0-0-0-0-0-|


                      Pre-Chorus
  +E  E E E E E E E    E E E E E E E E
|-------------------||------------------|
|-------------------||------------------|
|-------------------||------------------|
|-(2)---------------||-2-2-4-2-5-2-4----|
|-(2)-2-4-2-5-2-4-2-||-0-0-0-0-0-0-0-2--|
|-(0)-0-0-0-0-0-0-0-||---------------0--|
|
|     PM----------|
| +E  E E E E E E E    E E E E E E E E
|-------------------||------------------|
|-------------------||------------------|
|-------------------||------------------|
|-(2)---------------||-2-2-4p2-5p2-4----|
|-(2)-2-4-2-5-2-4-2-||-0-0-0---0---0-2--|
|-(0)-0-0-0-0-0-0-0-||---------------0--|


  E E E E E E E E   E E E E E E E E
|-----------------|-----------------|
|-----------------|-----------------|
|-----------------|-----------------|
|-----------------|-2-2-4-2-5-2-4-2-|
|---2-4-2-5-2-4-2-|-0-0-0-0-0-0-0-0-|
|---0-0-0-0-0-0-0-|-----------------|
|
|   PM----------------------------~~~
| E E E E E E E E   E E E E E E E E
|-----------------|-----------------|
|-----------------|-----------------|
|-----------------|-----------------|
|-----------------|-2-2-4-2-5-2-4---|
|-2-2-4-2-5-2-4-2-|-0-0-0-0-0-0-0---|
|-0-0-0-0-0-0-0-0-|---------------3-|


   E  E E E E E E E   +E  E E S S S S E E E
|-------------------|------------------------|
|-------------------|------------------------|
|-------------------|------------------------|
|-------------------|------------------------|
|--2--------------2-|-(2)--------------------|
|--0--0-0-0-0-0-0-0-|-(0)-0-0-0-0-2-2-2-3-4--|
|
|~~~~~
| +H.           E E   +H          S S E Q
|-------------------|------------------------|
|-------------------|------------------------|
|-------------------|------------------------|
|-------------------|------------------------|
|-------------------|------------------------|
|-(3)-----------3-0-|-(0)---------0-0-0-0----|


                PM----------------|
  E E E E E E E E    E  E E E E E E E   E E E E E E E E   E E E E E E E E
|-----------------|-------------------|-----------------|------------------|
|-----------------|-------------------|-----------------|------------------|
|-----------------|-------------------|-----------------|---3---3---3-3----|
|-2-2-4-2-5-2-4---|-------------------|---4---4---4---4-|---4---4---4-4----|
|-0-0-0-0-0-0-0---|-----------------2-|---4---4---4---4-|---4---4---4-4----|
|---------------0-|--0--0-0-0-0-0-0-0-|---2---2---2---2-|---2---2---2-2----|
|
|                       PM----------|
| E E E E E E E E   +E  E E E E E E E   E E E E E E E E   E E E E E E E E
|-----------------|-------------------|-----------------|------------------|
|-----------------|-------------------|-----------------|------------------|
|-----------------|-------------------|-2-2-2-2-2-2-2-2-|-2-2-2-2-2-2-2-2--|
|-2-2-4p2-5p2-4---|-------------------|-4-4-4-4-4-4-4-4-|-4-4-4-4-4-4-4-4--|
|-0-0-0---0---0-2-|-(2)-2-4-2-5-2-4-2-|-4-4-4-4-4-4-4-4-|-4-4-4-4-4-4-4-4--|
|---------------0-|-(0)-0-0-0-0-0-0-0-|-2-2-2-2-2-2-2-2-|-2-2-2-2-2-2-2-2--|


                                                               2/4
  Q    Q    E E  E E   +E  E  Q    E E  E E   E E E E E E E E   q  q
|-----------7-7--7---|--------7---------7---|-----------------|-------||
|-----------7-7--7---|--------7-----------7-|-----------------|-------||
|-----------8-8--8---|--------8-------------|-----------------|-------||
|-9----9-----------9-|-(9)-9----------------|-9-9-x-x-x-x-x-x-|-------||
|-9----9-----------9-|-(9)-9-------9-9------|-9-9-x-x-x-x-x-x-|-9--9--||
|-7----7-----------7-|-(7)-7-------7-7------|-----------------|-7--7--||
|
| E E  E E  E E  E E   +E  E  E E  E E  E E   E E E E E E E E   q  q
|--------------------|----------------------|-----------------|-------||
|--------------------|----------------------|-----------------|-------||
|--------------------|----------------------|-----------------|-------||
|--------------------|----------------------|-----------------|-------||
|-9-9-11p9-12p9-11-9-|-(9)-9-11-9-12-9-11---|-5-5-6-6-7-7-8-8-|-9--9--||
|-7-7--7----7----7-7-|-(7)-9--9-9--9-9--9-0-|-3-3-4-4-5-5-6-6-|-7--7--||


 Chorus
 4/4
  Gtr I
  Q   Q  H      H    q  q    Q   Q  H
|-------------|------------|-------------|
|-------------|------------|-------------|
|-9\----------|------------|-9\----------|
|-9\----------|------------|-9\----------|
|-7\----------|------9--9--|-7\----------|
|-------------|------7--7--|-------------|


  H    q  q    Q   Q  H      H    q  q    q  Q  H
|------------|-------------|------------|------------|
|------------|-------------|------------|------------|
|------------|-9\----------|------------|-9----------|
|------------|-9\----------|------------|-9----------|
|------9--9--|-7\----------|------9--9--|-7----------|
|------7--7--|-------------|------7--7--|------------|


  Gtrs I, II
  H    q  q    Q  E E +E  E E E     E E Q  Q  Q    Q  E E +E  E E E   3x
|------------|------------------||---------------|--------------------||
|------------|------------------||o--------------|-------------------o||
|------------|------9-(9)-9---9-||--7-7----------|------9-(9)-9---9---||
|------------|-9----7-(7)-7---7-||--5-5-7--------|-9----7-(7)-7---7---||
|------9--9--|-7----------------||o-----5--9--9--|-7-----------------o||
|------7--7--|------------------||---------7--7--|--------------------||


           Interlude (Sax Solo)
  To Coda
 2/4       4/4
  Gtr I
  E E Q     H..             E   E E E E E E S S E
|--------||-------------------|-------------------|
|--------||-------------------|-------------------|
|-7-7----||-------------------|-------------------|
|-5-5-7--||-5---------------5-|---5---5---5-5-5-5-|
|-----5--||-3---------------3-|---3---3---3-3-3-3-|
|--------||-------------------|-------------------|
|
| Gtr II
| E E Q     E   E E E E E E E   E E E E E E E   E
|--------||-------------------|-------------------|
|--------||-------------------|-------------------|
|-7-7----||-------------------|-------------------|
|-5-5-7--||-5---5-7-5-5-5-7-7-|-5-5-7-5-5-5-7---7-|
|-----5--||-3---3-3-3-3-3-3-3-|-3-3-3-3-3-3-3---3-|
|--------||-------------------|-------------------|


  H.          E E   +E  Q   E +Q   Q     +E  Q   E Q   E  E
|-----------------|--------------------|--------------------|
|-----------------|--------------------|--------------------|
|-----------------|--------------------|-----------------/9-|
|-4-------------4-|-(4)-4---4-(4)--4---|-(4)-2-----2--------|
|-2p==========0-2-|-(2)-2---2-(2)------|---------0----------|
|-----------------|--------------------|--------------------|
|
| E E E E E E E E    E  E E E  Q   E E    Q    Q   E E E  E
|-----------------|--------------------|--------------------|
|-----------------|--------------------|--------------------|
|-----------------|--------------------|--------------------|
|-4-4-6-6-4-4-6-6-|--4--4-6-6--4-------|--2--------2-2----5-|
|-2-2-2-2-2-2-2-2-|--2--2-2-2--2-------|--0--------0-0------|
|-----------------|----------------3-4-|--------------------|


  +E  Q.      E  E E E   +E   E E  E  Q    Q
|----------------------|-----17---17-17---14b14.5---|
|----------------------|-----17---17-17---14b14.5---|
|-(9)-9-------9--9-9-9-|-(9)------------------------|
|----------------------|----------------------------|
|----------------------|----------------------------|
|----------------------|----------------------------|
|
| +Q     E E +E  E Q      Q     Q     E E  E      E
|----------------------|----------------------------|
|----------------------|----------------------------|
|----------------------|----------------------------|
|-(5)----5-4-(4)---4---|--2-----------2-2---------5-|
|----------------0-----|--0-----------0-0-----------|
|----------------------|----------------------------|


          D.S. al Coda
     ~~~~~~~~~~~~~~~
  E  Q    E  +E   Q    +E
|---15----------------------||
|--------14-(14)------------||
|----------------12---(12)\-||
|---------------------------||
|---------------------------||
|---------------------------||
|
| Q    E  E  +E   E Q
|---------------------------||
|---------------------------||
|---------------------------||
|-5----5--4--(4)----4-------||
|-----------------0---------||
|---------------------------||


 Outro
                                    E=216
  &
                    7/8                3/8
  H.           E E   H.           E     Q   E  6x
|------------------|----------------||--7------||
|------------------|----------------||o-7-----o||
|------------------|----------------||--7------||
|-5------------5-5-|-7--------------||--6------||
|-3------------3-3-|-5--------------||o-7-----o||
|------------------|--------------0-||------0--||
|
| E  E E E E E E E   E  E E E E E E     Q.     6x
|------------------|----------------||--7------||
|------------------|----------------||o-7-----o||
|------------------|----------------||--7------||
|-5--5-7-5-5-5-7-5-|-7--7-9-7-7-9---||--6------||
|-3--3-3-3-3-3-3-3-|-5--5-5-5-5-5---||o-7-----o||
|------------------|----------------||---------||


         4/4
  E E E   W          +W           W
|-7-----|----------|------------|-------------*|
|-7-----|----------|------------|-------------*|
|-7-----|-9--------|-(9)--------|-------------*|
|-6-----|-9--------|-(9)--------|-------------*|
|-7-----|-7--------|-(7)--------|-------------*|
|---0-0-|----------|------------|-------------*|
|
| Q   E   W          +W           Q   Q  H
|-7-----|----------|------------|-------------*|
|-7-----|----------|------------|-------------*|
|-7-----|-9--------|-(9)--------|-9\----------*|
|-6-----|-9--------|-(9)--------|-9\----------*|
|-7-----|-7--------|-(7)--------|-7\----------*|
|-------|----------|------------|-0-----------*|


 Fill 1
  Q=156
  PM------------~~~~~~~~
  E E E E E E E E   +H.      E E   +E  E E E E E E E
|-----------------|--------------|-------------------|
|-----------------|--------------|-------------------|
|-----------------|--------------|-------------------|
|-2-2-4-2-5-2-4---|--------------|-------------------|
|-0-0-0-0-0-0-0---|--------------|-------------------|
|---------------3-|-(3)------3-0-|-(0)-0-2-2-3-3-4-4-|


 Fill 2
  E E E E E E E E   E E E E E E E E   E E E E E E E E
|---2---2---2---2-|---2---2---2-2-2-|-7-7-7-7-7-7-7-7-|
|---2---2---2---2-|---2---2---2-2-2-|-7-7-7-7-7-7-7-7-|
|---3---3---3---3-|---3---3---3-3-3-|-8-8-8-8-8-8-8-8-|
|-----------------|-----------------|-----------------|
|-----------------|-----------------|-----------------|
|-----------------|-----------------|-----------------|


  +Q   Q  +E  E E E   E S S E S S E S S E E
|-(7)--7--(7)-7-7-7-|-----------------------|
|-(7)--7--(7)-7-7-7-|-----------------------|
|-(8)--8--(8)-8-8-8-|-----------------------|
|-------------------|-5-----6-----7-----8-8-|
|-------------------|-5-----6-----7-----8-8-|
|-------------------|-3-x-x-4-x-x-5-x-x-6-6-|




--------------------------------------------------------------------------------


Duration Legend
---------------
W - whole; H - half; Q - quarter; E - 8th; S - 16th; T - 32nd; X - 64th; a - acciaccatura
+ - note tied to previous; . - note dotted; .. - note double dotted
Uncapitalized letters represent notes that are staccato (1/2 duration)
Irregular groupings are notated above the duration line
Duration letters will always appear directly above the note/fret number it represents the
duration for.  Duration letters with no fret number below them represent rests.  Multi-
bar rests are notated in the form Wxn, where n is the number of bars to rest for.  Low
melody durations appear below the staff

Tablature Legend
----------------
 h   - hammer-on
 p   - pull-off
 b   - bend
 pb  - pre-bend
 r   - bend release (if no number after the r, then release immediately)
 /\  - slide into or out of (from/to "nowhere")
 s   - legato slide
 S   - shift slide
 - natural harmonic
[n]  - artificial harmonic
n(n) - tapped harmonic
 ~   - vibrato
 tr  - trill
 T   - tap
 TP  - trem. picking
 PM  - palm muting
\n/  - tremolo bar dip; n = amount to dip
 \n  - tremolo bar down
 n/  - tremolo bar up
/n\  - tremolo bar inverted dip
 =   - hold bend; also acts as connecting device for hammers/pulls
 <> - volume swell (louder/softer)
 x   - on rhythm slash represents muted slash
 o   - on rhythm slash represents single note slash

Misc Legend
-----------
 |  - bar
||  - double bar
||o - repeat start
o|| - repeat end
*|  - double bar (ending)
 :  - bar (freetime)
 $  - Segno
 &  - Coda
Tempo markers -  = BPM(8/16=s8/s16), where s8 = swing 8ths, s16 = swing 16ths
comments
print report bad tab
6 comments total. Showing first comments.
+3 reply
monkey_xxx2003 wrote on March 3 2005, 12:00 am

excellent tab.

+3 reply
Astaldo wrote on May 27 2006, 06:14 am

that is so ****in 100% perfect... great man!

+3 reply
vengeance_6661 wrote on January 24 2007, 10:18 pm

i finally found a tab thats actually perfect and has the solo and all that! good job son.

I want to post or [tab]
guest
You may want to rate the tab now too:
select rating
Please do not post tabs as comments. Select "correction" instead!