Oops, an error
Loading. Please wait.

No Surprize Tab

ver2
ver2

Whole song

Interactive

More versions @911Tabs.com
1,813 views 3 this week
no commentswrite comment
1 2 3 4 5
excellent!
x 1
Autoscroll
+/-
esc
set tempo
stop
Contributor
WARNING: You are trying to view
                                    content from Ultimate-Guitar.com
                                    in an unauthorized application,
                                    which is prohibited.

                                    Please use an official Ultimate
                                    Guitar Tabs application for iPhone,
                                    iPad or Android to access legitimate
                                    chords, guitar, bass, and drum tabs
                                    from Ultimate-Guitar.com database.

                                    Type "ultimate guitar tabs" in Apple
                                    App Store's or Android Market's
                                    search to find the application.
No Surprize                                   
                                                                       Aerosmith
[Guitarra 1] Joe Perry



     W                   H.           Q       W                 
E||--0----------------|--L------------0----|--L----------------|
B||--0----------------|--L------------0----|--L----------------|
G||--9----------------|--L------------4----|--L----------------|
D||--9----------------|--L------------4----|--L----------------|
A||--7----------------|--L------------2----|--L----------------|
E||-------------------|--------------------|-------------------|


  E  E   E  Q    E  Q       E  E  E  E  Q    Q       E  E   E  Q    E  Q     
-------------------------|------------------------|-------------------------|
-------------------------|------------------------|-------------------------|
------------4----2-------|------------------------|------------4----2-------|
--2--2s--4--4----2-------|------------------------|--2--2s--4--4----2-------|
--2--2s--4----------2----|--L--4--2--2--4----2----|--2--2s--4----------2----|
--------------------0----|--L--0--0--0--0----0----|--------------------0----|


  E  Q    E  E  E  E  E     E  E   E  Q    E  Q       E  Q    E  E  E  Q     
-------------------------|-------------------------|------------------------|
-------------------------|-------------------------|------------------------|
-------------------------|------------6-------4----|--4--6----4--6--4--4----|
-------------------------|--4--4s--4--4----0--2----|--2--2----2--2--2--2----|
--2--4----2--4--2--2--2--|--2--2s--4---------------|------------------------|
--0--0----0--0--0--0--0--|-------------------------|------------------------|


  E  E  E  E  E  E  Q       E  Q    E  E  E  Q       E  E   E  Q    E  Q     
-------------------------|------------------------|-------------------------|
-------------------------|------------------------|-------------------------|
-----------6--6----------|------------------------|------------4----2-------|
--------4--6--6--6--4----|--4--6----4--6--4--4----|--2--2s--4--4----2-------|
--4--4--4--------4--2----|--2--2----2--2--2--2----|--2--2s--4----------2----|
--2--2-------------------|------------------------|--------------------0----|


  E  Q    E  E  E  Q       E  E   E  E  E  E  Q       E  Q    E  E  E  E  E   
------------------------|--------------------------|-------------------------|
------------------------|--------------------------|-------------------------|
------------------------|------------4--4--2-------|-------------------------|
------------------------|--2--2s--4--4--4--2-------|-------------------------|
--2--4-------4----------|--2--2s--4----------------|--2--4----2--4--2--2--2--|
--0--0----0--0--0--0----|---------------------0----|--0--0----0--0--0--0--0--|


  E  E   E  E  E  E  Q       E  E  E  E  E  E  E  E     E  E  E  Q    E  Q     
--------------------------|--------------------------|------------------------|
--------------------------|--------------------------|------------------------|
------------6--6-----4----|--4--6-----4--6--4--6--4--|-----------6------------|
--4--4s--4--4--4--0--2----|--2--2--2--2--2--2--2--2--|--4--4--6--6----6--4----|
--2--2s--4----------------|--------------------------|--4--4--6-------4--2----|
--------------------------|--------------------------|--2--2------------------|


  E  Q    E  E  E  Q       E  E   E  Q    E  Q       E  Q    E  E  E  Q     
------------------------|-------------------------|------------------------|
------------------------|-------------------------|------------------------|
------------------------|------------4----2-------|------------------------|
--4--6----4--4--4--4----|--2--2s--4--4----2-------|------------------------|
--2--2----2--2--2--2----|--2--2s--4---------------|--2--4----2--4--2-------|
------------------------|--------------------0----|--0--0----0--0--0--0----|


  E  E   E  E  E  E  Q       E  Q    E  E  E  Q       E  E  E  Q    E  Q     
--------------------------|------------------------|------------------------|
--------------------------|------------------------|------------------------|
------------4--4--2-------|------------------------|----------------4-------|
--2--2s--4--4--4--2-------|------------------------|--2--2--x--2----4--2----|
--2--2s--4-----------2----|--2--4----2--4--4--2----|--2--2--x--2-------0----|
---------------------0----|--0--0----0--0-----0----|------------------------|


                     W                                             W     
  E  E  Q      E  E  Q       W                   Q    Q      E  E  Q     
--------------------------|-------------------|-------------------------|
---------------5----------|-------------------|--------------7----------|
--------4br----L--L--2----|--L----------------|-------6br----L--L--4----|
--2--4--------------------|-------------------|-------------------------|
--0--0--------------------|-------------------|-------------------------|
--------------------------|-------------------|-------------------------|


                                        W                           
  W                   Q    Q      E  E  Q       H        Q    Q     
-------------------|-------------------------|---------------------|
-------------------|--------------5----------|---------------------|
--L----------------|-------4br----L--L--2----|--L--------L----4----|
-------------------|-------------------------|----------------4----|
-------------------|-------------------------|----------------2----|
-------------------|-------------------------|---------------------|


  H        E  E  Q       H        E  Q     E     W                 
----------------------|-----------------------|-------------------|
----------------------|-----------------------|-------------------|
--L--------L-----4----|--L--------L--4s----9--|--L----------------|
--L--------L-----4----|--L--------L--4s----9--|--L----------------|
--L--------L--2--2----|--L--------L--2s----7--|--L----------------|
----------------------|-----------------------|-------------------|


  W                    E    E   E    E   E      S  S   E  E   
-------------------|-------12-------12-----------------------|
-------------------|--10b------10b------10br~--10p-8h-10--8--|
--L----------------|--------------------------------------7--|
--L----------------|-----------------------------------------|
--L----------------|-----------------------------------------|
-------------------|-----------------------------------------|


  W                                                                     
  H        Q    Q       E  Q    E  Q    Q       E  E   E  Q    E  Q     
---------------------|-----------------------|-------------------------|
--L--------L---------|-----------------------|-------------------------|
--L--------L---------|-----------------------|------------4----2-------|
---------------------|-----------------------|--2--2s--4--4----2-------|
----------------2----|--L--4----2--4----2----|--2--2s--4----------2----|
----------------0----|--L--0----0--0----0----|--------------------0----|


  E  Q    E  E  E  E  E     E  E   E  Q    E  Q       E  Q    E  E  E  Q     
-------------------------|-------------------------|------------------------|
-------------------------|-------------------------|-------------------5----|
-------------------------|------------6----2--4----|--4--6----4--4--6--4----|
-------------------------|--4--4s--4--4----0--2----|--2--2----2--2--2-------|
--x--4-------------------|--2--2s--4---------------|------------------------|
--x--0----0--0--0--0--0--|-------------------------|------------------------|


  E  E  E  Q    E  Q       E  E  Q      E   E   E  E   
------------------------|---------------7-------------|
------------------------|-----------------------------|
-----------6------------|--------6br-------(6)--4--6--|
--------4--6----6--4----|--4--4-----------------------|
--4--4--4-------4--2----|--2--2-----------------------|
--2--2------------------|-----------------------------|


  E  E  E   E  E  E  Q       W                    E  Q    Q    E  Q     
--------------------------|--------------------|-----------------------|
--------------------------|--------------------|-----------------------|
--4-----------------------|--------------------|----------4----2-------|
-----6--6p--4--0--2--L----|--L~----------------|--L--L----4----2-------|
--------------------------|--------------------|------------------2----|
--------------------------|--------------------|------------------0----|


                                                                       W     
  E  Q    E  E  E  Q       E  E  E  Q    E  Q       E  E  Q      E  E  Q     
------------------------|------------------------|--------------------------|
------------------------|------------------------|---------------5----------|
------------------------|-----------4----0-------|--------4br----L--L--2----|
------------------------|--2--2--4--4----0--2----|--2--4--------------------|
--2--4----2--4-----2----|--2--2--4----------0----|--0--0--------------------|
--0--0----0--0--0--0----|------------------------|--------------------------|


                                        W                         
  W                   Q    Q      E  E  Q       W                 
-------------------|-------------------------|-------------------|
-------------------|--------------7----------|-------------------|
--L----------------|-------6br----L--L--4----|--L----------------|
-------------------|-------------------------|-------------------|
-------------------|-------------------------|-------------------|
-------------------|-------------------------|-------------------|


                    W                                                
  Q    Q      E  E  Q       H.           E   E     W                 
-------------------------|------------------/7--|--7----------------|
--------------5----------|------------------/7--|--7----------------|
-------4br----L--L--2----|--L------------L--/4--|--4----------------|
-------------------------|----------------------|-------------------|
-------------------------|----------------------|-------------------|
-------------------------|----------------------|-------------------|


  H         E  E  E  E     W                   H         E  E  E  E   
--L--------/7--7--7--7--|--7----------------|--L--------/7--L--7--7--|
--L--------/7--7--7--7--|--7----------------|--L--------/7--L--7--7--|
--L------------4--4--4--|--4----------------|--L--------/4--L--4--4--|
------------------------|-------------------|------------------------|
------------------------|-------------------|------------------------|
------------------------|-------------------|------------------------|


  W                   H         E  E  E  E     W                 
--7----------------|--L--------/7--7--7--7--|--7----------------|
--7----------------|--L--------/7--7--7--7--|--7----------------|
--4----------------|--L------------4--4--4--|--4----------------|
-------------------|------------------------|-------------------|
-------------------|------------------------|-------------------|
-------------------|------------------------|-------------------|


  H.           E  E      E   Q     Q     E   E   E   
--L-------------------|-----10----10----10--10--10--|
--L---------------5/--|--L--10----10----10--10--10--|
--L---------------4/--|--L--------------------------|
----------------------|-----------------------------|
----------------------|-----------------------------|
----------------------|-----------------------------|


   Q     E   E   E   E   E   E      Q      E   E    E   E    E   E   
--------10--10--10--10--10--10--|---------10-------10-------10--10--|
--10----10--10--10--10--10--10--|---------10-------10-------10--10--|
--10----------------------------|--12b--------12b------12b----------|
--------------------------------|-----------------------------------|
--------------------------------|-----------------------------------|
--------------------------------|-----------------------------------|


   E    E   E   E    E   E   E    E      E   E  H.            
-------10--10-------10--10-------10--|--(7)--7--L------------|
-------10--10-------10--10-------10--|--(7)--7--L------------|
--12b----------12b----------12b------|-------4--L------------|
-------------------------------------|-----------------------|
-------------------------------------|-----------------------|
-------------------------------------|-----------------------|


  H         E  E  E  E     W                   H.           E  E    
--L---------------7--7--|--7----------------|--L------------L------|
--L------------7--7--7--|--7----------------|--L------------L--7/--|
--L--------\4--4--4--4--|--4----------------|--L------------L--4/--|
------------------------|-------------------|----------------------|
------------------------|-------------------|----------------------|
------------------------|-------------------|----------------------|


  E   Q     Q     Q     E      Q      E   E   E   E   E   E   
-----10----10----10----10--|---------10--10--10--10--10--10--|
--L--10----10----10----10--|---------10--10--10--10--10--10--|
--L------------------------|--12b----------------------------|
---------------------------|---------------------------------|
---------------------------|---------------------------------|
---------------------------|---------------------------------|


   Q      E   E    E   E    E   E      E    E   E   E    E   E    E    E   
---------10-------10-------10--10--|-------10--10-------10-------10\------|
---------10-------10-------10--10--|-------10--10-------10-------10\------|
--12b--------12b------12b----------|--12b----------12b------12b-------10--|
-----------------------------------|----------------------------------10--|
-----------------------------------|--------------------------------------|
-----------------------------------|--------------------------------------|


        \1             /2   
   Q    Q    Q    E    E    
--12----L----L----L--(12)--|
--12----L----L----L--(12)--|
---------------------------|
---------------------------|
---------------------------|
---------------------------|


   Pick Slide                                                   
   S           S   S   S   S   S   S   S   S   S   S   S  Q     
---------------------------------------------------------------|
---xs----------xs--xs--xs--xs--xs--xs--xs--xs--xs--xs--xs------|
---xs----------xs--xs--xs--xs--xs--xs--xs--xs--xs--xs--xs------|
---xs----------xs--xs--xs--xs--xs--xs--xs--xs--xs--xs--xs------|
----------------------------------------------------------2----|
----------------------------------------------------------0----|


  W                   H        Q    Q       E  Q    E  E  E  Q     
-------------------|---------------------|------------------------|
-------------------|---------------------|------------------------|
-------------------|---------------------|------------------------|
-------------------|---------------------|------------------------|
--L----------------|--L--------L----2----|--2--4----2--4--2--2----|
--L----------------|--L--------L----0----|--0--0----0--0--0--0----|


  E  E   E  Q    E  Q       E  Q    E  E  E  Q       E  E  E  Q    E  E  E    
-------------------------|------------------------|--------------------------|
-------------------------|-------------------5----|--------------------------|
------------6-------4----|--4--6----4--6--4--4----|-----------6----------x/--|
--4--4s--4--4----0--2----|--2--2----2--2--2--2----|--------4--6----6--4------|
--2--2s--4---------------|------------------------|--4--4--4-------4--2------|
-------------------------|------------------------|--2--2--------------------|


  E  E  E  E  E  E  E  E     E  E  E  E  Q    E    E   
--7--7--7--7--7--7--7--7--|--7--7--7--7--7----7s--12--|
--7--7--7--7--7--7--7--7--|--7--7--7--7--7----7s--12--|
--------------------------|---------------------------|
--------------------------|---------------------------|
--------------------------|---------------------------|
--------------------------|---------------------------|


   E   E   E   E   E   E   E   E      Q      E   E   E   Q      E   
--12--12--12--12--12--12--12------|---------12--10-----------------|
--12--12--12--12--12--12--12--12--|--10b------------12--10br-------|
----------------------------------|-----------------------------9--|
----------------------------------|--------------------------------|
----------------------------------|--------------------------------|
----------------------------------|--------------------------------|


   E   E   E     E  E   Q       E      Q     E   E   E  E  Q     
-------------------------------10--|----------------------------|
------10---------------10br-----L--|---L----10b--8--10----------|
--12------12br--12--9--------------|--------------------9--L----|
-----------------------------------|----------------------------|
-----------------------------------|----------------------------|
-----------------------------------|----------------------------|


                    W                                             W     
  Q    Q      E  E  Q       W                   Q    Q      E  E  Q     
-------------------------|-------------------|-------------------------|
--------------5----------|-------------------|--------------7----------|
--L----4br----L--L--2----|--L----------------|-------6br----L--L--4----|
-------------------------|-------------------|-------------------------|
-------------------------|-------------------|-------------------------|
-------------------------|-------------------|-------------------------|


                                        W                           
  W                   Q    Q      E  E  Q       H.           E  E   
-------------------|-------------------------|------------------7--|
-------------------|--------------5----------|------------------7--|
--L----------------|--L----4br----L--L--2----|--L---------------4--|
-------------------|-------------------------|---------------------|
-------------------|-------------------------|---------------------|
-------------------|-------------------------|---------------------|


  W                   H         E  E  E  E     W                 
--L----------------|--L------------7--7--7--|--7----------------|
--L----------------|--L------------7--7--7--|--7----------------|
--L----------------|--L--------/4--4--4--4--|--4----------------|
-------------------|------------------------|-------------------|
-------------------|------------------------|-------------------|
-------------------|------------------------|-------------------|


  H         E  E  E  E     W                   H         E  E  E  E   
--L--------/7--L--7--7--|--7----------------|--L------------7--7--7--|
--L--------/7--L--7--7--|--7----------------|--L------------7--7--7--|
--L--------/4--L--4--4--|--4----------------|--L--------/4--4--4--4--|
------------------------|-------------------|------------------------|
------------------------|-------------------|------------------------|
------------------------|-------------------|------------------------|


  W                   H        E  Q     E     E   E  E   E   E   E   E   E   
--7----------------|--L--------------------|-----10--L--10--10--10--10--10--|
--7----------------|--L-----------5/----L--|--L--10--L--10--10--10--10--10--|
--4----------------|--L-----------4/----L--|--L-----------------------------|
-------------------|-----------------------|--------------------------------|
-------------------|-----------------------|--------------------------------|
-------------------|-----------------------|--------------------------------|


   E   E   E   E   E   E   E   E       E  E   E   E  E   E   E  E   
--10--10--10--10--10--10--10-------|------x--10--10-----10--10-----|
--10--10--10--10--10--10--10--10b--|--10--x--10--10-----10--10-----|
------------------------------10b--|------x--10--10-----10--10-----|
-----------------------------------|-------------------------------|
-----------------------------------|-------------------------------|
-----------------------------------|-------------------------------|


   E  E   E   E   E   E   E   E     E  E  H.              H.            E  E   
--10-----10--10---x--10--10--10--|-----7--L------------|--L----------------7--|
--10-----10--10---x--10--10--10--|-----7--L------------|--L------------/7--7--|
--10-----10--10---x--10--10--10--|-----4--L------------|--L------------/4--4--|
---------------------------------|---------------------|----------------------|
---------------------------------|---------------------|----------------------|
---------------------------------|---------------------|----------------------|


  W                   H.           Q        E   E   E   E  E   E   E   E   
--7----------------|--L------------------|-----10---L--10--L--10--10--10--|
--7----------------|--L------------5/----|--L--10---L--10--L--10--10--10--|
--4----------------|--L------------4/----|--L-----------------------------|
-------------------|---------------------|--------------------------------|
-------------------|---------------------|--------------------------------|
-------------------|---------------------|--------------------------------|


   E   E   E   E   E   E   E   E      E   E   E  E   E   Q     E   
--10--10--10--10--10--10--10--10--|--10--10--10-----10--10----10--|
--10--10--10--10--10--10--10--10--|--10--10--10-----10--10----10--|
----------------------------------|-------------------------------|
----------------------------------|-------------------------------|
----------------------------------|-------------------------------|
----------------------------------|-------------------------------|


   Q     E   Q     E   E   E     E  E  H.              H.            E  E   
--10----10--10----10--10--10--|--L--7--L------------|--L----------------7--|
--10----10--10----10--10--10--|--L--7--L------------|--L------------/7--7--|
------------------------------|-----4--L------------|--L------------/4--4--|
------------------------------|---------------------|----------------------|
------------------------------|---------------------|----------------------|
------------------------------|---------------------|----------------------|


  W                   H.           Q        E   E  E   E  E   E   E   E   
--7----------------|--L------------------|-----10--L--10--L--10--10--10--|
--7----------------|--L------------------|-----10--L--10--L--10--10--10--|
--4----------------|--L------------4/----|--L----------------------------|
-------------------|---------------------|-------------------------------|
-------------------|---------------------|-------------------------------|
-------------------|---------------------|-------------------------------|


  E   E   E   E   E   E   E   E     E   E   E   E   E   E   E   E   
--L--10--10--10--10--10--10--10--|--L--10--10--10--10--10--10--10--|
--L--10--10--10--10--10--10--10--|--L--10--10--10--10--10--10--10--|
---------------------------------|---------------------------------|
---------------------------------|---------------------------------|
---------------------------------|---------------------------------|
---------------------------------|---------------------------------|


   E  E   E  E   E   E   E  E      E  E   E  E   E   E   E  E   
--10-----10-----10--10--10-----|--10------------10--10--10-----|
--10-----10-----10--10--10-----|--10-----10-----10--10--10-----|
-------------------------------|---------10--------------------|
-------------------------------|-------------------------------|
-------------------------------|-------------------------------|
-------------------------------|-------------------------------|


   E   E   E   E   E   E   E  E      E   E   E   E   E   E   E   E   
--10--10--10--10--10--10--10-----|--10--10--10--10--10--10--10--10--|
--10--10--10--10--10--10--10-----|--10--10--10--10--10--10--10--10--|
---------------------------------|----------------------------------|
---------------------------------|----------------------------------|
---------------------------------|----------------------------------|
---------------------------------|----------------------------------|


   E   E   E   E   E   E   E   E     E   E  Q     Q    E   E   
--10--10--10--10--10--10--10--10--|--9b--L--L~----L----L--10--|
--10--10--10--10--10--10--10--10--|---------------------------|
----------------------------------|---------------------------|
----------------------------------|---------------------------|
----------------------------------|---------------------------|
----------------------------------|---------------------------|


                                                  W           
  E   E   E   E   E  E  E   E      E   E   E   E  E  Q    E   
--L--10--10--10--10------------|-----------------------------|
---------------------8--8--10--|------12---------------------|
-------------------------------|--10--12--10-----------------|
-------------------------------|--------------12--L--L----L--|
-------------------------------|-----------------------------|
-------------------------------|-----------------------------|


  E   Q      E   Q      E   E      E  Q    E  Q      E  E   
--------------------------------|--7--7----L---------------|
------------15------------------|--7--7----L---------------|
-----12b--------12b----12-------|--4--4----L---------------|
---------------------------12\--|--------------------------|
--------------------------------|-------------4br----2--0--|
--------------------------------|--------------------------|


  E  E  Q    Q     E  E     H        Q      E  E     E  E  Q    Q    E  E   
-------------------------|--7---------------------|------------------------|
------------------/7--7--|--7---------------------|------------------------|
------------------/4--4--|--4---------------------|------------------------|
-------------------------|------------------------|------------------------|
-------------------------|-----------4br----2--0--|------------------------|
--4--L--5----L-----------|------------------------|--4--L--5----L----------|


   Q      E   E    E   Q      E      E    E     E     E     E     Q        E   
---------14-------14---------14--|--------------------------------------------|
--17b--------17b------17b--------|--17b--17pb--17pb--17pb--17pb--17pbr----15--|
---------------------------------|--------------------------------------------|
---------------------------------|--------------------------------------------|
---------------------------------|--------------------------------------------|
---------------------------------|--------------------------------------------|


   E   Q      Q       E   E   E      E   E    E   Q      E   Q      
---------------------------------|-----------14--------------------|
------17b----15br----15------17--|--15--17b---L--17b----15--17\----|
--16---------------------16------|---------------------------------|
---------------------------------|---------------------------------|
---------------------------------|---------------------------------|
---------------------------------|---------------------------------|


  E  E  H.              H         E  E  E  E     W                 
-----7--L------------|--L------------7--7--7--|--7----------------|
--L--7--L------------|--L--------/7--7--7--7--|--7----------------|
-----4--L------------|--L--------/4--4--4--4--|--4----------------|
---------------------|------------------------|-------------------|
---------------------|------------------------|-------------------|
---------------------|------------------------|-------------------|


  H.           Q       E   E    E   E    E   Q      E   
--L-----------------|----------10-------10---------10--|
--L-----------------|-----13b------13b------13b--------|
--L-----------------|----------------------------------|
--------------------|----------------------------------|
--------------------|----------------------------------|
--------------------|----------------------------------|


   Q      E   E   E  E   E   E      E   Q       E    E   Q       E   
---------10----------------------|----------------------------------|
--13b--------13--10--9-----------|-----12br-------------12br--------|
------------------------12--10~--|--x--12br----10h--12--12br----10--|
---------------------------------|----------------------------------|
---------------------------------|----------------------------------|
---------------------------------|----------------------------------|


   E   Q       E    E   Q     E       W                   H.            E  E   
---------------------------------|--7g7----------------|--L----------------7--|
------12br-------------12\----L--|--7g7----------------|--L------------/7--7--|
------12b-----10h--12--12\----L--|--4g4----------------|--L------------/4--4--|
--12-----------------------------|---------------------|----------------------|
---------------------------------|---------------------|----------------------|
---------------------------------|---------------------|----------------------|


  W                   H.           Q        Q      E   E    E   Q      E     
--7----------------|--L-----------------|---------14-------14---------------|
--7----------------|--L-----------------|--17b--------17b------17b----17pb--|
--4----------------|--L-----------------|-----------------------------------|
-------------------|--------------------|-----------------------------------|
-------------------|--------------------|-----------------------------------|
-------------------|--------------------|-----------------------------------|


   E     E     E     E     E     Q        E      E   Q      E   Q      E   E    
---------------------------------------------|-------------17---------17-------|
--17pb--17pb--17pb--17pb--17pb--17pbr----15--|------17b----17--17b----17--17b--|
---------------------------------------------|--16-----------------------------|
---------------------------------------------|---------------------------------|
---------------------------------------------|---------------------------------|
---------------------------------------------|---------------------------------|


   E   Q      E   Q    Q        E  E  H.              H.            E  E   
--17---------17--14----L\----|--L--7--L------------|--L----------------7--|
--17--17b----17--------------|-----7--L------------|--L------------/7--7--|
-----------------------------|-----4--L------------|--L------------/4-----|
-----------------------------|---------------------|----------------------|
-----------------------------|---------------------|----------------------|
-----------------------------|---------------------|----------------------|


  W                   H.           Q        E  E    E   E    E   E    E   E    
-------------------|--------------------|----------14-------14-------14-------|
--7----------------|--L-----------------|--17--Lb------17b------18b------18b--|
-------------------|--------------------|-------------------------------------|
-------------------|--------------------|-------------------------------------|
-------------------|--------------------|-------------------------------------|
-------------------|--------------------|-------------------------------------|


   E   Q    Q     E   E   E      E   E    E   E   E   Q      E   
--14--19----L----17--14------|--14-------14--15--17---------14--|
-------------------------17--|------17b--------------17b--------|
-----------------------------|----------------------------------|
-----------------------------|----------------------------------|
-----------------------------|----------------------------------|
-----------------------------|----------------------------------|


   E   S  S   E    E   E   Q        E        E  E  H.            
-----------------------------------------|------7--L------------|
--17b--L-17p-15h--17--15--17br----(17)\--|---L--7--L------------|
-----------------------------------------|------4--L------------|
-----------------------------------------|----------------------|
-----------------------------------------|----------------------|
-----------------------------------------|----------------------|


  W                   W                   W                  
--L----------------|--L----------------|--L----------------||
--L----------------|--L----------------|--L----------------||
--L----------------|--L----------------|--L----------------||
-------------------|-------------------|-------------------||
-------------------|-------------------|-------------------||
-------------------|-------------------|-------------------||




Duration Legend
---------------
W - whole
H - half
Q - quarter
E - 8th
S - 16th
T - 32nd
X - 64th
. - note dotted
|-n-|  - n-tuplets


Tablature Legend
----------------
L - tied note
x - dead note
g - grace note
(n) - ghost note
> - accentuded note
NH - natural harmonic
AH - artificial harmonic
TH - tapped harmonic
SH - semi harmonic
PH - pitch harmonic
h - hammer on
p - pull off
b - bend
br - bendRelease
pb - preBend
pbr - preBendRelease
brb - bendReleaseBend
\n/ - tremolo bar dip
\n - tremolo bar dive
-/n - tremolo bar Release up
/n\ - tremolo bar inverted dip
/n - tremolo bar return
-\n - tremolo bar Release down
S - shift slide
s - legato slide
/ -  slide into from below or out of upwards
\ -  slide into from above or out of downwards
~ - vibrato
W - wide vibrato
tr - trill
TP - tremolo picking
T - tapping
S - slap
P - pop
< - fade in
^ - brush up
v - brush down

a-smith_9lives@hotmail.com
comments
We did not receive enough feedback on this tab! Please rate:
print report bad tab
1 2 3 4 5
I want to post or [tab]
guest
You may want to rate the tab now too:
select rating
Please do not post tabs as comments. Select "correction" instead!