Oops, an error
Loading. Please wait.

One Way Street Tab

13,100 views 33 this week
no commentswrite comment
1 2 3 4 5
worth learning
x 4
Autoscroll
+/-
esc
set tempo
stop
Contributor
WARNING: You are trying to view
                                    content from Ultimate-Guitar.com
                                    in an unauthorized application,
                                    which is prohibited.

                                    Please use an official Ultimate
                                    Guitar Tabs application for iPhone,
                                    iPad or Android to access legitimate
                                    chords, guitar, bass, and drum tabs
                                    from Ultimate-Guitar.com database.

                                    Type "ultimate guitar tabs" in Apple
                                    App Store's or Android Market's
                                    search to find the application.
"One Way Street"
   by Aerosmith
   from "Aerosmith"(1973)

   intro(riff 1)-
      G#            G         
   E--4--4--4--x----3--3--x--3---3-3-3---|---6---------|
   B--4--4--4--x-x--3--3--x--3---3-3-3---|---6---------|
   G--5--5-------x--4--4--x--4---4-4-4---|---7---------|
   D--6--6----------5--5-----5---5-5-5---|---8---------|
   A-------------------------------------|---8---------|
   E-------------------------------------|---6---------|
   (riff 2)-
   E--------------------------------|-----------------|
   B--------------------------------|-----------------|
   G--3---8----/(5)-5/-(3)-3------8-|--5/(3)-3--------|
   D--3---8----/(5)-5/-(3)-3----5-8-|--5/(3)-3--------|
   A--1---6----/(3)-3/-(1)-1--1-3-6-|--3/(1)-1--1-2-3-|
   E--------------------------------|-----------------|

   verse riff(it varies, but most of it sounds like this):
   E--6--6----5--5----4--4----3--3--|----------------------------|
   B--6--6----5--5----4--4----3--3--|----6-----5-5-----4-4--3-3--|
   G--3--3----3--3----3--3----3--3--|--5-5b-r--4-4b-r--3-3--2-2--|
   D--------------------------------|----------------------------|
   A--------------------------------|----------------------------|
   E--------------------------------|----------------------------|

   solo-
   (guitar 1)
   E---------------------------------------------------------------|
   B---------------------------------------------------------------|
   G--16b-r-16b--r-16b-r-16b-16--16r-13------------16b--16-16r--13-|
   D------------------------------------15-15\17-------------------|
   A---------------------------------------------------------------|
   E---------------------------------------------------------------|

   E---------------------------------------------------------------|
   B---------------------------------------------------------------|
   G-----13----------------13-16-13----13--------------------------|
   D-15-----15-13----13-15----------15----15-13--------------13----|
   A--------------15----------------------------15p13-----15----15-|
   E---------------------------------------------------------------|

   E---------------------------------------------------------------|
   B--------------------------------------13-16p13----16p13----16p-|
   G--------------13----13-16-13----13-16----------16-------16-----|
   D-13-15-13-15-----15----------15--------------------------------|
   A---------------------------------------------------------------|
   E---------------------------------------------------------------|

   E---------------------------------------------------------------|
   B-13----16p13----16p13----16p13----16p13-------------16----16-18|
   G----16-------16-------16-------16-------16-13-16\18----18------|
   D---------------------------------------------------------------|
   A---------------------------------------------------------------|
   E---------------------------------------------------------------|

   E---------------------------------------------------------------|
   B-16-18-18b-r-18b-r-18b--r-18b--18-18r--------------------------|
   G--------------------------------------18-16-16-16-----16----16-|
   D---------------------------------------------------15----15----|
   A---------------------------------------------------------------|
   E---------------------------------------------------------------|

   E---------------------------------------------------------------|
   B------------------------------------------------13-------------|
   G----16-----15----15----15----13----13----13-12b----12r-10-12---|
   D-15-----14----14----14----13----13----13---------------------10|
   A---------------------------------------------------------------|
   E---------------------------------------------------------------|

   E---------------------------------------------------------------|
   B---------------------------11----------------------------------|
   G-9b-r-----9-11p9----9-11b-----11rp9----9--------------9----11b-|
   D------10---------10-----------------10----10--8--8-10---10-----|
   A---------------------------------------------------------------|
   E---------------------------------------------------------------|

   E-----------------|-------------------------------|
   B-----------------|-------------------------------|
   G-11r-9-----------|-------------------------------|
   D-------10p8-8----|-10--(8)--10--(8)-10---13--12--|
   A--------------10-|-10--(8)--10--(8)-10---13--12--|
   E-----------------|--8--------8-------8---11--10--|

   (guitar 2)
   E---------------------------------------------------------------|
   B----------------4----6----7----8----10--10b~~~~~~rp9p8---------|
   G------------3-5---5-----6----7----9---------------------9----9-|
   D------1-3\5-----------------------------------------------10---|
   A-1\3-----------------------------------------------------------|
   E---------------------------------------------------------------|
                                *gtr.switches to left side
   E----------8-----------------------------------------11b--11r-8-|
   B--------8---10------10b-r--------------------------------------|
   G-10b--r-------------------9------9-11b--11--11r----------------|
   D----------------10-----------10----------------(10)------------|
   A---------------------------------------------------------------|
   E---------------------------------------------------------------|

   E----11-8----8--------------------------------------------------|
   B-11------11---11p8------8-11-----------------------------------|
   G-------------------11-9-------11b-r-9b-r-8b-r-6--4---3-5b-r-5--|
   D---------------------------------------------------5-----------|
   A---------------------------------------------------------------|
   E---------------------------------------------------------------|

   E------------------------------------------------10b--10--r--8--|
   B-----------6---4b-r-0-4----6b-r-6-(6)\10b-10r-8----------------|
   G-(3---3)-5---5------5---5--------------------------------------|
   D----5----------------------------------------------------------|
   A---------------------------------------------------------------|
   E---------------------------------------------------------------|


   (guitar 1)
   E---------------------------------------------------------------|
   B---------------------------------------8\10~~~~~~--9b---9rp7---|
   G---------------------------8--11--9--8-----------------------9-|
   D-----------------7--10--8--------------------------------------|
   A-------7--10--8------------------------------------------------|
   E--6\8----------------------------------------------------------|

   E------------------10b-10r-8-----8-12-12b-r12b--12r-------------|
   B-10b-10rp9p8-10-8----------(10)--------------------13p11-13----|
   G------------------------------------------------------------13-|
   D---------------------------------------------------------------|
   A---------------------------------------------------------------|
   E---------------------------------------------------------------|

   E---------------------------------------------------------------|
   B--11/10----10p9----10-11p10------------------------------------|
   G--------11------11----------11p9-11p9----9---------------------|
   D--------------------------------------10---10p9p8----8-10-8----|
   A--------------------------------------------------10--------10-|
   E---------------------------------------------------------------|
                                                    |----P.M.-----|  
   E---------------------------------------------------------------|
   B---------------------------------------------------------------|
   G-------------------------------------------------5-5-5-5-5-5p3-|
   D-----10p8----8-------------------------------------------------|
   A-9-8------10---10p9p8-6h8p6-6h8p8---6-8-6-8-6~~~---------------|
   E----------------------------------8----------------------------|
    |-----P.M-----|
   E---------------------------------------------|
   B---------------------------------------------|
   G---------------------------------------------|
   D-5-5-5-5-5-5p3---------------------------3---|
   A----------------3-3-3-3-3-3--3---3-6p3-6-----|
   E-------------------------------6-------------|
                    |--P.M--|
   E--6--5--3--5--3----------|
   B--6--5--4--5--4--4--4--4-|
   G--3--3--3--3--3--3--3--3-|
   D-------------------------|
   A-------------------------|
   E-------------------------|
   lead gtr(fill 1)-
   E---------------------------------------------------------------|
   B---------------------------------------------------------------|
   G--8b-r-8b-r-8b-r--9\10b-r-10b-r-10b-r-10b-r--11b---r-13--b---r-|
   D---------------------------------------------------------------|
   A---------------------------------------------------------------|
   E---------------------------------------------------------------|

   E-----------------|
   B-----------------|
   G-15b--------r----|
   D-----------------|
   A-----------------|
   E-----------------|

   (fill 2)
   E---------------------------------------------|
   B-------------------------------------8/------|
   G-------------------------------------9/------|
   D----------8-9-10----------8-9-10----10/------|
   A--8-9-10----------8-9-10------------10/------|
   E-------------------------------------8/------|

Symbols used in transcription:
h = hammer-on
p = pull-off
b = bend
r = release
\ = slide
~ = vibrato
P.M. = palm mute




comments
print report bad tab
I want to post or [tab]
guest
You may want to rate the tab now too:
select rating
Please do not post tabs as comments. Select "correction" instead!