Oops, an error
Loading. Please wait.

Pink Tab

ver2
ver2

Whole song

More versions @911Tabs.com
19,873 views 33 this week
4 commentsread comments
1 2 3 4 5
excellent!
x 1
Autoscroll
+/-
esc
set tempo
stop
Contributor
WARNING: You are trying to view
                                    content from Ultimate-Guitar.com
                                    in an unauthorized application,
                                    which is prohibited.

                                    Please use an official Ultimate
                                    Guitar Tabs application for iPhone,
                                    iPad or Android to access legitimate
                                    chords, guitar, bass, and drum tabs
                                    from Ultimate-Guitar.com database.

                                    Type "ultimate guitar tabs" in Apple
                                    App Store's or Android Market's
                                    search to find the application.
#----------------------------------PLEASE NOTE---------------------------------#
#This file is the author's own work and represents their interpretation of the #
#song. You may only use this file for private study, scholarship, or research. #
#------------------------------------------------------------------------------#

PINK
As recorded by Aerosmith

Transcribed by Mike da Man


Gtr I (E A D G B E) - 'Gtr. 1'
Gtr II (E A D G B E) - 'Gtr. 2'
Gtr III (E A D G B E) - 'Gtr. 3'
Gtr IV (E A D G B E) - 'Gtr. 4'
Gtr V (D G D G B D) - 'Gtr. 5'
Gtr VI (E A D G B E) - 'Gtr. 6'

  Q=88
 4/4
  Gtr II
  E   E   E   S S E   E    E    E     E   E   E   S S T   S. E   S E   S
|---------3---3-3----------3----3---|---------3---3-3------------3-3---3-|
|---------3---3-3----------3----3---|---------3---3-3------------3-3---3-|
|---------0---0-0----------0----0---|---------0---0-0--------------------|
|---------0---0-0----------0----0---|-----2------------------4-----------|
|-----2-----------------------------|-3---3-----------2s==5--------------|
|-3---3-----------1---1-------------|------------------------------------|
|
| Gtr IV
| E   E   E   S S E   E    E    E     E   E   E   S S E      E   E   S S
|-3---3---3---3-3-3---3----3----3---|-3---3---3---3-3-5------5---5---5-5-|
|-3---3---3---3-3-3---3----3----3---|-3---3---3---3-3-3------3---3---3-3-|
|-0---0---0---0-0-0---0----0----0---|-0---0---0---0-0-0------0---0---0-0-|
|-0---0---0---0-0-0---0----0----0---|-2---2---2---2-2-4------4---4---4-4-|
|-2---2---2---2-2-x---x----x----x---|-3---3---3---3-3-5------5---5---5-5-|
|-3---3---3---3-3-1---1----1----1---|------------------------------------|
|
| Gtr III
| E   S S E   S S E   S S +S  S S S   E   S S E   S S E      S S S S S S
|-----3-3-----3-3-----3-3-(3)-3---3-|-----3-3-----3-3--------3-3-3-3-3-3-|
|-----3-3-----3-3-----3-3-(3)-3---3-|-----3-3-----3-3--------3-3-3-3-3-3-|
|-5b7-----5b7-----5b7---------------|-5b7-----5b7-----5b7----------------|
|-------------------------------5---|------------------------------------|
|-----------------------------------|------------------------------------|
|-----------------------------------|------------------------------------|


  E   E   E   S S E   E E     E     E   E   E     S S T   S.   E   S E   S
|---------3---3-3-------3-----3---|---------3-----3-3--------------3-3---3-|
|---------3---3-3-------3-----3---|---------3-----3-3--------------3-3---3-|
|---------0---0-0-------0-----0---|---------0-----0-0----------------------|
|---------0---0-0-------0-----0---|-----2----------------------4-----------|
|-----2---------------------------|-3---3-------------2s==5----------------|
|-3---3-----------1---1-----------|----------------------------------------|
|
| E   E   E   S S E   E E     E     E   E   E     S S E        E   E   S S
|-3---3---3---3-3-3---3-3-----3---|-3---3---3-----3-3-5--------5---5---5-5-|
|-3---3---3---3-3-3---3-3-----3---|-3---3---3-----3-3-3--------3---3---3-3-|
|-0---0---0---0-0-0---0-0-----0---|-0---0---0-----0-0-0--------0---0---0-0-|
|-0---0---0---0-0-0---0-0-----0---|-2---2---2-----2-2-4--------4---4---4-4-|
|-2---2---2---2-2-x---x-x-----x---|-3---3---3-----3-3-5--------5---5---5-5-|
|-3---3---3---3-3-1---1-1-----1---|----------------------------------------|
|
| E   S S E   S S E   E S   S S S   E   S S S   S S S S      S S S S S S S
|-----3-3-----3-3-----3-----3-3---|-----3-3-----3-3-3--------3-3-3-3-3-3-3-|
|-----3-3-----3-3-----3-----3-3-5-|-----3-3-----3-3-3--------3-3-3-3-3-3-3-|
|-5b7-----5b7-----5b7---5b7-------|-5b7-----5b7-------5b7------------------|
|---------------------------------|----------------------------------------|
|---------------------------------|----------------------------------------|
|---------------------------------|----------------------------------------|


  E   E   E   S S E   E    E    E
|---------3---3-3----------3----3---|
|---------3---3-3----------3----3---|
|---------0---0-0----------0----0---|
|---------0---0-0----------0----0---|
|-----2-----------------------------|
|-3---3-----------1---1-------------|
|
| E   E   E   S S E   E    E    E
|-3---3---3---3-3-3---3----3----3---|
|-3---3---3---3-3-3---3----3----3---|
|-0---0---0---0-0-0---0----0----0---|
|-0---0---0---0-0-0---0----0----0---|
|-2---2---2---2-2-x---x----x----x---|
|-3---3---3---3-3-1---1----1----1---|
|
| E   S S E   S S E   S S +S  S S S
|-----3-3-----3-3-----3-3-(3)-3-3-3-|
|-----3-3-----3-3-----3-3-(3)-3-3-3-|
|-5b7-----5b7-----5b7---------------|
|-----------------------------------|
|-----------------------------------|
|-----------------------------------|


  E   E   E   S S T   S. E   S E   S   E E    E E    E E E   E
|---------3---3-3------------3-3---0-|-0-0----0-0----0-0-0---0----|
|---------3---3-3------------3-3---0-|-0-0----0-0----0-0-0---0----|
|---------0---0-0--------------------|-0-0----0-0----0-0-0---0----|
|-----2------------------4-----------|-2-2----2-2----2-2-2---2----|
|-3---3-----------2s==5--------------|-2-2----2-2----2-2-2---2----|
|------------------------------------|-0-0----0-0----0-0-0---0----|
|
| E   E   E   S S E      E   E   S S   E E    E E    E E E   E
|-3---3---3---3-3-5------5---5---5-5-|-0-0----0-0----0-0-0---0----|
|-3---3---3---3-3-3------3---3---3-3-|-0-0----0-0----0-0-0---0----|
|-0---0---0---0-0-0------0---0---0-0-|-0-0----0-0----0-0-0---0----|
|-2---2---2---2-2-4------4---4---4-4-|-2-2----2-2----2-2-2---2----|
|-3---3---3---3-3-5------5---5---5-5-|-2-2----2-2----2-2-2---2----|
|------------------------------------|-0-0----0-0----0-0-0---0----|
|
| E   S S E   S S E      E   S S S S   E S E.   S E.   E S S S S
|-----3-3-----3-3------------3-3-3-3-|-----3------3------3-3-3-3--|
|-----3-3-----3-3------------3-3-3-3-|-3-3------3------3-3-3-3-3--|
|-5b7-----5b7-----5b7----5b7---------|-0-0------0------0-0-0-0-0--|
|------------------------------------|----------------------------|
|------------------------------------|----------------------------|
|------------------------------------|----------------------------|


  Gtrs I, II, IV
  E E    E E    E E E   E     E E    E E    E E E   E
|-0-0----0-0----0-0-0---0---|-3-3----3-3----3-3-3---3---|
|-2-2----2-2----2-2-2---2---|-1-1----1-1----1-1-1---1---|
|-0-0----0-0----0-0-0---0---|-0-0----0-0----0-0-0---0---|
|-2-2----2-2----2-2-2---2---|-x-x----x-x----x-x-x---x---|
|-0-0----0-0----0-0-0---0---|-x-x----x-x----x-x-x---x---|
|---------------------------|-1-1----1-1----1-1-1---1---|
|
| Gtr III
| E S E.   S E.   E S S S S   E S E.   S E.   E S S S S
|-----3------0------3-3-3-3-|-----3------3------3-3-3-3-|
|-2-2------3------3-2-2-2-2-|-1-1------1------1-1-1-1-1-|
|-0-0------0--------0-0-0-0-|-0-0------0------0-0-0-0-0-|
|---------------------------|---------------------------|
|---------------------------|---------------------------|
|---------------------------|---------------------------|


  E E    E S S  S S E E   E
|-3-3----3-3-3--3-3-3-3---3---|
|-1-1----1-1-1--1-1-1-1---1---|
|-0-0----0-0-0--0-0-0-0---0---|
|-x-x----x-x-x--x-x-x-x---x---|
|-x-x----x-x-x--x-x-x-x---x---|
|-1-1----1-1-1--1-1-1-1---1---|
|
| E S E.   S E.     E S S S S
|-----3------3--------3-3-3-3-|
|---1------1--------1-1-1-1-1-|
|---0------0--------0-0-0-0-0-|
|-0---------------------------|
|-----------------------------|
|-----------------------------|


  Gtr III
  W                      W                          W
|-3--------------------|--------------------------|-----------------------|
|-3--------------------|--------------------------|-----------------------|
|-0--------------------|--------------------------|-----------------------|
|-0--------------------|--------------------------|-----------------------|
|----------------------|--------------------------|-----------------------|
|-3--------------------|--------------------------|-----------------------|
|
| Gtr I
| E E E. S S S E E S S   E E E S S T S. E S S S S   E E E. S S S E S S E
|-----3----------------|---------3----------5-----|-----3-----------------|
|-----3----------------|-----3---3--------5-5-----|-----3-----------------|
|-----0----------0-----|-----0------------0-----0-|-----0----------0------|
|-----0----------0-----|---2---2--------4-----4---|-----0----------0------|
|---2--------3-----0-2-|-3---------3s5------------|-----2------3-----0-2--|
|-3-3----3-1---1-------|--------------------------|-3-3----3-1---1--------|


  Gtr I
  E E E S S T S. E S S S S   E E E. S E E E S S   E E E S S T S. E S S S S
|-----5-3-3----------5-----|-----3--------------|-------3-3----------0-----|
|-----3---3--------5-5-----|-----3--------------|-----3-3-3--------0-0---0-|
|-----0------------0-----0-|-----0--------0-----|-----0------------0-0---0-|
|---2------------4-----4---|-----0--------0-----|---2------------4-----4---|
|-3---------3s5------------|---2------------0-2-|-3---------3s5------------|
|--------------------------|-3-3----3-1-1-------|--------------------------|


  Gtr III
  W                      W                      Q   E. S E   E.   S S S
|----------------------|----------------------|-------------------------|
|----------------------|----------------------|-------------------------|
|----------------------|----------------------|-------------------------|
|----------------------|----------------------|--------0----------0-----|
|----------------------|----------------------|-----2---------------0-2-|
|----------------------|----------------------|-3---3----1---1----------|
|
| Gtr I
| E E E. S S S E E S S   E E E E T S. E E S S   E E E. S S S E  E   S S
|-----3----------------|-----3----------------|-----3-------------------|
|-----3----------------|-----3----------5-----|-----3-------------------|
|-----0----------0-----|-----0----------0---0-|-----0-----------0-------|
|-----0------0---0-----|---2---2------4---4---|-----0-----------0-------|
|------------------0-2-|-3-------3s5----------|---2--------3--------0-2-|
|-3-3----3-1---1-------|----------------------|-3-3----3-1---1----------|


  E E E.   S T S. E S E   S
|---------------------0-----|
|-----3---------------3-----|
|-----0-------------0-----0-|
|---2------2------4---------|
|-3----------3s5------------|
|---------------------------|
|
| E E E  S S T S. E S S S S
|----------3----------5-----|
|-----3----3--------5-5-----|
|-----0-------------0-----0-|
|---2----2--------4-----4---|
|-3----------3s5------------|
|---------------------------|


  Q   E. S E   E.   S S S   E E E.   S T S. E S E   S
|-------------------------|---------------------0-----|
|-------------------------|-----3---------------3-----|
|-------------------------|-----0-------------0-----0-|
|--------0----------0-----|---2------2------4---------|
|-----2---------------0-2-|-3----------3s5------------|
|-3---3----1---1----------|---------------------------|
|
| E E E. S S S E  S S E     E E E  S S T S. E S S S S
|-----3-------------------|-----5--3-3----------5-----|
|-----3-------------------|-----3----3--------5-5-----|
|-----0-----------0-------|-----0-------------0-----0-|
|-----0-----------0-------|---2-------------4-----4---|
|-----2------3------0-2---|-3----------3s5------------|
|-3-3----3-1---1----------|---------------------------|


  Q   E. S E E.   S S S   E E E.   S T S. E S E   S   Q   E. S E   E.   S S S
|-----------------------|---------------------0-----|-------------------------|
|-----------------------|-----3---------------3-----|-------------------------|
|-----------------------|-----0-------------0-----0-|-------------------------|
|--------0--------0-----|---2------2------4---------|--------0----------0-----|
|-----2-------------0-2-|-3----------3s5------------|-----2---------------0-2-|
|-3---3----1-1----------|---------------------------|-3---3----1---1----------|
|
| E E E. S E E  E   S S   E E E  S S T S. E S S S S   E E E. S S S E  E   S S
|-----3-----------------|--------3-3----------0-----|-----3-------------------|
|-----3-----------------|-----3--3-3--------0-0---0-|-----3-------------------|
|-----0---------0-------|-----0-------------0-0---0-|-----0-----------0-------|
|-----0---------0-------|---2-------------4-----4---|-----0------0----0-------|
|---2---------------0-2-|-3----------3s5------------|---------------------0-2-|
|-3-3----3-1-1----------|---------------------------|-3-3----3-1---1----------|


  Gtr II
  H        T S. E S S E     E   E   E   S S E   E    E    E
|-------------------------|---------3---3-3----------3----3---|
|-------------------------|---------3---3-3----------3----3---|
|-----------------0-0-----|---------0---0-0----------0----0---|
|---------------4-----4---|---------0---0-0----------0----0---|
|----------3s5------------|-----2-----------------------------|
|-------------------------|-3---3-----------1---1-------------|
|
| Gtr IV
| W                         E   E   E   S S E   E    E    E
|-------------------------|-3---3---3---3-3-3---3----3----3---|
|-------------------------|-3---3---3---3-3-3---3----3----3---|
|-------------------------|-0---0---0---0-0-0---0----0----0---|
|-------------------------|-0---0---0---0-0-0---0----0----0---|
|-------------------------|-2---2---2---2-2-x---x----x----x---|
|-------------------------|-3---3---3---3-3-1---1----1----1---|
|
| Gtr III
| E E E. S T S. E S E   S   E   S S E   S S E   S S +S  S S S
|-------------------0-----|-----3-3-----3-3-----3-3-(3)-3---3-|
|-----3-------------3-----|-----3-3-----3-3-----3-3-(3)-3---3-|
|-----0-----------0-----0-|-5b7-----5b7-----5b7---------------|
|---2----2------4---------|-------------------------------5---|
|-3--------3s5------------|-----------------------------------|
|-------------------------|-----------------------------------|


  E   E   E   S S T   S. E   S E   S
|---------3---3-3------------3-3---3--|
|---------3---3-3------------3-3---3--|
|---------0---0-0---------------------|
|-----2------------------4------------|
|-3---3-----------2s==5---------------|
|-------------------------------------|
|
| E   E   E   S S E      E   E   S S
|-3---3---3---3-3-5------5---5---5-5--|
|-3---3---3---3-3-3------3---3---3-3--|
|-0---0---0---0-0-0------0---0---0-0--|
|-2---2---2---2-2-4------4---4---4-4--|
|-3---3---3---3-3-5------5---5---5-5--|
|-------------------------------------|
|
| E   S S E   S S E      S S S S S S
|-----3-3-----3-3--------3-3-3-3-3-3--|
|-----3-3-----3-3--------3-3-3-3-3-3--|
|-5b7-----5b7-----5b7-----------------|
|-------------------------------------|
|-------------------------------------|
|-------------------------------------|


  E   E   E   S S E   E E     E     E   E   E     S S T   S.   E   S E   S
|---------3---3-3-------3-----3---|---------3-----3-3--------------3-3---3-|
|---------3---3-3-------3-----3---|---------3-----3-3--------------3-3---3-|
|---------0---0-0-------0-----0---|---------0-----0-0----------------------|
|---------0---0-0-------0-----0---|-----2----------------------4-----------|
|-----2---------------------------|-3---3-------------2s==5----------------|
|-3---3-----------1---1-----------|----------------------------------------|
|
| E   E   E   S S E   E E     E     E   E   E     S S E        E   E   S S
|-3---3---3---3-3-3---3-3-----3---|-3---3---3-----3-3-5--------5---5---5-5-|
|-3---3---3---3-3-3---3-3-----3---|-3---3---3-----3-3-3--------3---3---3-3-|
|-0---0---0---0-0-0---0-0-----0---|-0---0---0-----0-0-0--------0---0---0-0-|
|-0---0---0---0-0-0---0-0-----0---|-2---2---2-----2-2-4--------4---4---4-4-|
|-2---2---2---2-2-x---x-x-----x---|-3---3---3-----3-3-5--------5---5---5-5-|
|-3---3---3---3-3-1---1-1-----1---|----------------------------------------|
|
| E   S S E   S S E   E S   S S S   E   S S S   S S S S      S S S S S S S
|-----3-3-----3-3-----3-----3-3---|-----3-3-----3-3-3--------3-3-3-3-3-3-3-|
|-----3-3-----3-3-----3-----3-3-5-|-----3-3-----3-3-3--------3-3-3-3-3-3-3-|
|-5b7-----5b7-----5b7---5b7-------|-5b7-----5b7-------5b7------------------|
|---------------------------------|----------------------------------------|
|---------------------------------|----------------------------------------|
|---------------------------------|----------------------------------------|


  E   E   E   S S E   E    E    E
|---------3---3-3----------3----3---|
|---------3---3-3----------3----3---|
|---------0---0-0----------0----0---|
|---------0---0-0----------0----0---|
|-----2-----------------------------|
|-3---3-----------1---1-------------|
|
| E   E   E   S S E   E    E    E
|-3---3---3---3-3-3---3----3----3---|
|-3---3---3---3-3-3---3----3----3---|
|-0---0---0---0-0-0---0----0----0---|
|-0---0---0---0-0-0---0----0----0---|
|-2---2---2---2-2-x---x----x----x---|
|-3---3---3---3-3-1---1----1----1---|
|
| E   S S E   S S E   S S +S  S S S
|-----3-3-----3-3-----3-3-(3)-3-3-3-|
|-----3-3-----3-3-----3-3-(3)-3-3-3-|
|-5b7-----5b7-----5b7---------------|
|-----------------------------------|
|-----------------------------------|
|-----------------------------------|


  E   E   E   S S T   S. E   S E   S   E E    E E    E E E   E
|---------3---3-3------------3-3---0-|-0-0----0-0----0-0-0---0----|
|---------3---3-3------------3-3---0-|-0-0----0-0----0-0-0---0----|
|---------0---0-0--------------------|-0-0----0-0----0-0-0---0----|
|-----2------------------4-----------|-2-2----2-2----2-2-2---2----|
|-3---3-----------2s==5--------------|-2-2----2-2----2-2-2---2----|
|------------------------------------|-0-0----0-0----0-0-0---0----|
|
| E   E   E   S S E      E   E   S S   E E    E E    E E E   E
|-3---3---3---3-3-5------5---5---5-5-|-0-0----0-0----0-0-0---0----|
|-3---3---3---3-3-3------3---3---3-3-|-0-0----0-0----0-0-0---0----|
|-0---0---0---0-0-0------0---0---0-0-|-0-0----0-0----0-0-0---0----|
|-2---2---2---2-2-4------4---4---4-4-|-2-2----2-2----2-2-2---2----|
|-3---3---3---3-3-5------5---5---5-5-|-2-2----2-2----2-2-2---2----|
|------------------------------------|-0-0----0-0----0-0-0---0----|
|
| E   S S E   S S E      E   S S S S   E S E.   S E.   E S S S S
|-----3-3-----3-3------------3-3-3-3-|-----3------3------3-3-3-3--|
|-----3-3-----3-3------------3-3-3-3-|-3-3------3------3-3-3-3-3--|
|-5b7-----5b7-----5b7----5b7---------|-0-0------0------0-0-0-0-0--|
|------------------------------------|----------------------------|
|------------------------------------|----------------------------|
|------------------------------------|----------------------------|


  Gtrs I, II, IV
  E E    E E    E E E   E     E E    E E    E E E   E
|-0-0----0-0----0-0-0---0---|-3-3----3-3----3-3-3---3---|
|-2-2----2-2----2-2-2---2---|-1-1----1-1----1-1-1---1---|
|-0-0----0-0----0-0-0---0---|-0-0----0-0----0-0-0---0---|
|-2-2----2-2----2-2-2---2---|-x-x----x-x----x-x-x---x---|
|-0-0----0-0----0-0-0---0---|-x-x----x-x----x-x-x---x---|
|---------------------------|-1-1----1-1----1-1-1---1---|
|
| Gtr III
| E S E.   S E.   E S S S S   E S E.   S E.   E S S S S
|-----3------0------3-3-3-3-|-----3------3------3-3-3-3-|
|-2-2------3------3-2-2-2-2-|-1-1------1------1-1-1-1-1-|
|-0-0------0--------0-0-0-0-|-0-0------0------0-0-0-0-0-|
|---------------------------|---------------------------|
|---------------------------|---------------------------|
|---------------------------|---------------------------|


  E E    E S S  S S E E   E
|-3-3----3-3-3--3-3-3-3---3---|
|-1-1----1-1-1--1-1-1-1---1---|
|-0-0----0-0-0--0-0-0-0---0---|
|-x-x----x-x-x--x-x-x-x---x---|
|-x-x----x-x-x--x-x-x-x---x---|
|-1-1----1-1-1--1-1-1-1---1---|
|
| E S E.   S E.     E S S S S
|-----3------3--------3-3-3-3-|
|---1------1--------1-1-1-1-1-|
|---0------0--------0-0-0-0-0-|
|-0---------------------------|
|-----------------------------|
|-----------------------------|


  Gtr III                Gtr V
                                           ~~
  W                      E T S. E E   E    Q.           W
|-3--------------------|--------5---------------------|----------------------|
|-3--------------------|------------------------------|----------------------|
|-0--------------------|---4s5----5---5s===7----------|----------------------|
|-0--------------------|------------------------------|----------------------|
|----------------------|------------------------------|----------------------|
|-3--------------------|------------------------------|----------------------|
|
| Gtr I
| E E E. S S S E E S S   E E    E S S T S. E  S S S S   E E E. S S S E S S E
|-----3----------------|------------3-----------5-----|-----3----------------|
|-----3----------------|--------3---3---------5-5-----|-----3----------------|
|-----0----------0-----|--------0-------------0-----0-|-----0----------0-----|
|-----0----------0-----|---2------2--------4------4---|-----0----------0-----|
|---2--------3-----0-2-|-3------------3s5-------------|-----2------3-----0-2-|
|-3-3----3-1---1-------|------------------------------|-3-3----3-1---1-------|


  W                          W
|--------------------------|--------------------|
|--------------------------|--------------------|
|--------------------------|--------------------|
|--------------------------|--------------------|
|--------------------------|--------------------|
|--------------------------|--------------------|
|
| E E E S S T S. E S S S S   E E E. S E E E S S
|-----5-3-3----------5-----|-----3--------------|
|-----3---3--------5-5-----|-----3--------------|
|-----0------------0-----0-|-----0--------0-----|
|---2------------4-----4---|-----0--------0-----|
|-3---------3s5------------|---2------------0-2-|
|--------------------------|-3-3----3-1-1-------|


                   ~~
  T S. E S S S  S  E    E Q
|---------------------------------|
|-4s5----x-x-x-<5>------7---------|
|------5-----------7--------------|
|---------------------------------|
|---------------------------------|
|---------------------------------|
|
| E    E E   S  S  T S. E S S S S
|------------3--3-----------0-----|
|--------3---3--3---------0-0---0-|
|--------0----------------0-0---0-|
|------2----------------4-----4---|
|-3----------------3s5------------|
|---------------------------------|


  W                       Q.     E  E    E E T S.
|-----------------------|---------------------------|
|-2/--------------------|-8s====12-------3s7-6s7----|
|-2/--------------------|-8s====12-12\-------6s7----|
|-----------------------|---------------------------|
|-----------------------|---------------------------|
|-----------------------|---------------------------|
|
| E  E E. S S S E E S S   E E E  E  T S. E E S    S
|------3----------------|-----3---------------------|
|------3----------------|-----3------------5--------|
|------0----------0-----|-----0------------0------0-|
|------0------0---0-----|---2----2-------4---4------|
|-------------------0-2-|-3---------3s5-------------|
|-3--3----3-1---1-------|---------------------------|


  Gtr III
  E   S S E   S S E   S S +S  S S S
|-----3-3-----3-3-----3-3-(3)-3---3--|
|-----3-3-----3-3-----3-3-(3)-3---3--|
|-5b7-----5b7-----5b7----------------|
|-------------------------------5----|
|------------------------------------|
|------------------------------------|
|
| Gtrs I, II, IV
| E   E   E   S S E   E    E    E
|---------3---3-3----------3----3----|
|---------3---3-3----------3----3----|
|---------0---0-0----------0----0----|
|---------0---0-0----------0----0----|
|-----2------------------------------|
|-3---3-----------1---1--------------|


  Gtr II
  E   E   E   S S T   S. E   S E   S   E   E   E   S S E   E E     E
|---------3---3-3------------3-3---3-|---------3---3-3-------3-----3----|
|---------3---3-3------------3-3---3-|---------3---3-3-------3-----3----|
|---------0---0-0--------------------|---------0---0-0-------0-----0----|
|-----2------------------4-----------|---------0---0-0-------0-----0----|
|-3---3-----------2s==5--------------|-----2----------------------------|
|------------------------------------|-3---3-----------1---1------------|
|
| Gtr IV
| E   E   E   S S E      E   E   S S   E   E   E   S S E   E E     E
|-3---3---3---3-3-5------5---5---5-5-|-3---3---3---3-3-3---3-3-----3----|
|-3---3---3---3-3-3------3---3---3-3-|-3---3---3---3-3-3---3-3-----3----|
|-0---0---0---0-0-0------0---0---0-0-|-0---0---0---0-0-0---0-0-----0----|
|-2---2---2---2-2-4------4---4---4-4-|-0---0---0---0-0-0---0-0-----0----|
|-3---3---3---3-3-5------5---5---5-5-|-2---2---2---2-2-x---x-x-----x----|
|------------------------------------|-3---3---3---3-3-1---1-1-----1----|
|
| Gtr III
| E   S S E   S S E      S S S S S S   E   S S E   S S E   E S   S S S
|-----3-3-----3-3--------3-3-3-3-3-3-|-----3-3-----3-3-----3-----3-3----|
|-----3-3-----3-3--------3-3-3-3-3-3-|-----3-3-----3-3-----3-----3-3-5--|
|-5b7-----5b7-----5b7----------------|-5b7-----5b7-----5b7---5b7--------|
|------------------------------------|----------------------------------|
|------------------------------------|----------------------------------|
|------------------------------------|----------------------------------|


  E   E   E     S S T   S.   E   S E   S   E   E   E   S S E   E    E    E
|---------3-----3-3--------------3-3---3-|---------3---3-3----------3----3---|
|---------3-----3-3--------------3-3---3-|---------3---3-3----------3----3---|
|---------0-----0-0----------------------|---------0---0-0----------0----0---|
|-----2----------------------4-----------|---------0---0-0----------0----0---|
|-3---3-------------2s==5----------------|-----2-----------------------------|
|----------------------------------------|-3---3-----------1---1-------------|
|
| E   E   E     S S E        E   E   S S   E   E   E   S S E   E    E    E
|-3---3---3-----3-3-5--------5---5---5-5-|-3---3---3---3-3-3---3----3----3---|
|-3---3---3-----3-3-3--------3---3---3-3-|-3---3---3---3-3-3---3----3----3---|
|-0---0---0-----0-0-0--------0---0---0-0-|-0---0---0---0-0-0---0----0----0---|
|-2---2---2-----2-2-4--------4---4---4-4-|-0---0---0---0-0-0---0----0----0---|
|-3---3---3-----3-3-5--------5---5---5-5-|-2---2---2---2-2-x---x----x----x---|
|----------------------------------------|-3---3---3---3-3-1---1----1----1---|
|
| E   S S S   S S S S      S S S S S S S   E   S S E   S S E   S S +S  S S S
|-----3-3-----3-3-3--------3-3-3-3-3-3-3-|-----3-3-----3-3-----3-3-(3)-3-3-3-|
|-----3-3-----3-3-3--------3-3-3-3-3-3-3-|-----3-3-----3-3-----3-3-(3)-3-3-3-|
|-5b7-----5b7-------5b7------------------|-5b7-----5b7-----5b7---------------|
|----------------------------------------|-----------------------------------|
|----------------------------------------|-----------------------------------|
|----------------------------------------|-----------------------------------|


  E   E   E   S S T   S. E   S E   S
|---------3---3-3------------3-3---0-|
|---------3---3-3------------3-3---0-|
|---------0---0-0--------------------|
|-----2------------------4-----------|
|-3---3-----------2s==5--------------|
|------------------------------------|
|
| E   E   E   S S E      E   E   S S
|-3---3---3---3-3-5------5---5---5-5-|
|-3---3---3---3-3-3------3---3---3-3-|
|-0---0---0---0-0-0------0---0---0-0-|
|-2---2---2---2-2-4------4---4---4-4-|
|-3---3---3---3-3-5------5---5---5-5-|
|------------------------------------|
|
| E   S S E   S S E      E   S S S S
|-----3-3-----3-3------------3-3-3-3-|
|-----3-3-----3-3------------3-3-3-3-|
|-5b7-----5b7-----5b7----5b7---------|
|------------------------------------|
|------------------------------------|
|------------------------------------|


  E E    E E    E E E   E     E E    E E    E E E   E
|-0-0----0-0----0-0-0---0---|-0-0----0-0----0-0-0---0---|
|-0-0----0-0----0-0-0---0---|-2-2----2-2----2-2-2---2---|
|-0-0----0-0----0-0-0---0---|-0-0----0-0----0-0-0---0---|
|-2-2----2-2----2-2-2---2---|-2-2----2-2----2-2-2---2---|
|-2-2----2-2----2-2-2---2---|-0-0----0-0----0-0-0---0---|
|-0-0----0-0----0-0-0---0---|---------------------------|
|
| E E    E E    E E E   E     E E    E E    E E E   E
|-0-0----0-0----0-0-0---0---|-0-0----0-0----0-0-0---0---|
|-0-0----0-0----0-0-0---0---|-2-2----2-2----2-2-2---2---|
|-0-0----0-0----0-0-0---0---|-0-0----0-0----0-0-0---0---|
|-2-2----2-2----2-2-2---2---|-2-2----2-2----2-2-2---2---|
|-2-2----2-2----2-2-2---2---|-0-0----0-0----0-0-0---0---|
|-0-0----0-0----0-0-0---0---|---------------------------|
|
| E S E.   S E.   E S S S S   E S E.   S E.   E S S S S
|-----3------3------3-3-3-3-|-----3------0------3-3-3-3-|
|-3-3------3------3-3-3-3-3-|-2-2------3------3-2-2-2-2-|
|-0-0------0------0-0-0-0-0-|-0-0------0--------0-0-0-0-|
|---------------------------|---------------------------|
|---------------------------|---------------------------|
|---------------------------|---------------------------|


  Gtr VI
  W                           W
|---------------------------|-----------------------------|
|---------------------------|-----------------------------|
|---------------------------|-----------------------------|
|---------------------------|-----------------------------|
|---------------------------|-----------------------------|
|---------------------------|-----------------------------|
|
| Gtrs I, II, IV
| E E    E E    E E E   E     E E    E S S  S S E E   E
|-3-3----3-3----3-3-3---3---|-3-3----3-3-3--3-3-3-3---3---|
|-1-1----1-1----1-1-1---1---|-1-1----1-1-1--1-1-1-1---1---|
|-0-0----0-0----0-0-0---0---|-0-0----0-0-0--0-0-0-0---0---|
|-x-x----x-x----x-x-x---x---|-x-x----x-x-x--x-x-x-x---x---|
|-x-x----x-x----x-x-x---x---|-x-x----x-x-x--x-x-x-x---x---|
|-1-1----1-1----1-1-1---1---|-1-1----1-1-1--1-1-1-1---1---|
|
| E S E.   S E.   E S S S S   E S E.   S E.     E S S S S
|-----3------3------3-3-3-3-|-----3------3--------3-3-3-3-|
|-1-1------1------1-1-1-1-1-|---1------1--------1-1-1-1-1-|
|-0-0------0------0-0-0-0-0-|---0------0--------0-0-0-0-0-|
|---------------------------|-0---------------------------|
|---------------------------|-----------------------------|
|---------------------------|-----------------------------|


  E  E        +E   E     E        +E   E T  S.
|-------------------------------------------------|
|-------------------------------------------------|
|---16b17r===(16)-------14b16r===(14)----8s10-----|
|-----------------17\-----------------15\---------|
|-------------------------------------------------|
|-------------------------------------------------|
|
| Gtr IV
| E  E         E   S  S  E         E   E S     S
|-3--3---------3---3--3--1---------1---1-1-----1--|
|-3--3---------3---3--3--1---------1---1-1-----1--|
|-0--0---------0---0--0--2---------2---2-2-----2--|
|-0--0---------0---0--0--3---------3---3-3-----3--|
|-2--2---------2---2--2--3---------3---3-3-----3--|
|-3--3---------3---3--3--1---------1---1-1-----1--|
|
| Gtr V
| E  S     S   E   E     S     S   E   E T  S.
|-------------------------------------------------|
|---12s===13s=12--------10s===11s=10--------------|
|-----------------12------------------10s4s=5-----|
|----------------------------------------4s=5-----|
|-------------------------------------------------|
|-------------------------------------------------|


  Gtr V
  W                                      E S   S  E  E    S   S  E  E E
|--------------------------------------|-----------------------------------|
|-5\-----------------------------------|---3s==4s=3-------1s==2s=1---------|
|-5\-----------------------------------|-------------3\-------------1------|
|-5\-----------------------------------|------------------------------1/---|
|--------------------------------------|-----------------------------------|
|--------------------------------------|-----------------------------------|
|
| Gtr VI
|     ~~~~~                      ~~~~
| E   Q      S S  S     +S  S  S E E     E E     +E  E    E     +E  E E
|-8----------8-------------------------|-----------------------------------|
|----11b13-----8-10b11r(10)-8h10p8-8---|-----------------------------------|
|--------------------------------------|---7b9r==(7)------5b6r==(5)--------|
|--------------------------------------|-------------8\-------------6------|
|--------------------------------------|------------------------------6/---|
|--------------------------------------|-----------------------------------|
|
| Gtr IV
| E   E    E S S  S      S  E    E S S   E E      E  S  S E      E  E S  S
|-0---0----0-0-0--0------0--0----0-0-0-|-6-6------6--6--6-4------4--4-4--4-|
|-1---1----1-1-1--1------1--1----1-1-1-|-6-6------6--6--6-4------4--4-4--4-|
|-0---0----0-0-0--0------0--0----0-0-0-|-7-7------7--7--7-5------5--5-5--5-|
|-2---2----2-2-2--2------2--2----2-2-2-|-8-8------8--8--8-6------6--6-6--6-|
|-3---3----3-3-3--3------3--3----3-3-3-|-8-8------8--8--8-6------6--6-6--6-|
|--------------------------------------|-6-6------6--6--6-4------4--4-4--4-|


  ~~
  W
|---------------------------------------|
|-8\------------------------------------|
|-8\------------------------------------|
|-8\------------------------------------|
|---------------------------------------|
|---------------------------------------|
|
|                                  ~~
| E   S S  E    E    S S S  S S S  E
|---------------------------------------|
|---------------------------------------|
|-8-----8-10b12-8---10-8-8-10-8-8-10----|
|----10---------------------------------|
|---------------------------------------|
|---------------------------------------|
|
| E   E    E    S S  S S E    E    S S
|---------------------------------------|
|-8---8----8----8-8--8-8-8----8----8-8--|
|-8---8----8----8-8--8-8-8----8----8-8--|
|-8---8----8----8-8--8-8-8----8----8-8--|
|-6---6----6----6-6--6-6-6----6----6-6--|
|---------------------------------------|


  E S    S  E   E    S   S  E  E  E
|-----------------------------------------|
|---5s===6s=5--------3s==4s=3-------------|
|---------------5\-------------3--3/------|
|---------------------------------3/------|
|-----------------------------------------|
|-----------------------------------------|
|
| E E      +E   E    E     +E  E  X T.  S
|-----------------------------------------|
|-----------------------------------------|
|---9b10r==(9)-------7b8r==(7)------------|
|--------------10\-------------8\------10-|
|---------------------------------6s8-----|
|-----------------------------------------|
|
| E E       E   S  S S   S  E  E  S     S
|-0-0-------0---0--0----------------------|
|-1-1-------1---1--1-3---3--3--3--3-----3-|
|-0-0-------0---0--0-3---3--3--3--3-----3-|
|-2-2-------2---2--2-3---3--3--3--3-----3-|
|-3-3-------3---3--3-1---1--1--1--1-----1-|
|-----------------------------------------|


   ~~~~~~~~~~~~~~~~~~~~~   ~~~~~~~~~~~                                ~~~~~~~~~~~~
   Q.               +S  X  T.  +Q.                              E   S E.      +H.
|-----------------------------------------------------------------|------------------|
|-10---------------(10)-8s10--(10)--------------------------------|-6s7-------(7)----|
|-10---------------(10)-------------------------------------------|-6s7-------(7)----|
|-10---------------(10)-------------------------------------------|------------------|
|-----------------------------------------------------------------|------------------|
|-----------------------------------------------------------------|------------------|
|
|                                                            ~~~
|  E   X  T.  S  E   E          T     +T   S     S  S  S     E.     E    S  S  E   S  S
 S  S  E  S  S
|-----------------------------------------------------------------|-----------10--|
|-----------------------------------------------------------------|---------------|
|-10---------------------------12b14r(12)-12b14-10-12-12b14-10----|-7----9s11-----|
|------------10-12--10--------------------------------------------|---------------|
|-----10s12-------------------------------------------------------|---------------|
|-----------------------------------------------------------------|---------------|

------12-------14-14s17-|
------------------------|
11s12----12s14----------|
------------------------|
------------------------|
------------------------|

|
|  E   E         E   S  S       S          S     E     E        E   E    E
|--1---1---------1---1--1-------1----------1-----1-----1--------1-|-2----2-----2--|
|--1---1---------1---1--1-------1----------1-----1-----1--------1-|-3----3-----3--|
|--2---2---------2---2--2-------2----------2-----2-----2--------2-|-2----2-----2--|
|--3---3---------3---3--3-------3----------3-----3-----3--------3-|-0----0-----0--|
|--3---3---------3---3--3-------3----------3-----3-----3--------3-|---------------|
|--1---1---------1---1--1-------1----------1-----1-----1--------1-|---------------|

E   E     E E     E  E
-2-----2--2-----2--2----|
-3-----3--3-----3--3----|
-2-----2--2-----2--2----|
-0-----0--0-----0--0----|
------------------------|
------------------------|

 2/4                        4/4
   Q.                E         W
|--------------------------|--------------|
|-12/----------------------|--------------|
|-12/----------------------|--------------|
|-------------------10/----|--12\---------|
|--------------------------|--------------|
|--------------------------|--------------|
|
|                    ~~~~~~~~~~~~~~
|  S  S  S  S  S  S  E        +W
|-17p14-17-17-17-17-17b20==|=(17)r--------|
|--------------------------|--------------|
|--------------------------|--------------|
|--------------------------|--------------|
|--------------------------|--------------|
|--------------------------|--------------|
|
|  E     E     E     E         W
|--2-----2-----2-----2-----|---2----------|
|--3-----3-----3-----3-----|---3----------|
|--2-----2-----2-----2-----|---2----------|
|--0-----0-----0-----0-----|---0----------|
|--------------------------|--------------|
|--------------------------|--------------|


  Gtr I
  E E E. S E E E S S   E E E S S T S. E S S S S
|-----3--------------|---------3----------------|
|-----3--------------|-----3---3----------------|
|-----0--------0-----|-----0------------0-0---0-|
|-----0--0-----0-----|---2---2--------4-----4---|
|-----2----------0-2-|-3---------3s5------------|
|-3-3------1-1-------|--------------------------|
|
| W                    W
|--------------------|--------------------------|
|--------------------|--------------------------|
|--------------------|--------------------------|
|--------------------|--------------------------|
|--------------------|--------------------------|
|--------------------|--------------------------|
|
| W                    W
|--------------------|--------------------------|
|--------------------|--------------------------|
|--------------------|--------------------------|
|--------------------|--------------------------|
|--------------------|--------------------------|
|--------------------|--------------------------|


  E E E. S S S E S S E   E E E S S T S. E S S S S   E E E. S E E E S S
|-----3----------------|-----5-3-3----------5-----|-----3--------------|
|-----3----------------|-----3---3--------5-5-----|-----3--------------|
|-----0----------0-----|-----0------------0-----0-|-----0--------0-----|
|-----0----------0-----|---2------------4-----4---|-----0--------0-----|
|-----2------3-----0-2-|-3---------3s5------------|---2------------0-2-|
|-3-3----3-1---1-------|--------------------------|-3-3----3-1-1-------|


  Gtr II
  W                          W                      H       T S. E   S S E
|--------------------------|----------------------|----------------------------|
|--------------------------|----------------------|----------------------------|
|--------------------------|----------------------|------------------0-0-------|
|--------------------------|----------------------|--------------4-------4-----|
|--------------------------|----------------------|---------3s5----------------|
|--------------------------|----------------------|----------------------------|
|
| Gtr III
| W                          W                      H       E    S S S S E
|--------------------------|----------------------|----------------------------|
|--------------------------|----------------------|----------------------------|
|--------------------------|----------------------|----------------7-7-7-7\----|
|--------------------------|----------------------|----------------7-7-7-7\----|
|--------------------------|----------------------|----------------5-5-5-5\----|
|--------------------------|----------------------|----------------------------|
|
| Gtr I
| E E E S S T S. E S S S S   E E E. S S S E E S S   E E E E T S. E   E   S  S
|-------3-3----------0-----|-----3----------------|-----3----------------------|
|-----3-3-3--------0-0---0-|-----3----------------|-----3------------5---------|
|-----0------------0-0---0-|-----0----------0-----|-----0------------0------0--|
|---2------------4-----4---|-----0------0---0-----|---2---2------4-------4-----|
|-3---------3s5------------|------------------0-2-|-3-------3s5----------------|
|--------------------------|-3-3----3-1---1-------|----------------------------|


  E   E   E   S S E   E    E    E     E   E   E   S S T   S. E   S E   S
|---------3---3-3----------3----3---|---------3---3-3------------3-3---3-|
|---------3---3-3----------3----3---|---------3---3-3------------3-3---3-|
|---------0---0-0----------0----0---|---------0---0-0--------------------|
|---------0---0-0----------0----0---|-----2------------------4-----------|
|-----2-----------------------------|-3---3-----------2s==5--------------|
|-3---3-----------1---1-------------|------------------------------------|
|
| Gtr IV
| E   E   E   S S E   E    E    E     E   E   E   S S E      E   E   S S
|-3---3---3---3-3-3---3----3----3---|-3---3---3---3-3-5------5---5---5-5-|
|-3---3---3---3-3-3---3----3----3---|-3---3---3---3-3-3------3---3---3-3-|
|-0---0---0---0-0-0---0----0----0---|-0---0---0---0-0-0------0---0---0-0-|
|-0---0---0---0-0-0---0----0----0---|-2---2---2---2-2-4------4---4---4-4-|
|-2---2---2---2-2-x---x----x----x---|-3---3---3---3-3-5------5---5---5-5-|
|-3---3---3---3-3-1---1----1----1---|------------------------------------|
|
| Gtr III
| E   S S E   S S E   S S +S  S S S   E   S S E   S S E      S S S S S S
|-----3-3-----3-3-----3-3-(3)-3---3-|-----3-3-----3-3--------3-3-3-3-3-3-|
|-----3-3-----3-3-----3-3-(3)-3---3-|-----3-3-----3-3--------3-3-3-3-3-3-|
|-5b7-----5b7-----5b7---------------|-5b7-----5b7-----5b7----------------|
|-------------------------------5---|------------------------------------|
|-----------------------------------|------------------------------------|
|-----------------------------------|------------------------------------|


  E   E   E   S S E   E E     E     E   E   E     S S T   S.   E   S E   S
|---------3---3-3-------3-----3---|---------3-----3-3--------------3-3---3-|
|---------3---3-3-------3-----3---|---------3-----3-3--------------3-3---3-|
|---------0---0-0-------0-----0---|---------0-----0-0----------------------|
|---------0---0-0-------0-----0---|-----2----------------------4-----------|
|-----2---------------------------|-3---3-------------2s==5----------------|
|-3---3-----------1---1-----------|----------------------------------------|
|
| E   E   E   S S E   E E     E     E   E   E     S S E        E   E   S S
|-3---3---3---3-3-3---3-3-----3---|-3---3---3-----3-3-5--------5---5---5-5-|
|-3---3---3---3-3-3---3-3-----3---|-3---3---3-----3-3-3--------3---3---3-3-|
|-0---0---0---0-0-0---0-0-----0---|-0---0---0-----0-0-0--------0---0---0-0-|
|-0---0---0---0-0-0---0-0-----0---|-2---2---2-----2-2-4--------4---4---4-4-|
|-2---2---2---2-2-x---x-x-----x---|-3---3---3-----3-3-5--------5---5---5-5-|
|-3---3---3---3-3-1---1-1-----1---|----------------------------------------|
|
| E   S S E   S S E   E S   S S S   E   S S S   S S S S      S S S S S S S
|-----3-3-----3-3-----3-----3-3---|-----3-3-----3-3-3--------3-3-3-3-3-3-3-|
|-----3-3-----3-3-----3-----3-3-5-|-----3-3-----3-3-3--------3-3-3-3-3-3-3-|
|-5b7-----5b7-----5b7---5b7-------|-5b7-----5b7-------5b7------------------|
|---------------------------------|----------------------------------------|
|---------------------------------|----------------------------------------|
|---------------------------------|----------------------------------------|


  E   E   E   S S E   E    E    E
|---------3---3-3----------3----3---|
|---------3---3-3----------3----3---|
|---------0---0-0----------0----0---|
|---------0---0-0----------0----0---|
|-----2-----------------------------|
|-3---3-----------1---1-------------|
|
| E   E   E   S S E   E    E    E
|-3---3---3---3-3-3---3----3----3---|
|-3---3---3---3-3-3---3----3----3---|
|-0---0---0---0-0-0---0----0----0---|
|-0---0---0---0-0-0---0----0----0---|
|-2---2---2---2-2-x---x----x----x---|
|-3---3---3---3-3-1---1----1----1---|
|
| E   S S E   S S E   S S +S  S S S
|-----3-3-----3-3-----3-3-(3)-3-3-3-|
|-----3-3-----3-3-----3-3-(3)-3-3-3-|
|-5b7-----5b7-----5b7---------------|
|-----------------------------------|
|-----------------------------------|
|-----------------------------------|


  E   E   E   S S T   S. E   S E   S   E E    E E    E E E   E
|---------3---3-3------------3-3---0-|-0-0----0-0----0-0-0---0----|
|---------3---3-3------------3-3---0-|-0-0----0-0----0-0-0---0----|
|---------0---0-0--------------------|-0-0----0-0----0-0-0---0----|
|-----2------------------4-----------|-2-2----2-2----2-2-2---2----|
|-3---3-----------2s==5--------------|-2-2----2-2----2-2-2---2----|
|------------------------------------|-0-0----0-0----0-0-0---0----|
|
| E   E   E   S S E      E   E   S S   E E    E E    E E E   E
|-3---3---3---3-3-5------5---5---5-5-|-0-0----0-0----0-0-0---0----|
|-3---3---3---3-3-3------3---3---3-3-|-0-0----0-0----0-0-0---0----|
|-0---0---0---0-0-0------0---0---0-0-|-0-0----0-0----0-0-0---0----|
|-2---2---2---2-2-4------4---4---4-4-|-2-2----2-2----2-2-2---2----|
|-3---3---3---3-3-5------5---5---5-5-|-2-2----2-2----2-2-2---2----|
|------------------------------------|-0-0----0-0----0-0-0---0----|
|
| E   S S E   S S E      E   S S S S   E S E.   S E.   E S S S S
|-----3-3-----3-3------------3-3-3-3-|-----3------3------3-3-3-3--|
|-----3-3-----3-3------------3-3-3-3-|-3-3------3------3-3-3-3-3--|
|-5b7-----5b7-----5b7----5b7---------|-0-0------0------0-0-0-0-0--|
|------------------------------------|----------------------------|
|------------------------------------|----------------------------|
|------------------------------------|----------------------------|


  Gtrs I, II, IV
  E E    E E    E E E   E     E E    E S S  S S E E   E     W          +W
|-0-0----0-0----0-0-0---0---|-3-3----3-3-3--3-3-3-3---3---|-3--------|-(3)----|
|-2-2----2-2----2-2-2---2---|-1-1----1-1-1--1-1-1-1---1---|-3--------|-(3)----|
|-0-0----0-0----0-0-0---0---|-0-0----0-0-0--0-0-0-0---0---|-0--------|-(0)----|
|-2-2----2-2----2-2-2---2---|-x-x----x-x-x--x-x-x-x---x---|-0--------|-(0)----|
|-0-0----0-0----0-0-0---0---|-x-x----x-x-x--x-x-x-x---x---|-2--------|-(2)----|
|---------------------------|-1-1----1-1-1--1-1-1-1---1---|-3--------|-(3)----|
|
| Gtr III
| E S E.   S E.   E S S S S   E S E.   S E.     E S S S S   W          +W
|-----3------0------3-3-3-3-|-----3------3--------3-3-3-3-|-3--------|-(3)----|
|-2-2------3------3-2-2-2-2-|---1------1--------1-1-1-1-1-|-3--------|-(3)----|
|-0-0------0--------0-0-0-0-|---0------0--------0-0-0-0-0-|-0--------|-(0)----|
|---------------------------|-0---------------------------|-0--------|-(0)----|
|---------------------------|-----------------------------|-2--------|-(2)----|
|---------------------------|-----------------------------|-3--------|-(3)----|


  Gtrs I, II, III, IV
  +W
|-(3)----*|
|-(3)----*|
|-(0)----*|
|-(0)----*|
|-(2)----*|
|-(3)----*|

Duration Legend
---------------
W - whole; H - half; Q - quarter; E - 8th; S - 16th; T - 32nd; X - 64th; a - acciaccatura
+ - note tied to previous; . - note dotted; .. - note double dotted
Uncapitalized letters represent notes that are staccato (1/2 duration)
Irregular groupings are notated above the duration line
Duration letters will always appear directly above the note/fret number it represents the
duration for.  Duration letters with no fret number below them represent rests.  Multi-
bar rests are notated in the form Wxn, where n is the number of bars to rest for.  Low
melody durations appear below the staff

Tablature Legend
----------------
 h   - hammer-on
 p   - pull-off
 b   - bend
 pb  - pre-bend
 r   - bend release (if no number after the r, then release immediately)
 /\  - slide into or out of (from/to "nowhere")
 s   - legato slide
 S   - shift slide
 - natural harmonic
[n]  - artificial harmonic
n(n) - tapped harmonic
 ~   - vibrato
 tr  - trill
 T   - tap
 TP  - trem. picking
 PM  - palm muting
\n/  - tremolo bar dip; n = amount to dip
 \n  - tremolo bar down
 n/  - tremolo bar up
/n\  - tremolo bar inverted dip
 =   - hold bend; also acts as connecting device for hammers/pulls
 <> - volume swell (louder/softer)
 x   - on rhythm slash represents muted slash
 o   - on rhythm slash represents single note slash

Misc Legend
-----------
 |  - bar
||  - double bar
||o - repeat start
o|| - repeat end
*|  - double bar (ending)
 :  - bar (freetime)
 $  - Segno
 &  - Coda
Tempo markers -  = BPM(8/16=s8/s16), where s8 = swing 8ths, s16 = swing 16ths
comments
We did not receive enough feedback on this tab! Please rate:
print report bad tab
1 2 3 4 5
4 comments total. Showing first comments.
0 reply
classicrockboy wrote on August 13 2008, 10:48 am

Pretty good. Kinda confuses me cuz I’m kinda a newbie. But I tabbed the verse riff as according to Guitar Hero. (I submitted it but it got rejected)

|-----3------1----------0-------------------|
|-----3------1----------1-------------------|
|-----0------2----------0-------------------|
|-----0------3--------2-2--------4-5-5-4h5--|
|-----2------3--0-2-3---3--3-4/5------------|
|--3--3--1-1-1----------0-------------------|

0 reply
Darkmaus wrote on August 27 2008, 03:24 pm

Don't do it according to guitar hero then,
A lot of stuff you don't hear in there,
and a lot of stuff you do, but often other guitars and shit.
you don't need gh for tabbing matey.

0 reply
tonedeafidiot wrote on August 27 2008, 03:32 pm

well, in the past, the rhythm in gh has been accurate to a point. but, now that neversoft has taken over, not so much.

I want to post or [tab]
guest
You may want to rate the tab now too:
select rating
Please do not post tabs as comments. Select "correction" instead!