Oops, an error
Loading. Please wait.

Seasons Of Wither Tab

ver2
ver2

Whole song

Interactive

More versions @911Tabs.com
6,340 views 46 this week
no commentswrite comment
1 2 3 4 5
excellent!
x 4
Autoscroll
+/-
esc
set tempo
stop
Contributor
Hey! There's an official Ultimate Guitar app which is ideal
for learning songs when you're away from computer. Get the app
WARNING: You are trying to view
                                    content from Ultimate-Guitar.com
                                    in an unauthorized application,
                                    which is prohibited.

                                    Please use an official Ultimate
                                    Guitar Tabs application for iPhone,
                                    iPad or Android to access legitimate
                                    chords, guitar, bass, and drum tabs
                                    from Ultimate-Guitar.com database.

                                    Type "ultimate guitar tabs" in Apple
                                    App Store's or Android Market's
                                    search to find the application.
#----------------------------------PLEASE NOTE---------------------------------#
#This file is the author's own work and represents their interpretation of the #
#song. You may only use this file for private study, scholarship, or research. #
#------------------------------------------------------------------------------#

SEASONS OF WITHER
As recorded by Aerosmith
(From the 1974 Album GET YOUR WINGS)

Transcribed by tonedeafidiot
	

Words and Music by Steven Tyler

D
x x 0 2 3 2
	
C/E
x x 2 0 1 0
	
G5
3 5 5 x x x
	
A5
x 0 2 2 x x

Bb5
x 1 3 3 x x
	
C5
x 3 5 5 x x

Gtr I (E A D G B E) - 'Acoustic'
Gtr II (E A D G B E) - 'Light Dist. 1'
Gtr III (E A D G B E) - 'Light Dist. 2'
Gtr IV (D A D G B E) - '12 String Acoustic'
Gtr V (E A D G B E) - 'Light Dist. + Slide'
Gtr VI (D A D G B E) - 'Light Dist. 12 String'

 Intro
  Moderately Slow Rock Q=97
 4/4
  Gtr I
              ppp Cres. poco a poco 4 mess.         mf
  W            E E E E E E E E   E E E E E E E E     E E E E E E E E
|----------||------------------|------------------||-----------------|
|----------||o-----------------|-----------------o||-----------------|
|----------||------0-----0-----|-----0-----0------||-----0-----0-----|
|----------||----0-----0-----0-|---2-----3-----3--||---0-----0-----0-|
|----------||o-------1---------|-0-----1-----1---o||-------1---------|
|----------||--3-----------3---|------------------||-3-----------3---|


                      Gtr II
                     ppp Cres. poco a poco 4 mess.         mf 
  E E E E E E E E     E E E E E E E E   E E E E E E E E     E E E E E E E E
|-----------------||------------------|------------------||-----------------|
|-----------------||o-----------------|-----------------o||-----------------|
|-----0-----0-----||------0-----0-----|-----0-----0---0--||-----0-----0-----|
|---2-----3-----3-||----0-----0-----0-|---2-----3--------||---0-----0-----0-|
|-0-----1-----1---||o-------1---------|-0-----1-----1---o||-------1---------|
|-----------------||--3-----------3---|------------------||-3-----------3---|


  E E E E E E E E   E E E E E E E E   E E E E E E E E
|-----------------|-----------------|-----------------|
|-----------------|-----------------|-----------------|
|-----0-----0---0-|-----0-----0-----|-----0-----0---0-|
|---2-----3-------|---0-----0-----0-|---2-----3-------|
|-0-----1-----1---|-------1---------|-0-----1-----3---|
|-----------------|-3-----------3---|-----------------|
|
| Gtr I
| E E E E E E E E   E E E E E E E E   E E E E E E E E
|-----------------|-----------------|-----------------|
|-----------------|-----------------|-----------------|
|-----0-----0-----|-----0-----0-----|-----0-----0---0-|
|---2-----3-----3-|---0-----0-----0-|---2-----3-------|
|-0-----1-----1---|-------1---------|-0-----1-----3---|
|-----------------|-3-----------3---|-----------------|


  D                        C/E     D                        C/E
  Gtr II
  Q.   E +H       Q.   E E Q.      Q.   E +H       Q.   E E Q.
  |    |  |       |    |   |       |    |  |       |    |   |
  /    /  /       /    /   /       /    /  /       /    /   /

  Gtr III
  Q.   E +H       Q.   E E Q   E   Q.   E +H       Q.   E E Q   E
|-2----2-(2)----|-2----2---0-----|-2----2-(2)----|-2----2---0-----|
|-3----3-(3)----|-3----3---1-----|-3----3-(3)----|-3----3---1-----|
|-2----2-(2)----|-2----2---0-----|-2----2-(2)----|-2----2---0-----|
|-0----0-(0)----|-0----0---2-----|-0----0-(0)----|-0----0---2-----|
|---------------|--------------0-|---------------|--------------0-|
|---------------|----------------|---------------|----------------|


                                                 9/8
  Gtr II
  Q.   E +H       Q.   E E Q  E   Q.   E +H       Q.     E E E E a E +E
|-2----2-(2)----|-2----2---0----|-2----2-(2)----|-2------2---------------|
|-3----3-(3)----|-3----3---1----|-3----3-(3)----|-3------3---3-----------|
|-2----2-(2)----|-2----2---0----|-2----2-(2)----|-2------2---3---2p0-(0)-|
|-0----0-(0)----|-0----0---2----|-0----0-(0)----|-0------0---3-----3-----|
|---------------|-------------0-|---------------|------------1-----3-----|
|---------------|---------------|---------------|------------------1-----|
|
| Gtr III
| Q.   E +H       Q.   E E Q  E   Q.   E +H       E  E E E E E E   E  E
|-2----2-(2)----|-2----2---0----|-2----2-(2)----|-2--2---0---------------|
|-3----3-(3)----|-3----3---1----|-3----3-(3)----|-3--3---1---3-----------|
|-2----2-(2)----|-2----2---0----|-2----2-(2)----|-2--2---0---3-----2-----|
|-0----0-(0)----|-0----0---2----|-0----0-(0)----|-0--0---2---3-----3-----|
|---------------|-------------0-|---------------|------0-----1-----3-----|
|---------------|---------------|---------------|------------------1-----|


 4/4
  E E E E E E E E   E E E E E E E E   E E E E E E E E   E E E E E E E E
|-----------------|-----------------|-----------------|-----------------||
|-----------------|-----------------|-----------------|-----------------||
|-----2-----0---0-|-----2-----0---0-|-----2-----2-----|-----0-----0-----||
|---0-----0-------|---0-----0-------|---0-----0-----0-|---0-----0-----0-||
|-----------------|-----------------|-----------------|-----------------||
|-0-----0-----0---|-1-----1-----1---|-2-----2-----2---|-3-----3-----3---||
|
| Gtrs I, III
| E E E E E E E E   E E E E E E E E   E E E E E E E E   E E E E E E E E
|-----------------|-----------------|-----------------|-----------------||
|-----------------|-----------------|-----------------|-----------------||
|-----2-----0-----|-----2-----0-----|-----2-----2---2-|-----0-----0-----||
|---0-----0-----0-|---0-----0-----0-|---0-----0-------|---0-----0-----0-||
|-----------------|-----------------|-----------------|-----------------||
|-0-----0-----0---|-1-----1-----1---|-2-----2-----2---|-3-----3-----3---||


   Verse
    E E E E E E E E   E E E E E E E E   E E E E E E E E   E E E E E E E E   4x
||------------------|-----------------|-----------------|-------------------||
||o-----------------|-----------------|-----------------|------------------o||
||------2-----0---0-|-----2-----0---0-|-----2-----2-----|-----0-----0-------||
||----0-----0-------|---0-----0-------|---0-----0-----0-|---0-----0-----0---||
||o-----------------|-----------------|-----------------|------------------o||
||--0-----0-----0---|-1-----1-----1---|-2-----2-----2---|-3-----3-----3-----||
|
|   E E E E E E E E   E E E E E E E E   E E E E E E E E   E E E E E E E E   4x
||------------------|-----------------|-----------------|-------------------||
||o-----------------|-----------------|-----------------|------------------o||
||------2-----0-----|-----2-----0-----|-----2-----2---2-|-----0-----0-------||
||----0-----0-----0-|---0-----0-----0-|---0-----0-------|---0-----0-----0---||
||o-----------------|-----------------|-----------------|------------------o||
||--0-----0-----0---|-1-----1-----1---|-2-----2-----2---|-3-----3-----3-----||


                    Chorus
                  $
                     Gtr IV
  E E E E E E E E    E E E E E E E E   E E E E +E  E Q
|-----------------||-----------------|-------------------|
|-----------------||-----------------|-------0-(0)-------|
|-0-----0-----0---||-----0-----0-----|-----0-------0-----|
|-----0-----0---0-||---0-----0-----0-|---0-----------0---|
|-----------------||-3-----3-----3---|-2-----------------|
|---3-----3-------||-----------------|-------------------|
|
|                    Gtrs I, II, III
| E E E E E E E E    E E E E E E E E   E E E E  E  E E E
|-----------------||-----------------|-------------------|
|-----------------||-----------------|-------------------|
|-----0-----0-----||-----0-----0-----|-----0-------0-----|
|---0-----0-----0-||---0-----0-----0-|---0------0------0-|
|-----------------||-3-----3-----3---|-2-----2-------2---|
|-3-----3-----3---||-----------------|-------------------|


  E E E E E E E E   E E E E E E E E   E E E E E E E E   E E E E E E E E
|-----------------|-----------------|-----------------|-----------------|
|-----------------|-----------------|-----------------|-----------------|
|-----2-----0-----|-----2-----0-----|-----0-----0-----|-----0-----0-----|
|---0-----0-----0-|---0-----0-----0-|---0-----0-----0-|---0-----0-----0-|
|-----------------|-----------------|-----------------|-----------------|
|-2-----2-----2---|-3-----3-----3---|-5-----5-----5---|-5-----5-----5---|
|
|                                     Gtr II
| E E E E E E E E   E E E E E E E E   E E E E E E E E   E E E E E E E E
|-----------------|-----------------|-----------------|-----------------|
|-----------------|-----------------|-----------------|-----------------|
|-----2-----0-----|-----2-----0-----|-----0-----0-----|-----0-----0-----|
|---0-----0-----0-|---0-----0-----0-|---0-----0-----0-|---0-----0-----0-|
|-----------------|-----------------|-----------------|-----------------|
|-0-----0-----0---|-1-----1-----1---|-3-----3-----3---|-3-----3-----3---|
|
|                                     Gtrs I, III
| W                 W                 E E E E E E E E   E E E E E E E E
|-----------------|-----------------|-----------------|-----------------|
|-----------------|-----------------|-----------------|-----------------|
|-----------------|-----------------|-----0-----0-----|-0-----0-----0---|
|-----------------|-----------------|---0-----0-----0-|-----0-----0---0-|
|-----------------|-----------------|-----------------|-----------------|
|-----------------|-----------------|-3-----3-----3---|---3-----3-------|


  E E E E E E E E   E E E E +E  E Q     E E E E E E E E   E E E E E E E E
|-----------------|-------------------|-----------------|-----------------|
|-----------------|-------0-(0)-------|-----------------|-----------------|
|-----0-----0-----|-----0-------0-----|-----2-----0-----|-----2-----0-----|
|---0-----0-----0-|---0-----------0---|---0-----0-----0-|---0-----0-----0-|
|-3-----3-----3---|-2-----------------|-----------------|-----------------|
|-----------------|-------------------|-2-----2-----2---|-3-----3-----3---|
|
| Gtrs I, II, III
| E E E E E E E E   E E E E  E  E E E   E E E E E E E E   E E E E E E E E
|-----------------|-------------------|-----------------|-----------------|
|-----------------|-------------------|-----------------|-----------------|
|-----0-----0-----|-----0-------0-----|-----2-----0-----|-----2-----0-----|
|---0-----0-----0-|---0------0------0-|---0-----0-----0-|---0-----0-----0-|
|-3-----3-----3---|-2-----2-------2---|-----------------|-----------------|
|-----------------|-------------------|-0-----0-----0---|-1-----1-----1---|


                                               To Coda
  G5                A5                Bb5               C5
  Gtr II
  W                 W                 W                 W
  |                 |                 |                 |
  /                 /                 /                 /

  Gtr III
  E E E E E E E E   E E E E E E E E   E E E E E E E E   E E E E E E E E
|-----------------|-----------------|-----------------|-----------------||
|-----------------|-----------------|-----------------|-----------------||
|-----0-----0-----|-----0-----0-----|-----0-----0-----|-----0-----2---0-||
|---0-----0-----0-|---0-----0-----0-|---0-----0-----0-|---0-----0-------||
|-----------------|-----------------|-----------------|-----------------||
|-3-----3-----3---|-3-----3-----3---|-3-----3-----3---|-3-----3-----3---||


 Bridge
  D                       C/E    D                       C/E
  Gtrs II, III
  Q.   E +H      Q.   E E Q.     Q.   E +H      Q.   E E Q.
  |    |  |      |    |   |      |    |  |      |    |   |
  /    /  /      /    /   /      /    /  /      /    /   /

  W              W               W              W
|--------------|---------------|--------------|---------------|
|--------------|---------------|--------------|---------------|
|--------------|---------------|--------------|---------------|
|--------------|---------------|--------------|---------------|
|--------------|---------------|--------------|---------------|
|--------------|---------------|--------------|---------------|


  D                        C/E     D                        C/E
  Q.   E +H       Q.   E E Q.      Q.   E +H       Q.   E E Q.
  |    |  |       |    |   |       |    |  |       |    |   |
  /    /  /       /    /   /       /    /  /       /    /   /

  Gtr III
  Q.   E +H       Q.   E E Q   E   Q.   E +H       Q.   E E Q   E
|-2----2-(2)----|-2----2---0-----|-2----2-(2)----|-2----2---0-----|
|-3----3-(3)----|-3----3---1-----|-3----3-(3)----|-3----3---1-----|
|-2----2-(2)----|-2----2---0-----|-2----2-(2)----|-2----2---0-----|
|-0----0-(0)----|-0----0---2-----|-0----0-(0)----|-0----0---2-----|
|---------------|--------------0-|---------------|--------------0-|
|---------------|----------------|---------------|----------------|


  D                                C/E
  Q.    E +H              Q.   E E Q.      W
  |     |  |              |    |   |
  /     /  /              /    /   /

  Gtr III
  Q.    E +H              Q.   E E Q   E   W
|-2-----2-(2)----------|--2----2---0-----|------|
|-3-----3-(3)----------|--3----3---1-----|------|
|-2-----2-(2)----------|--2----2---0-----|------|
|-0-----0-(0)----------|--0----0---2-----|------|
|----------------------|---------------0-|------|
|----------------------|-----------------|------|
|
| Gtr V
| Q.    E  E   E  E  E    H      H         W
|----------------------|-----------------|------|
|------13-13--13-13-13-|-13\-------------|------|
|------14-14--14-14-14-|-14\-------------|------|
|----------------------|-----------------|------|
|----------------------|-----------------|------|
|----------------------|-----------------|------|


                                     Verse
  Gtr II
  Q.   E E Q.      E E E E E E E E    +Q   E E E E E E
|-2----2---0-----|-2-2---0---------||------------------|
|-3----3---1-----|-3-3---1---------||------------------|
|-2----2---0-----|-2-2---0---2-----||------2-----0-----|
|-0----0---2-----|-0-0---2---3-----||----------0-----0-|
|----------------|-----------3-----||------------------|
|----------------|-----------1---0-||-(0)----0-----0---|
|
| Gtr III                        Gtrs I, III
| Q.   E E Q   E   Q   E E E E E E    +Q   E E E E E E
|-2----2---0-----|-2-----0---------||------------------|
|-3----3---1-----|-3-----1---------||------------------|
|-2----2---0-----|-2-----0---2-----||------2-----0-----|
|-0----0---2-----|-0-----2---3-----||----------0-----0-|
|--------------0-|-----------3-----||------------------|
|----------------|-----------1---0-||-(0)----0-----0---|


  E E E E E E E E   E E E E E E E E   E E E E E E E E
|-----------------|-----------------|-----------------|
|-----------------|-----------------|-----------------|
|-----2-----0---0-|-----2-----2-----|-----0-----0---0-|
|---0-----0-------|---0-----0-----0-|---0-----0-------|
|-----------------|-----------------|-----------------|
|-1-----1-----1---|-2-----2-----2---|-3-----3-----3---|
|
| E E E E E E E E   E E E E E E E E   E E E E E E E E
|-----------------|-----------------|-----------------|
|-----------------|-----------------|-----------------|
|-----2-----0---0-|-----2-----0-----|-----0-----0---0-|
|---0-----0-------|---0-----0-----0-|---0-----0-------|
|-----------------|-----------------|-----------------|
|-1-----1-----1---|-2-----2-----2---|-3-----3-----3---|


    E E E E E E E E   E E E E E E E E   E E E E E E E E   E E E E E E E E   3x
||------------------|-----------------|-----------------|-------------------||
||o-----------------|-----------------|-----------------|------------------o||
||------2-----0---0-|-----2-----0---0-|-----2-----2-----|-----0-----0-------||
||----0-----0-------|---0-----0-------|---0-----0-----0-|---0-----0-----0---||
||o-----------------|-----------------|-----------------|------------------o||
||--0-----0-----0---|-1-----1-----1---|-2-----2-----2---|-3-----3-----3-----||
|
|   E E E E E E E E   E E E E E E E E   E E E E E E E E   E E E E E E E E   3x
||------------------|-----------------|-----------------|-------------------||
||o-----------------|-----------------|-----------------|------------------o||
||------2-----0-----|-----2-----0-----|-----2-----2---2-|-----0-----0-------||
||----0-----0-----0-|---0-----0-----0-|---0-----0-------|---0-----0-----0---||
||o-----------------|-----------------|-----------------|------------------o||
||--0-----0-----0---|-1-----1-----1---|-2-----2-----2---|-3-----3-----3-----||


      D.S. al Coda  &
                    C5
                    Gtr II
  W                 W
                    |
                    /

                    Gtr VI
  E E E E E E E E   H.       Q
|-----------------|-------------||
|-----------------|-------------||
|-0-----0-----0---|-------------||
|-----0-----0---0-|-------------||
|-----------------|-------------||
|---3-----3-------|---------12S=||
|
| E E E E E E E E   W
|-----------------|-------------||
|-----------------|-------------||
|-----0-----0-----|-------------||
|---0-----0-----0-|-------------||
|-----------------|-------------||
|-3-----3-----3---|-------------||


 Interlude
  W                        W
  E E E E E E a   +E  E   +E  E E E E E a   +E  E
|-----------------------|---------------------------|
|-----------------------|-------------0-------------|
|---2-0---0-------------|-----4-2-0-2---------------|
|-------4---0-----------|---------------------------|
|-----------------------|---------------------------|
|-0-----------3b4-(3)-0-|-(0)-----------3b4-(3)-0---|
|
| W                        W
|-----------------------|---------------------------|
|-----------------------|---------------------------|
|-----------------------|---------------------------|
|-----------------------|---------------------------|
|-----------------------|---------------------------|
|-----------------------|---------------------------|


  +E  E E E E E E E   E E E E Q  a   +E  E   +E  E E E E E a   +E  E
|-------------------|----------------------|--------------------------|
|-------------------|----------------------|--------------------------|
|-----5-4-2-4-2---2-|---0---2--------------|-----2-0---0--------------|
|---------------5---|-4---4-4-2------------|---------4---0------------|
|-------------------|----------------------|--------------------------|
|-(0)---------------|------------3b4-(3)-0-|-(0)-----------3b4-(3)-0--|


                                            9/8
  E E E E E E a   +E  E   +E  E E E a H       E  E E E E E E E E
|-----------------------|------------------|---------------------||
|-----------------------|------------------|---------------------||
|---2-0-4-0-0-----------|-----5-4-2-5s7----|-10-10---8---6---6---||
|-----------------------|------------------|-11-11---9---7---5---||
|-----------------------|------------------|---------------------||
|-0-----------3b4-(3)-0-|-(0)--------------|---------------------||


 Outro-Guitar Solo
 4/4
  Gtr II
   ~~~~~~~~~~~~~                          ~~~~~~~~~~~~~~
   H        +E   Q    E    a      +E   E  H.
|-----------------------|------------------------------|
|-15-------(15)-15---17-|------------------------------|
|-----------------------|-14b16==(14)r14-12------------|
|-----------------------|------------------------------|
|-----------------------|------------------------------|
|-----------------------|------------------------------|
|
| Gtr III
|  E E E E   E   E E  E            E   E  E  E E E E E
|-----------------------|------------------------------|
|-----------------------|------------------------------|
|------2---------0------|-----------------2------0-----|
|----0-------0--------0-|--------------0-------0-----0-|
|-----------------------|------------------------------|
|--0-----0---------0----|----------1---------1-----1---|
|
| Gtr VI
|  W                               W
|-----------------------|------------------------------|
|-----------------------|------------------------------|
|--5--------------------|------------------------------|
|--4--------------------|------------------------------|
|-----------------------|------------------------------|
|-----------------------|------------------------------|


 ~~~~~                         ~~~~~~~~~~~~~~~~~~
    H       E  Q        +E     H.             Q
|---------------------------|-----------------------|
|-------------15------------|-----------------------|
|-/14---------14pb16r==(14)-|-12------------[12]----|
|---------------------------|-----------------------|
|---------------------------|-----------------------|
|---------------------------|-----------------------|
|
|                             Gtrs I, III
|   E E E E E  E     E   E     E  E E E E E   E  E
|---------------------------|-----------------------|
|---------------------------|-----------------------|
|-------2------2---------2--|-------0-----0---------|
|-----0-----0---------------|-----0-----0--------0--|
|---------------------------|---------1-------------|
|---2-----2----------2------|--3--------------3-----|
|
|   W                          W
|---------------------------|-----------------------|
|---------------------------|-----------------------|
|---------------------------|-----------------------|
|---------------------------|-----------------------|
|---------------------------|-----------------------|
|---------------------------|-----------------------|


     ~~~~~~~~~~~~~~~~~~~~~~~~~~~~~~~~~~~~~~~~~~
    +W                     +W
|----------------------|----------------------|
|----------------------|----------------------|
|-([12])---------------|-([12])---------------|
|----------------------|----------------------|
|----------------------|----------------------|
|----------------------|----------------------|
|
|    E   E E E E E E E      E   E E E E E E E
|----------------------|----------------------|
|----------------------|----------------------|
|----------0-----0-----|----------0-----0-----|
|--------2-----3-----3-|--------0-----0-----0-|
|----0-------1-----1---|------------1---------|
|----------------------|----3-------------3---|


 ~~~~~~~~~~~~~~~~~~~~~~~~~~~~~~~
    +W                     +W
|----------------------|----------------------|
|----------------------|----------------------|
|-([12])---------------|-([12])---------------|
|----------------------|----------------------|
|----------------------|----------------------|
|----------------------|----------------------|
|
|    E   E E E E E E E      E   E E E E E E E
|----------------------|----------------------|
|----------------------|----------------------|
|----------0-----0-----|----------0-----0-----|
|--------2-----3-----3-|--------0-----0-----0-|
|----0-------1-----1---|------------1---------|
|----------------------|----3-------------3---|


                                                   >
     ~~~~~~~~~~~~~~~~~~~~~~~~~~~~~~~~~~~~~~~~~~~~~~~~~~
    +W                     +W                     +H.            Q    W
|----------------------|----------------------|---------------------|------*|
|----------------------|----------------------|---------------------|------*|
|-([12])---------------|-([12])---------------|-([12])--------------|------*|
|----------------------|----------------------|---------------------|------*|
|----------------------|----------------------|---------------------|------*|
|----------------------|----------------------|---------------------|------*|
|
|                                                                     >
|    E   E E E E E E E      E   E E E E E E E      E   E E E E E Q    W
|----------------------|----------------------|---------------------|-2----*|
|----------------------|----------------------|---------------------|-3----*|
|----------0-----0-----|----------0-----0-----|----------0-----0-0--|-2----*|
|--------2-----3-----3-|--------0-----0-----0-|--------2-----3---5--|-0----*|
|----0-------1-----1---|------------1---------|----0-------1-----3--|------*|
|----------------------|----3-------------3---|---------------------|------*|



Duration Legend
---------------
W - whole; H - half; Q - quarter; E - 8th; S - 16th; T - 32nd; X - 64th; a - acciaccatura
+ - note tied to previous; . - note dotted; .. - note double dotted
Uncapitalized letters represent notes that are staccato (1/2 duration)
Irregular groupings are notated above the duration line
Duration letters will always appear directly above the note/fret number it represents the
duration for.  Duration letters with no fret number below them represent rests.  Multi-
bar rests are notated in the form Wxn, where n is the number of bars to rest for.  Low
melody durations appear below the staff

Tablature Legend
----------------
 h   - hammer-on
 p   - pull-off
 b   - bend
 pb  - pre-bend
 r   - bend release (if no number after the r, then release immediately)
 /\  - slide into or out of (from/to "nowhere")
 s   - legato slide
 S   - shift slide
 - natural harmonic
[n]  - artificial harmonic
n(n) - tapped harmonic
 ~   - vibrato
 tr  - trill
 T   - tap
 TP  - trem. picking
 PM  - palm muting
\n/  - tremolo bar dip; n = amount to dip
 \n  - tremolo bar down
 n/  - tremolo bar up
/n\  - tremolo bar inverted dip
 =   - hold bend; also acts as connecting device for hammers/pulls
 <> - volume swell (louder/softer)
 x   - on rhythm slash represents muted slash
 o   - on rhythm slash represents single note slash

Misc Legend
-----------
 |  - bar
||  - double bar
||o - repeat start
o|| - repeat end
*|  - double bar (ending)
 :  - bar (freetime)
 $  - Segno
 &  - Coda
Tempo markers -  = BPM(8/16=s8/s16), where s8 = swing 8ths, s16 = swing 16ths

comments
print report bad tab
I want to post or [tab]
guest
You may want to rate the tab now too:
select rating
Please do not post tabs as comments. Select "correction" instead!