Oops, an error
Loading. Please wait.

Sweet Emotion Tab

ver3
ver3
More versions @911Tabs.com
7,985 views 3 this week
2 commentsread comments
1 2 3 4 5
accurate
x 3
Autoscroll
+/-
esc
set tempo
stop
Contributor
NEW! There's an official Ultimate Guitar app which is ideal
for learning songs when you're away from computer. Get the app
WARNING: You are trying to view
                                    content from Ultimate-Guitar.com
                                    in an unauthorized application,
                                    which is prohibited.

                                    Please use an official Ultimate
                                    Guitar Tabs application for iPhone,
                                    iPad or Android to access legitimate
                                    chords, guitar, bass, and drum tabs
                                    from Ultimate-Guitar.com database.

                                    Type "ultimate guitar tabs" in Apple
                                    App Store's or Android Market's
                                    search to find the application.
----------------------------------------------------------------------------
                             Sweet Emotion - Aerosmith
----------------------------------------------------------------------------

Tabbed by:ghostman
Email:imreelstupid90@cox.net

Tuning: normal tuning

Intro:

e|-------------------------------------------------------------------|
B|-------------------------------------------------------------------|
G|-------------------------------------------------------------------|
D|-------5---7-7-----------------------------------------------------| X8
A|---------------5-7p5-----------------------------------------------|
E|---5-5---5---------------------------------------------------------|

Chorus: play about 5 times

e|-------------------------------------------------------------------|
B|-------------------------------------------------------------------|
G|---2---------------------------------------------------------------|
D|---0--2---2--------2-----------------------------------------------| X5
A|------0---0--3p0---0-----------------------------------------------|
E|-----------------3---3---------------------------------------------|

e|-------------------------------------------------------------------|
B|-------------------------------------------------------------------|
G|-------------------------------------------------------------------|
D|-------------------------------------------------------------------| X4
A|---5p3p0--4-4-4-5-5-5-6-7------------------------------------------|
E|----------2-2-2-3-3-3-4-5------------------------------------------|

Coda: play once

e|---------------------------------------------------------------------|
B|---------------------------------------------------------------------|
G|---------------------------------------------------------------------|
D|---------------------------------------------------------------------| X5
A|---5p3p0--4-4-4-5-5-5-6-7^^^^^^^^^^^^^^^^^^^^^^^^^^^^^^^^^^^^^^^^----|
E|----------2-2-2-3-3-3-4-4^^^^^^^^^^^^^^^^^^^^^^^^^^^^^^^^^^^^^^^^----|

e|-------------------------------------------------------------------|
B|-------------------------------------------------------------------|
G|-------------------------------------------------------------------| X
D|-------7---9-9-----------------------------------------------------|
A|---------------7-9p7-----------------------------------------------|
E|---7-7--7----------------------------------------------------------|

\
| /  slide up
| \  slide down
| h  hammer-on
| p  pull-off
| ~  vibrato
| +  harmonic
| x  Mute note
===================================================================
comments
We did not receive enough feedback on this tab! Please rate:
print report bad tab
1 2 3 4 5
2 comments total.
0 reply
guitartaber93 wrote on September 24 2007, 11:07 am

i think you made a mistake on the intro. i think it's
e------------------------
B-----------------------
G---------------------
D------5---7-7--5--7p5
A----------------------
E-5-5---5---------------

0 reply
guitartaber93 wrote on September 24 2007, 11:08 am

but im not completely sure i might be wrong

I want to post or [tab]
guest
You may want to rate the tab now too:
select rating
Please do not post tabs as comments. Select "correction" instead!