Oops, an error
Loading. Please wait.

The Farm Tab

ver1
ver1

Whole song

Interactive

More versions @911Tabs.com
1,790 views 1 this week
1 commentread comment
1 2 3 4 5
excellent!
x 1
Autoscroll
+/-
esc
set tempo
stop
NEW! There's an official Ultimate Guitar app which is ideal
for learning songs when you're away from computer. Get the app
WARNING: You are trying to view
                                    content from Ultimate-Guitar.com
                                    in an unauthorized application,
                                    which is prohibited.

                                    Please use an official Ultimate
                                    Guitar Tabs application for iPhone,
                                    iPad or Android to access legitimate
                                    chords, guitar, bass, and drum tabs
                                    from Ultimate-Guitar.com database.

                                    Type "ultimate guitar tabs" in Apple
                                    App Store's or Android Market's
                                    search to find the application.
Band: Aerosmith
Song: The Farm


Gtr 1



     E  E  E  E  E  E  S S S S    E  E  E  E  E  E  S S S S  
E||--------0-------------------|--------0-------------------|
B||--------0-------------------|--------0-------------------|
G||--------0--0--3--3--3-3-3-0-|--------0--0--3--3--3-3-3-0-|
D||--2--2-----0--2--2--2-------|--2--2-----0--2--2--2-------|
A||--2--2--------3--3--3-------|--2--2--------3--3--3-------|
E||--0--0----------------------|--0--0----------------------|


  E  E  E  E  E  E  S S S S    E  E  E  E  E  E  S S S S  
--------0-------------------|--------0-------------------|
--------0-------------------|--------0-------------------|
--------0--0--3--3--3-3-3-0-|--------0--0--3--3--3-3-3-0-|
--2--2-----0--2--2--2-------|--2--2-----0--2--2--2-------|
--2--2--------3--3--3-------|--2--2--------3--3--3-------|
--0--0----------------------|--0--0----------------------|


  E  E  E  E   E  E   E  E      E   E   E   E   E   E   E  E   
----------------------------|---------------------------------|
----------------------------|---------------------------------|
--6-------------------------|---------------------------------|
--x-------------------------|---------------------------------|
--7--7--9--7S--9--9--11--9--|--10--10--12--12--10--10--12-----|
--5--5--5--5S--7--7---7--7--|---8---8---8---8---8---8---8--0--|


  E  E  E  E   E  E   E  E      E   E   E   E   E   E   E  E   
----------------------------|---------------------------------|
----------------------------|---------------------------------|
--6--6--6--6---8--8---8--8--|---9---9---9---9---9---9---9-----|
--x--x--x--x---x--x---x--x--|---x---x---x---x---x---x---x-----|
--7--7--9--7S--9--9--11--9--|--10--10--12--12--10--10--12-----|
--5--5--5--5S--7--7---7--7--|---8---8---8---8---8---8---8--0--|


  E  E  E  E   E  E   E  E      E   E   E   E   E   E   E  E   
----------------------------|---------------------------------|
----------------------------|---------------------------------|
--6--6--6--6---8--8---8--8--|---9---9-----------9---9---9-----|
--x--x--x--x---x--x---x--x--|---x---x---x---x---x---x---x-----|
--7--7--9--7S--9--9--11--9--|--10--10--13--10--10--10--10-----|
--5--5--5--5S--7--7---7--7--|---8---8---8---8---8---8---8--0--|


  E  E  E  E   E  E   E  E     W                   E  E  E  E  E  E  S S S S  
----------------------------|--0----------------|--------0-------------------|
----------------------------|--0----------------|--------0-------------------|
--6--6--6--6---8--8---8-----|--x----------------|--------0--0--3--3--3-3-3-0-|
--x--x--x--x---x--x---x-----|--2----------------|--2--2-----0--2--2--2-------|
--7--7--9--7S--9--9--11-----|--2----------------|--2--2--------3--3--3-------|
--5--5--5--5S--7--7---7--0--|--0----------------|--0--0----------------------|


  E  E  E  E  E  E  S S S S    E  E  E  E  E  E  S S S S  
--------0-------------------|--------0-------------------|
--------0-------------------|--------0-------------------|
--------0--0--3--3--3-3-3-0-|--------0--0--3--3--3-3-3-0-|
--2--2-----0--2--2--2-------|--2--2-----0--2--2--2-------|
--2--2--------3--3--3-------|--2--2--------3--3--3-------|
--0--0----------------------|--0--0----------------------|


  E  E  E  E  E  E  S S S S    E  E  E  E   E  E   E  E   
--------0-------------------|----------------------------|
--------0-------------------|----------------------------|
--------0--0--3--3--3-3-3-0-|--6--6--6--6S--8--8---8--8--|
--2--2-----0--2--2--2-------|--x--x--x--x---x--x---x--x--|
--2--2--------3--3--3-------|--7--7--9--7S--9--9--11--9--|
--0--0----------------------|--5--5--5--5S--7--7---7--7--|


   E   E   E   E   E  S  S   S  S  E      E  E  E  E   E  E   E  E   
---------------------------------------|----------------------------|
---------------------------------------|----------------------------|
---9---9---9---9---9-------------------|--6--6--6--6---8--8---8--8--|
---x---x---x---x---x-----------10------|--x--x--x--x---x--x---x--x--|
--10--10--12--12--10-----------10------|--7--7--9--7S--9--9--11--9--|
---8---8---8---8---8--8-10S-12----12S--|--5--5--5--5S--7--7---7--7--|


   E   E   E   E   E  S  S   S  S  E      E  E  E  E   E  E   E  E   
---------------------------------------|----------------------------|
---------------------------------------|----------------------------|
---9---9-----------9-------------------|--6--6--6--6---8--8---8--8--|
---x---x-----------x-----------10------|--x--x--x--x---x--x---x--x--|
--10--10--11--10--10-----------10------|--7--7--9--7S--9--9--11--9--|
---8---8---8---8---8--8-10S-12----12S--|--5--5--5--5S--7--7---7--7--|


   E   E   E   E   E  S  S   S  S  E      E  E  E  E   E  E   E  E   
---------------------------------------|----------------------------|
---------------------------------------|----------------------------|
---9---9---9---9---9-------------------|--6--6--6--6---8--8---8-----|
---x---x---x---x---x-----------10------|--x--x--x--x---x--x---x-----|
--10--10--13--12--10-----------10------|--7--7--9--7S--9--9--11-----|
---8---8---8---8---8--8-10S-12----12S--|--5--5--5--5S--7--7---7--0--|


  W                   E  E  E  E  E  E  S S S S    E  E  E  E  E  E  S S S S  
--0----------------|--------0-------------------|--------0-------------------|
--0----------------|--------0-------------------|--------0-------------------|
--x----------------|--------0--0--3--3--3-3-3-0-|--------0--0--3--3--3-3-3-0-|
--2----------------|--2--2-----0--2--2--2-------|--2--2-----0--2--2--2-------|
--2----------------|--2--2--------3--3--3-------|--2--2--------3--3--3-------|
--0----------------|--0--0----------------------|--0--0----------------------|


  E  E  E  E  E  E  S S S S    E  E  E  E  E  E  S S S S  
--------0-------------------|--------0-------------------|
--------0-------------------|--------0-------------------|
--------0--0--3--3--3-3-3-0-|--------0--0--3--3--3-3-3-0-|
--2--2-----0--2--2--2-------|--2--2-----0--2--2--2-------|
--2--2--------3--3--3-------|--2--2--------3--3--3-------|
--0--0----------------------|--0--0----------------------|


  E  E  E  E   E  E  S S E      E  E  E  E   E   E   E   E    
-----------------------------|-------------------------------|
-----------------------------|-------------------------------|
-----------------------------|-------------------------------|
-----------------------------|-------------------------------|
-----------------------------|-------------------------------|
--5--5--5--5S--3--3--3-3-3S--|--5--5--5--5S--3~--3~--3~--3~--|


    E   E   E   E   E   E   E   E        E   E   E   E   E   E   E   E    
------------------------------------|------------------------------------|
------------------------------------|------------------------------------|
------------------------------------|------------------------------------|
------------------------------------|------------------------------------|
------------------------------------|------------------------------------|
--3g5~--5~--5~--5S--3~--3~--3~--3~--|--3g5~--5~--5~--5S--3~--3~--3~--3~--|


    E   E   E   E  E  E  E    E     W                   W                 
---------------------------------|-------------------|-------------------|
---------------------------------|-------------------|-------------------|
---------------------------------|-------------------|-------------------|
---------------------------------|-------------------|-------------------|
---------------------------------|-------------------|-------------------|
--3g5~--5~--5~--5--3--3--3--3g2--|--2----------------|--1----------------|


  E  E  E  E  E  E  S S S S    E  E  E  E  E  E  S S S S  
--------0-------------------|--------0-------------------|
--------0-------------------|--------0-------------------|
--------0--0--3--3--3-3-3-0-|--------0--0--3--3--3-3-3-0-|
--2--2-----0--2--2--2-------|--2--2-----0--2--2--2-------|
--2--2--------3--3--3-------|--2--2--------3--3--3-------|
--0--0----------------------|--0--0----------------------|


  E  E  E  E  E  E  S S S S    E  E  E  E  E  E  S S S S  
--------0-------------------|--------0-------------------|
--------0-------------------|--------0-------------------|
--------0--0--3--3--3-3-3-0-|--------0--0--3--3--3-3-3-0-|
--2--2-----0--2--2--2-------|--2--2-----0--2--2--2-------|
--2--2--------3--3--3-------|--2--2--------3--3--3-------|
--0--0----------------------|--0--0----------------------|


  E  E  E  E   E  E   E  E      E   E   E   E   E   E   E  E   
----------------------------|---------------------------------|
----------------------------|---------------------------------|
--6-------------------------|---------------------------------|
--x-------------------------|---------------------------------|
--7--7--9--7S--9--9--11--9--|--10--10--12--12--10--10--12-----|
--5--5--5--5S--7--7---7--7--|---8---8---8---8---8---8---8--0--|


  E  E  E  E   E  E   E  E      E   E   E   E   E  S  S   S  S  E    
----------------------------|---------------------------------------|
----------------------------|---------------------------------------|
--6--6--6--6---8--8---8--8--|---9---9---9---9---9-------------------|
--x--x--x--x---x--x---x--x--|---x---x---x---x---x-----------10------|
--7--7--9--7S--9--9--11--9--|--10--10--12--12--10-----------10------|
--5--5--5--5S--7--7---7--7--|---8---8---8---8---8--8-10S-12----12S--|


  E  E  E  E   E  E   E  E      E   E   E   E   E   E   E  E   
----------------------------|---------------------------------|
----------------------------|---------------------------------|
--6-------------------------|---------------------------------|
--x-------------------------|---------------------------------|
--7--7--9--7S--9--9--11--9--|--10--10--12--12--10--10--12-----|
--5--5--5--5S--7--7---7--7--|---8---8---8---8---8---8---8--0--|


  E  E  E  E   E  E   E  E     H.              W                 
----------------------------|---------------|-------------------|
----------------------------|---------------|-------------------|
--6--6--6--6---8--8---8--8--|---------------|-------------------|
--x--x--x--x---x--x---x--x--|---------------|-------------------|
--7--7--9--7S--9--9--11--9--|---------------|-------------------|
--5--5--5--5S--7--7---7--7--|---------------|-------------------|


  W                   W                                     
-------------------|-------------------|-------------------|
-------------------|-------------------|-------------------|
-------------------|-------------------|-------------------|
-------------------|-------------------|-------------------|
-------------------|-------------------|-------------------|
-------------------|-------------------|-------------------|


  E  E  E  E  E  E  S S S S    E  E  E  E  E  E  S S S S  
--------0-------------------|--------0-------------------|
--------0-------------------|--------0-------------------|
--------0--0--3--3--3-3-3-0-|--------0--0--3--3--3-3-3-0-|
--2--2-----0--2--2--2-------|--2--2-----0--2--2--2-------|
--2--2--------3--3--3-------|--2--2--------3--3--3-------|
--0--0----------------------|--0--0----------------------|


  E  E  E  E  E  E  S S S S    E  E  E  E  E  E  S S S S  
--------0-------------------|--------0-------------------|
--------0-------------------|--------0-------------------|
--------0--0--3--3--3-3-3-0-|--------0--0--3--3--3-3-3-0-|
--2--2-----0--2--2--2-------|--2--2-----0--2--2--2-------|
--2--2--------3--3--3-------|--2--2--------3--3--3-------|
--0--0----------------------|--0--0----------------------|


  E  E  Q    E  E  E  E     E  E  E  E  E  E  S S S S  
--------0----------------|--------0-------------------|
--------0----------------|--------0-------------------|
--------0----------------|--------0--0--3--3--3-3-3-0-|
--2--2-------2--2--2--2--|--2--2-----0--2--2--2-------|
--2--2-------2--2--2--2--|--2--2--------3--3--3-------|
--0--0-------0--0--0--0--|--0--0----------------------|


  E  E  E  E  E  E  S S S S    E  E  E  E  E  E  S S S S  
--------0-------------------|--------0-------------------|
--------0-------------------|--------0-------------------|
--------0--0--3--3--3-3-3-0-|--------0--0--3--3--3-3-3-0-|
--2--2-----0--2--2--2-------|--2--2-----0--2--2--2-------|
--2--2--------3--3--3-------|--2--2--------3--3--3-------|
--0--0----------------------|--0--0----------------------|


  E  E  E  E  E  E  S S S S    E  E  E  E  E  E  S S S S  
--------0-------------------|--------0-------------------|
--------0-------------------|--------0-------------------|
--------0--0--3--3--3-3-3-0-|--------0--0--3--3--3-3-3-0-|
--2--2-----0--2--2--2-------|--2--2-----0--2--2--2-------|
--2--2--------3--3--3-------|--2--2--------3--3--3-------|
--0--0----------------------|--0--0----------------------|


  E  E  E  E  E  E  S S S S    E  E  E  E  E  E  S S S S  
--------0-------------------|--------0-------------------|
--------0-------------------|--------0-------------------|
--------0--0--3--3--3-3-3-0-|--------0--0--3--3--3-3-3-0-|
--2--2-----0--2--2--2-------|--2--2-----0--2--2--2-------|
--2--2--------3--3--3-------|--2--2--------3--3--3-------|
--0--0----------------------|--0--0----------------------|


  E  E  E  E  E  E  S S S S    E  E  E  E  E  E  S S S S  
--------0-------------------|--------0-------------------|
--------0-------------------|--------0-------------------|
--------0--0--3--3--3-3-3-0-|--------0--0--3--3--3-3-3-0-|
--2--2-----0--2--2--2-------|--2--2-----0--2--2--2-------|
--2--2--------3--3--3-------|--2--2--------3--3--3-------|
--0--0----------------------|--0--0----------------------|


  E  E  E  E  E  E  S S S S    E  E  E  E  E  E  S S S S  
--------0-------------------|--------0-------------------|
--------0-------------------|--------0-------------------|
--------0--0--3--3--3-3-3-0-|--------0--0--3--3--3-3-3-0-|
--2--2-----0--2--2--2-------|--2--2-----0--2--2--2-------|
--2--2--------3--3--3-------|--2--2--------3--3--3-------|
--0--0----------------------|--0--0----------------------|


  E  E  E  E  E  E  S S S S    E  E  E  E  E  E  S S S S  
--------0-------------------|--------0-------------------|
--------0-------------------|--------0-------------------|
--------0--0--3--3--3-3-3-0-|--------0--0--3--3--3-3-3-0-|
--2--2-----0--2--2--2-------|--2--2-----0--2--2--2-------|
--2--2--------3--3--3-------|--2--2--------3--3--3-------|
--0--0----------------------|--0--0----------------------|


  E  E  E  E  E  E  S S S S    E  E  E  E  E  E  S S S S  
--------0-------------------|--------0-------------------|
--------0-------------------|--------0-------------------|
--------0--0--3--3--3-3-3-0-|--------0--0--3--3--3-3-3-0-|
--2--2-----0--2--2--2-------|--2--2-----0--2--2--2-------|
--2--2--------3--3--3-------|--2--2--------3--3--3-------|
--0--0----------------------|--0--0----------------------|


  E  E  E  E  E  E  S S S S    E  E  E  E  E  E  S S S S  
--------0-------------------|--------0-------------------|
--------0-------------------|--------0-------------------|
--------0--0--3--3--3-3-3-0-|--------0--0--3--3--3-3-3-0-|
--2--2-----0--2--2--2-------|--2--2-----0--2--2--2-------|
--2--2--------3--3--3-------|--2--2--------3--3--3-------|
--0--0----------------------|--0--0----------------------|


  E  E  E  E  E  E  S S S S    E  E  E  E  E  E  S S S S  
--------0-------------------|--------0-------------------|
--------0-------------------|--------0-------------------|
--------0--0--3--3--3-3-3-0-|--------0--0--3--3--3-3-3-0-|
--2--2-----0--2--2--2-------|--2--2-----0--2--2--2-------|
--2--2--------3--3--3-------|--2--2--------3--3--3-------|
--0--0----------------------|--0--0----------------------|


  E  E  E  E  E  E  S S S S    E  E  E  E  E  E  S S S S  
--------0-------------------|--------0-------------------|
--------0-------------------|--------0-------------------|
--------0--0--3--3--3-3-3-0-|--------0--0--3--3--3-3-3-0-|
--2--2-----0--2--2--2-------|--2--2-----0--2--2--2-------|
--2--2--------3--3--3-------|--2--2--------3--3--3-------|
--0--0----------------------|--0--0----------------------|


  E  E  E  E  E  E  S S S S    E  E  E  E  E  E  S S S S  
--------0-------------------|--------0-------------------|
--------0-------------------|--------0-------------------|
--------0--0--3--3--3-3-3-0-|--------0--0--3--3--3-3-3-0-|
--2--2-----0--2--2--2-------|--2--2-----0--2--2--2-------|
--2--2--------3--3--3-------|--2--2--------3--3--3-------|
--0--0----------------------|--0--0----------------------|


  E  E  E  E  E  E  S S S S    E  E  E  E  E  E  S S S S  
--------0-------------------|--------0-------------------|
--------0-------------------|--------0-------------------|
--------0--0--3--3--3-3-3-0-|--------0--0--3--3--3-3-3-0-|
--2--2-----0--2--2--2-------|--2--2-----0--2--2--2-------|
--2--2--------3--3--3-------|--2--2--------3--3--3-------|
--0--0----------------------|--0--0----------------------|


  E  E  E  E  E  E  S S S S    E  E  E  E  E  E  S S S S  
--------0-------------------|--------0-------------------|
--------0-------------------|--------0-------------------|
--------0--0--3--3--3-3-3-0-|--------0--0--3--3--3-3-3-0-|
--2--2-----0--2--2--2-------|--2--2-----0--2--2--2-------|
--2--2--------3--3--3-------|--2--2--------3--3--3-------|
--0--0----------------------|--0--0----------------------|


  E  E  E  E  E  E  S S S S    E  E  E  E  E  E  S S S S   
--------0-------------------|--------0-------------------||
--------0-------------------|--------0-------------------||
--------0--0--3--3--3-3-3-0-|--------0--0--3--3--3-3-3-0-||
--2--2-----0--2--2--2-------|--2--2-----0--2--2--2-------||
--2--2--------3--3--3-------|--2--2--------3--3--3-------||
--0--0----------------------|--0--0----------------------||








Gtr 2


     H.                           E   E      E  E  E  E  S S S S S S S S  
E||---------------------------------------|--------0---------------------|
B||---------------------------------------|--------0---------------------|
G||---------------------------------------|--------0-----3-3-3-3-3-3-2-0-|
D||---------------------------------------|-----------2------------------|
A||---------------------------------------|------------------------------|
E||----------------------------------12S--|--0--0------------------------|


  E  E  E  E  S S S S S S S S    E  E  E  E  S S S S S S S S  
--------0---------------------|--------0---------------------|
--------0---------------------|--------0---------------------|
-----------0--3-3-3-3-3-3-2-0-|--------0--0--3-3-3-3-3-3-2-0-|
------------------------------|-----------0------------------|
------------------------------|------------------------------|
--0--0------------------------|--0--0------------------------|


   E   E   E  E   E   E   E   E     H.           E  E   
------12------0---0---0---0---0--|------------------x--|
--12--12--12--0--11--11--10--10--|--8------------L--x--|
--12------12---------------------|---------------------|
---------------------------------|---------------------|
---------------------------------|---------------------|
---------------------------------|---------------------|


   E   E   E  E   E   E   E   E     Q    E  S   S     Q    E  E   
------12------0---0---0---0---0--|-------------------------x--x--|
--12--12--12--0--11--11--10--10--|--8----L--8b-(8)pbr------x--x--|
--12------12---------------------|-------------------------------|
---------------------------------|-------------------------------|
---------------------------------|-------------------------------|
---------------------------------|-------------------------------|


   E   E   E  E   E   E   E   E     Q      E.      S     Q    E  E   
------12------0---0---0---0---0--|-------------------------------x--|
--12--12--12--0--11--11--10--10--|--8b----(8)pb---(8)pbr-L----L--x--|
--12------12---------------------|----------------------------------|
---------------------------------|----------------------------------|
---------------------------------|----------------------------------|
---------------------------------|----------------------------------|


   E   E   E  E   E   E   E  E     W                 
------12------0---0---0---0-----|--0----------------|
--12--12--12--0--11--11--10--8--|--0----------------|
--12------12--------------------|--9----------------|
--------------------------------|--9----------------|
--------------------------------|--7----------------|
--------------------------------|--0----------------|


  E  E  E  E  S S S S S S S S    E  E  E  E  S S S S S S S S  
--------0---------------------|--------0---------------------|
--------0---------------------|--------0---------------------|
-----------0--3-3-3-3-3-3-2-0-|-----------0--3-3-3-3-3-3-2-0-|
------------------------------|------------------------------|
------------------------------|------------------------------|
--0--0------------------------|--0--0------------------------|


  E  E  E  E  S S S S S S S S    E  E  E  E  S S S S S S S S  
--------0---------------------|--------0---------------------|
--------0---------------------|--------0---------------------|
-----------0--3-3-3-3-3-3-2-0-|-----------0--3-3-3-3-3-3-2-0-|
------------------------------|------------------------------|
------------------------------|------------------------------|
--0--0------------------------|--0--0------------------------|


                                    |----3---|                        
   E   E   E  E   E   E   E   E     E    E   E     E   E   Q.     E   
------12------0---0---0---0---0--|-----------------------------------|
--12--12--12--0--11--11--10--10--|--8br--L--(8)br--L--(8)--L---------|
--12------12---------------------|-----------------------------------|
---------------------------------|-----------------------------------|
---------------------------------|-----------------------------------|
---------------------------------|-----------------------------------|


   E   E   E  E   E   E   E   E     H.            E   E   
------12------0---0---0---0---0--|-----------------------|
--12--12--12--0--11--11--10--10--|--8~------------L~-----|
--12------12---------------------|-----------------------|
---------------------------------|-----------------------|
---------------------------------|-----------------------|
---------------------------------|-----------------------|


   E   E   E  E   E   E   E   E     Q.      E    Q.      E   
------12------0---0---0---0---0--|--0-----------------------|
--12--12--12--0--11--11--10--10--|--8------(8)~--L~---------|
--12------12---------------------|--------------------------|
---------------------------------|--------------------------|
---------------------------------|--------------------------|
---------------------------------|--------------------------|


   E   E   E  E   E   E   E  E     W                 
------12------0---0---0---0-----|--0----------------|
--12--12--12--0--11--11--10--8--|--0----------------|
--12------12--------------------|--9----------------|
--------------------------------|--9----------------|
--------------------------------|--7----------------|
--------------------------------|--0----------------|


  E  E  E  E  S S S S S S S S    E  E  E  E  S S S S S S S S  
--------0---------------------|--------0---------------------|
--------0---------------------|--------0---------------------|
-----------0--3-3-3-3-3-3-2-0-|-----------0--3-3-3-3-3-3-2-0-|
------------------------------|------------------------------|
------------------------------|------------------------------|
--0--0------------------------|--0--0------------------------|


  E  E  E  E  S S S S S S S S    E  E  E  E  S S S S S S S S  
--------0---------------------|--------0---------------------|
--------0---------------------|--------0---------------------|
-----------0--3-3-3-3-3-3-2-0-|-----------0--3-3-3-3-3-3-2-0-|
------------------------------|------------------------------|
------------------------------|------------------------------|
--0--0------------------------|--0--0------------------------|


  E  E  E  E   E  E  E  E      E  E  E  E   E  E  E  E    
----------------------------|----------------------------|
----------------------------|----------------------------|
----------------------------|----------------------------|
--7--7--7--7S--5--5--5--5S--|--7--7--7--7S--5--5--5--5S--|
--7--7--7--7S--5--5--5--5S--|--7--7--7--7S--5--5--5--5S--|
--5--5--5--5S--3--3--3--3S--|--5--5--5--5S--3--3--3--3S--|


  E  E  E  E   E  E  E  E      E  E  E  E   E  E  E  E    
----------------------------|----------------------------|
----------------------------|--0-------------------------|
----------------------------|--0--0--0--0----------------|
--7-------------------------|--x--x--x--x----------------|
--7--7--7--7S--5--5--5--5S--|--7--7--7--7S--5--5--5--5S--|
--5--5--5--5S--3--3--3--3S--|--5--5--5--5S--3--3--3--3S--|


  E  E  E  E   E  E  E  E     Q.     E  H           Q.     E  H         
---------------------------|---------0--L--------|---------0--L--------|
-----------0---------------|---------0--L--------|---------0--L--------|
--------0--0---------0-----|---------3--L--------|---------2--L--------|
--------x--x---------x-----|--4------------------|--3------------------|
--7--7--7--7S--5--5--5--5--|--4------------------|--3------------------|
--5--5--5--5S--3--3--3--3--|--2------------------|--1------------------|


-----------|-----------|-----------|-----------|
-----------|-----------|-----------|-----------|
-----------|-----------|-----------|-----------|
-----------|-----------|-----------|-----------|
-----------|-----------|-----------|-----------|
-----------|-----------|-----------|-----------|


   E   E   E  E   E   E   E   E     H.           E  E   
------12------0---0---0---0---0--|------------------x--|
--12--12--12--0--11--11--10--10--|--8------------L--x--|
--12------12---------------------|---------------------|
---------------------------------|---------------------|
---------------------------------|---------------------|
---------------------------------|---------------------|


   E   E   E  E   E   E   E   E     Q    E  S   S     Q    E  E   
------12------0---0---0---0---0--|-------------------------x--x--|
--12--12--12--0--11--11--10--10--|--8----L--8b-(8)pbr------x--x--|
--12------12---------------------|-------------------------------|
---------------------------------|-------------------------------|
---------------------------------|-------------------------------|
---------------------------------|-------------------------------|


   E   E   E  E   E   E   E   E     Q      E.      S     Q    E  E   
------12------0---0---0---0---0--|-------------------------------x--|
--12--12--12--0--11--11--10--10--|--8b----(8)pb---(8)pbr-L----L--x--|
--12------12---------------------|----------------------------------|
---------------------------------|----------------------------------|
---------------------------------|----------------------------------|
---------------------------------|----------------------------------|


   E   E   E  E   E   E   E  E                                                 
------12------0---0---0---0-----|-----|-------------------|-------------------|
--12--12--12--0--11--11--10--8--|-----|-------------------|-------------------|
--12------12--------------------|-----|-------------------|-------------------|
--------------------------------|-----|-------------------|-------------------|
--------------------------------|-----|-------------------|-------------------|
--------------------------------|-----|-------------------|-------------------|


                                          E  E  E  E  S S S S S S S S  
-------------------|-------------------|--------0---------------------|
-------------------|-------------------|--------0---------------------|
-------------------|-------------------|-----------0--3-3-3-3-3-3-2-0-|
-------------------|-------------------|------------------------------|
-------------------|-------------------|------------------------------|
-------------------|-------------------|--0--0------------------------|


  E  E  E  E  S S S S S S S S    E  E  E  E  S S S S S S S S  
--------0---------------------|--------0---------------------|
--------0---------------------|--------0---------------------|
-----------0--3-3-3-3-3-3-2-0-|-----------0--3-3-3-3-3-3-2-0-|
------------------------------|------------------------------|
------------------------------|------------------------------|
--0--0------------------------|--0--0------------------------|


  E  E  E  E  S S S S S S S S    E  E  E  E  S S S S S S S S  
--------0---------------------|--------0---------------------|
--------0---------------------|--------0---------------------|
-----------0--3-3-3-3-3-3-2-0-|-----------0--3-3-3-3-3-3-2-0-|
------------------------------|------------------------------|
------------------------------|------------------------------|
--0--0------------------------|--0--0------------------------|


  E  E  E  E  S S S S S S S S    E  E  E  E  S S S S Q       
--------0---------------------|--------0--------------------|
--------0---------------------|--------0--------------------|
-----------0--3-3-3-3-3-3-2-0-|-----------0--3-3-3-3-3b~----|
------------------------------|-----------------------------|
------------------------------|-----------------------------|
--0--0------------------------|--0--0-----------------------|


  E  E  E  E  S S S S E.    S    E  E  E  E  S S S S S S S S  
--------0-------------------0-|--------0---------------------|
--------0---------------------|--------0---------------------|
-----------0--3-3-3-3-3b~-----|-----------0--3-3-3-3-3-3-2-0-|
------------------------------|------------------------------|
------------------------------|------------------------------|
--0--0------------------------|--0--0------------------------|


  E  E  E  E  S S S S S S S S    E  E  E  E  S S S S S S S S  
--------0---------------------|--------0---------------------|
--------0---------------------|--------0---------------------|
-----------0--3-3-3-3-3-3-2-0-|-----------0--3-3-3-3-3-3-2-0-|
------------------------------|------------------------------|
------------------------------|------------------------------|
--0--0------------------------|--0--0------------------------|


  E  E  E  E  S S S S S S S S    E  E  E  E  S S S S S S S S  
--------0---------------------|--------0---------------------|
--------0---------------------|--------0---------------------|
-----------0--3-3-3-3-3-3-2-0-|-----------0--3-3-3-3-3-3-2-0-|
------------------------------|------------------------------|
------------------------------|------------------------------|
--0--0------------------------|--0--0------------------------|


  E  E  E  E  S S S S S S S S    E  E  E  E  S S S S S S S S  
--------0---------------------|--------0---------------------|
--------0---------------------|--------0---------------------|
-----------0--3-3-3-3-3-3-2-0-|-----------0--3-3-3-3-3-3-2-0-|
------------------------------|------------------------------|
------------------------------|------------------------------|
--0--0------------------------|--0--0------------------------|


  E  E  E  E  S S S S S S S S    E  E  E  E  S S S S S S S S  
--------0---------------------|--------0---------------------|
--------0---------------------|--------0---------------------|
-----------0--3-3-3-3-3-3-2-0-|-----------0--3-3-3-3-3-3-2-0-|
------------------------------|------------------------------|
------------------------------|------------------------------|
--0--0------------------------|--0--0------------------------|


  E  E  E  E  S S S S S S S S    E  E  E  E  S S S S S S S S  
--------0---------------------|--------0---------------------|
--------0---------------------|--------0---------------------|
-----------0--3-3-3-3-3-3-2-0-|-----------0--3-3-3-3-3-3-2-0-|
------------------------------|------------------------------|
------------------------------|------------------------------|
--0--0------------------------|--0--0------------------------|


  E  E  E  E  S S S S S S S S    E  E  E  E  S S S S S S S S  
--------0---------------------|--------0---------------------|
--------0---------------------|--------0---------------------|
-----------0--3-3-3-3-3-3-2-0-|-----------0--3-3-3-3-3-3-2-0-|
------------------------------|------------------------------|
------------------------------|------------------------------|
--0--0------------------------|--0--0------------------------|


  E  E  E  E  S S S S S S S S    E  E  E  E  S S S S S S S S  
--------0---------------------|--------0---------------------|
--------0---------------------|--------0---------------------|
-----------0--3-3-3-3-3-3-2-0-|-----------0--3-3-3-3-3-3-2-0-|
------------------------------|------------------------------|
------------------------------|------------------------------|
--0--0------------------------|--0--0------------------------|


  E  E  E  E  S S S S S S S S    E  E  E  E  S S S S S S S S  
--------0---------------------|--------0---------------------|
--------0---------------------|--------0---------------------|
-----------0--3-3-3-3-3-3-2-0-|-----------0--3-3-3-3-3-3-2-0-|
------------------------------|------------------------------|
------------------------------|------------------------------|
--0--0------------------------|--0--0------------------------|


  E  E  E  E  S S S S S S S S    E  E  E  E  S S S S S S S S  
--------0---------------------|--------0---------------------|
--------0---------------------|--------0---------------------|
-----------0--3-3-3-3-3-3-2-0-|-----------0--3-3-3-3-3-3-2-0-|
------------------------------|------------------------------|
------------------------------|------------------------------|
--0--0------------------------|--0--0------------------------|


  E  E  E  E  S S S S S S S S    E  E  E  E  S S S S S S S S  
--------0---------------------|--------0---------------------|
--------0---------------------|--------0---------------------|
-----------0--3-3-3-3-3-3-2-0-|-----------0--3-3-3-3-3-3-2-0-|
------------------------------|------------------------------|
------------------------------|------------------------------|
--0--0------------------------|--0--0------------------------|


  E  E  E  E  S S S S S S S S    E  E  E  E  S S S S S S S S  
--------0---------------------|--------0---------------------|
--------0---------------------|--------0---------------------|
-----------0--3-3-3-3-3-3-2-0-|-----------0--3-3-3-3-3-3-2-0-|
------------------------------|------------------------------|
------------------------------|------------------------------|
--0--0------------------------|--0--0------------------------|


  E  E  E  E  S S S S S S S S    E  E  E  E  S S S S S S S S  
--------0---------------------|--------0---------------------|
--------0---------------------|--------0---------------------|
-----------0--3-3-3-3-3-3-2-0-|-----------0--3-3-3-3-3-3-2-0-|
------------------------------|------------------------------|
------------------------------|------------------------------|
--0--0------------------------|--0--0------------------------|


  E  E  E  E  S S S S S S S S   
--------0---------------------||
--------0---------------------||
-----------0--3-3-3-3-3-3-2-0-||
------------------------------||
------------------------------||
--0--0------------------------||










Gtr 3



                                     Q    E  Q.     E  E   
E||-------|-------|-------|-------|-------3---------5-----|
B||-------|-------|-------|-------|-------2---------4-----|
G||-------|-------|-------|-------|-------2---------4-----|
D||-------|-------|-------|-------|-----------------------|
A||-------|-------|-------|-------|-----------------------|
E||-------|-------|-------|-------|-----------------------|


  Q    E  Q.     E  E     Q    E  Q.     E  E     Q    E  Q.     E  E   
-------6---------6-----|-------3---------5-----|-------6---------6-----|
-------5---------5-----|-------2---------4-----|-------5---------5-----|
-------5---------5-----|-------2---------4-----|-------5---------5-----|
-----------------------|-----------------------|-----------------------|
-----------------------|-----------------------|-----------------------|
-----------------------|-----------------------|-----------------------|


  Q    E  Q.     E  E     Q    E  Q.     E  E     Q    E  Q.     E  E   
-------3---------5-----|-------6---------6-----|-------3---------5-----|
-------2---------4-----|-------5---------5-----|-------2---------4-----|
-------2---------4-----|-------5---------5-----|-------2---------4-----|
-----------------------|-----------------------|-----------------------|
-----------------------|-----------------------|-----------------------|
-----------------------|-----------------------|-----------------------|


  W                                                                             
--0----------------|-------------------|-------------------|-------------------|
--0----------------|-------------------|-------------------|-------------------|
--x----------------|-------------------|-------------------|-------------------|
--2----------------|-------------------|-------------------|-------------------|
--2----------------|-------------------|-------------------|-------------------|
--0----------------|-------------------|-------------------|-------------------|


                      Q    E  Q.     E  E     Q    E  Q    S S S S E   
-------------------|-------3---------5-----|-------6------------------|
-------------------|-------2---------4-----|-------5------------------|
-------------------|-------2---------4-----|-------5-------------5-7--|
-------------------|-----------------------|---------------5---5------|
-------------------|-----------------------|-----------------7--------|
-------------------|-----------------------|--------------------------|


  Q    E  Q.     E  E     Q    E  Q    S S S S E     Q    E  Q.     E  E   
-------3---------5-----|-------6------------------|-------3---------5-----|
-------2---------4-----|-------5------------------|-------2---------4-----|
-------2---------4-----|-------5-------------5----|-------2---------4-----|
-----------------------|-------------------5------|-----------------------|
-----------------------|---------------5-7--------|-----------------------|
-----------------------|--------------------------|-----------------------|


  Q    E  Q    S S S S E     Q    E  Q.     E  E     W                 
-------6------------------|-------3---------5-----|--0----------------|
-------5------------------|-------2---------4-----|--0----------------|
-------5-------------5----|-------2---------4-----|--x----------------|
-------------------5------|-----------------------|--2----------------|
---------------5-7--------|-----------------------|--2----------------|
--------------------------|-----------------------|--0----------------|


-------------------|-------------------|-------------------|-------------------|
-------------------|-------------------|-------------------|-------------------|
-------------------|-------------------|-------------------|-------------------|
-------------------|-------------------|-------------------|-------------------|
-------------------|-------------------|-------------------|-------------------|
-------------------|-------------------|-------------------|-------------------|


   E   E   E   E   E  E  E  E       E   E   E   E   E  E  E  E   
--------------------------------|-------------------------------|
--10--10--10--10S--8--8--8--8S--|--10--10--10--10S--8--8--8--8--|
---9---9---9---9S--7--7--7--7S--|---9---9---9---9S--7--7--7--7--|
---7---7---7---7S--5--5--5--5S--|---7---7---7---7S--5--5--5--5--|
--------------------------------|-------------------------------|
--------------------------------|-------------------------------|


   E  E  H.                                                    
----------------------|-------------------|-------------------|
--10------------------|-------------------|-------------------|
---9------------------|-------------------|-------------------|
---7------------------|-------------------|-------------------|
----------------------|-------------------|-------------------|
----------------------|-------------------|-------------------|


                      H        E  Q     S T   T   
-------------------|-----------------------------|
-------------------|-----------------------------|
-------------------|-----------------------------|
-------------------|--------------2S----L-L-(14)-|
-------------------|-----------------------------|
-------------------|-----------------------------|


   Q      Q      E     E     S    E.      
-----------------------------------------|
--15-----15-----15-----L----15b-(15)pb---|
--14b----14b----14b--(14)b--14b-(14)b----|
-----------------------------------------|
-----------------------------------------|
-----------------------------------------|


   E     E     E     E      S     S     S  S    S  S  S  S  
-----------------------------------------------------------|
--15pb--15pb--15pb--15pbr--15----15pbr-17-15pb-15-15-15-15-|
--14pb--14pb--14pb--14pbr--14pbr-14pbr-15-14pb-14-14-14-14-|
-----------------------------------------------------------|
-----------------------------------------------------------|
-----------------------------------------------------------|


   S  S  E   E   S  S  S  E.     E    S      S   
------------------------------------------------|
--15-15-15--15--17-17--L-17b~----L~--17pbr-(17)-|
--14----12--12----------------------------------|
------------------------------------------------|
------------------------------------------------|
------------------------------------------------|


   S  S  S   S  E   S  S  S  E.   E  E                                       
----------------------------------------|-----|-----|-----|-----|-----|-----|
--14------------------15b-L-15~---L-----|-----|-----|-----|-----|-----|-----|
-----16-16~-16~-L--16-------------------|-----|-----|-----|-----|-----|-----|
----------------------------------------|-----|-----|-----|-----|-----|-----|
----------------------------------------|-----|-----|-----|-----|-----|-----|
----------------------------------------|-----|-----|-----|-----|-----|-----|


-----|-----|-----|-----|-----|-----|-----|-----|-----|-----|-----|
-----|-----|-----|-----|-----|-----|-----|-----|-----|-----|-----|
-----|-----|-----|-----|-----|-----|-----|-----|-----|-----|-----|
-----|-----|-----|-----|-----|-----|-----|-----|-----|-----|-----|
-----|-----|-----|-----|-----|-----|-----|-----|-----|-----|-----|
-----|-----|-----|-----|-----|-----|-----|-----|-----|-----|-----|


  E  E  E  E  E  E  E  E     E  E  E  E  E  E  E  E     Q.     E  Q    Q     
--0-----------------------|--0-----------------------|----------------------|
-----0-----------------1--|-----0--------1-----------|----------------------|
--------0-----------0-----|--------0--------0--------|-----------------2----|
-----------2-----2--------|-----------2--------2-----|--2------4--5---------|
--------------3-----------|-----------------------3--|----------------------|
--------------------------|--------------------------|----------------------|


  Q    Q    Q    Q       E     E      E      E      E      E      E      E      
----------------------|--------------------------------------------------------|
------------3---------|--------------------------------------------------------|
--4----2---------5----|--4br--(4)br--(4)br--(4)br--(4)br--(4)br--(4)br--(4)br--|
----------------------|--------------------------------------------------------|
----------------------|--------------------------------------------------------|
----------------------|--------------------------------------------------------|


   E      E      E      E      Q      Q                                     
-------------------------------------------|-------|-------|-------|-------|
-------------------------------------------|-------|-------|-------|-------|
--(4)br--(4)br--(4)br--(4)br--(4)S---------|-------|-------|-------|-------|
-------------------------------------------|-------|-------|-------|-------|
-------------------------------------------|-------|-------|-------|-------|
-------------------------------------------|-------|-------|-------|-------|


-------|-------|-------|-------|-------|-------|-------|-------|-------|-------|
-------|-------|-------|-------|-------|-------|-------|-------|-------|-------|
-------|-------|-------|-------|-------|-------|-------|-------|-------|-------|
-------|-------|-------|-------|-------|-------|-------|-------|-------|-------|
-------|-------|-------|-------|-------|-------|-------|-------|-------|-------|
-------|-------|-------|-------|-------|-------|-------|-------|-------|-------|


                          E  E  E  E  E  E  E  E     E  E  E  E  E  E  E  E   
-------|-------|-------|--0-----------------------|--0-----------------------|
-------|-------|-------|-----0-----------------1--|-----0--------1-----------|
-------|-------|-------|--------0-----------0-----|--------0--------0--------|
-------|-------|-------|-----------2-----2--------|-----------2--------2-----|
-------|-------|-------|--------------3-----------|-----------------------3--|
-------|-------|-------|--------------------------|--------------------------|


  Q.     E  Q    Q       Q    Q    Q    Q     
----------------------|----------------------|
----------------------|------------3---------|
-----------------2----|--4----2---------5----|
--2------4--5---------|----------------------|
----------------------|----------------------|
----------------------|----------------------|


  E     E      E      E    E  E  E  E     W                  
---------------------------------------|-------------------||
---------------------------------------|-------------------||
--4br--(4)br--(4)br--(4)b--4--2--------|-------------------||
---------------------------------5--4--|--2----------------||
---------------------------------------|-------------------||
---------------------------------------|-------------------||




Duration Legend
---------------
W - whole
H - half
Q - quarter
E - 8th
S - 16th
T - 32nd
X - 64th
. - note dotted
|-n-|  - n-tuplets


Tablature Legend
----------------
L - tied note
x - dead note
g - grace note
(n) - ghost note
> - accentuded note
NH - natural harmonic
AH - artificial harmonic
TH - tapped harmonic
SH - semi harmonic
PH - pitch harmonic
h - hammer on
p - pull off
b - bend
br - bendRelease
pb - preBend
pbr - preBendRelease
brb - bendReleaseBend
\n/ - tremolo bar dip
\n - tremolo bar dive
-/n - tremolo bar Release up
/n\ - tremolo bar inverted dip
/n - tremolo bar return
-\n - tremolo bar Release down
S - shift slide
s - legato slide
/ -  slide into from below or out of upwards
\ -  slide into from above or out of downwards
~ - vibrato
W - wide vibrato
tr - trill
TP - tremolo picking
T - tapping
S - slap
P - pop
< - fade in
^ - brush up
v - brush down
comments
We did not receive enough feedback on this tab! Please rate:
print report bad tab
1 2 3 4 5
1 comment total.
0 reply
conor123096 wrote on July 11 2008, 11:10 am

it must have took a long time to make that tab


good work

I want to post or [tab]
guest
You may want to rate the tab now too:
select rating
Please do not post tabs as comments. Select "correction" instead!