Oops, an error
Loading. Please wait.

The Other Side Tab

6,623 views 9 this week
no commentswrite comment
1 2 3 4 5
excellent!
x 2
Autoscroll
+/-
esc
set tempo
stop
Contributor
WARNING: You are trying to view
                                    content from Ultimate-Guitar.com
                                    in an unauthorized application,
                                    which is prohibited.

                                    Please use an official Ultimate
                                    Guitar Tabs application for iPhone,
                                    iPad or Android to access legitimate
                                    chords, guitar, bass, and drum tabs
                                    from Ultimate-Guitar.com database.

                                    Type "ultimate guitar tabs" in Apple
                                    App Store's or Android Market's
                                    search to find the application.
#----------------------------------PLEASE NOTE---------------------------------#
#This file is the author's own work and represents their interpretation of the #
#song. You may only use this file for private study, scholarship, or research. #
#------------------------------------------------------------------------------#

THE OTHER SIDE
As recorded by Aerosmith
(From the 1989 Album PUMP)

Transcribed by tonedeafidiot
        

Words and Music by Steven Tyler, Jim Vallance and Holland-Dozier-Holland

Gtr I (E A D G B E) - 'Distortion'
Gtr II (E A D G B E) - 'Clean Solo'
Gtr III (E A D G B E) - 'Lead Vocals '
Gtr IV (E A D G B E) - 'Backing Vocals '

 Intro
  Moderate Rock Q=124
 4/4
  Gtr I
  a E E Q  E E Q    E E E E +Q    E E
|-----------------|-------------------|
|-----------------|-------------------|
|-----9----7-9----|-9---7-9-(9)\------|
|-----9----7-9----|-9---7-9-(9)\----9-|
|----------7-9----|-7---7-7-(7)\----7-|
|-5s7-------------|-------------------|


  +E  E Q  Q  Q    a   +E  Q  a   +E  Q  E E
|----------------|-----------------------------|
|----------------|-----------------------------|
|-----9-7--5--5--|-----------------------------|
|-(9)-9-7--5--5--|---------2----------2--------|
|-(7)---5--3--3--|---------0----------0--------|
|----------------|-3b4-(3)----3b4-(3)----2p0---|


  Q  E E E E Q    E E E E +Q    E E   +E  E E E Q  Q     E  Q  E Q   E     E
|---------------|-------------------|-----------------|----------------------||
|---------------|-------------------|-----------------|----------------------||
|----9---7-9----|-9---7-9-(9)\------|-----------------|----------------------||
|----9---7-9----|-9---7-9-(9)\----9-|-(9)-9-7---5--5--|-----2----2---------2-||
|----7---7-7----|-7---7-7-(7)\----7-|-(7)-7-5---3--3--|-----0----0---------0-||
|---------------|-------------------|-----------------|--3-----3-----3b3.5---||
|
| Gtr III
| W               W                    W                +H       E E E     E
|---------------|-------------------|-----------------|----------------------||
|---------------|-------------------|--5--------------|-(5)--------3-5p====3-||
|---------------|-------------------|--4--------------|-(4)------------------||
|---------------|-------------------|-----------------|----------------------||
|---------------|-------------------|-----------------|----------------------||
|---------------|-------------------|-----------------|----------------------||


 Chorus
  Q    E E E  E Q        E   E  E  E +Q     E E
|--------------------|--------------------------|
|--------------------|--------------------------|
|------9---7--9------|---9------7--9-(9)\-------|
|------9---7--9------|---9------7--9-(9)\-----9-|
|------7---7--7------|---7------7--7-(7)\-----7-|
|--------------------|--------------------------|
|
| E  E E E E  E E  E     Q      H           E E
|--------------------|--------------------------|
|-5--5-7-5-8-10p8-12-|--12------------------5-3-|
|-9---------------12-|-(12)-12-11--9--9---7p5-5-|
|-9---------------14-|-(14)-14-12-10-10---9p7-5-|
|--------------------|--------------------------|
|--------------------|--------------------------|
  H.            E  E    +E   E  E  E  E   E E E


  +E  E E E Q    Q       E  Q     E  Q   E     E
|---------------------|--------------------------|
|---------------------|--------------------------|
|---------------------|--------------------------|
|-(9)-9-7---5----5----|-----2--------2---------2-|
|-(7)-7-5---3----3----|-----0--------0---------0-|
|---------------------|--3--------3------3b3.5---|
|
|  E  E E E E  E E  E    Q     H         E     E
|---------------------|--------------------------|
|--5--5-7-5-8-10p8-12-|-12---------------------5-|
|--9---------------12-|-12-12-11--9--9-7-------9-|
|--9---------------14-|-14-14-12-10-10-9-------9-|
|---------------------|--------------------------|
|---------------------|--------------------------|
   H.            E  E    E  E  E  E  E Q       E


  Q    E E E  E Q        E   E  E  E +Q     E E
|--------------------|--------------------------|
|--------------------|--------------------------|
|------9---7--9------|---9------7--9-(9)\-------|
|------9---7--9------|---9------7--9-(9)\-----9-|
|------7---7--7------|---7------7--7-(7)\-----7-|
|--------------------|--------------------------|
|
| E  E E E E  E E  E     Q      H           Q
|--------------------|--------------------------|
|-5--5-7-5-8-10p8-12-|--12------------------5---|
|-9---------------12-|-(12)-12-11--9--9---7p5-5-|
|-9---------------14-|-(14)-14-12-10-10---9p7-5-|
|--------------------|--------------------------|
|--------------------|--------------------------|
  H.            E  E    +E   E  E  E  E   E E E


  +E  E E E Q    Q        E   Q     E  Q   E     E
|---------------------|----------------------------||
|---------------------|----------------------------||
|---------------------|----------------------------||
|-(9)-9-7---5----5----|-------2--------2---------2-||
|-(7)-7-5---3----3----|-------0--------0---------0-||
|---------------------|---3---------3------3b3.5---||
|
|  E  E E E E  E E  E    +W
|---------------------|----------------------------||
|--5--5-7-5-8-10p8-12-|-(12)p======================||
|--9---------------12-|--12--12-11--9--9-7-------9-||
|--9---------------14-|--14--14-12-10-11-9-------9-||
|---------------------|----------------------------||
|---------------------|----------------------------||
   H.            E  E     E   E  E  E  E Q       E


 Verse
   PM-------|                                     PM-------------------|
   e  e e e e  E  E E     E  E E  E  E  E Q       e  e e e  e  e   e   e
|---------------------|------------------------|--------------------------|
|---------------------|------------------------|--------------------------|
|-------------------7-|-----------7-------7\---|--------------------------|
|--7--7-9-7-7-------7-|------7----7--7----7\---|--------------------------|
|--5--5-5-5-5--8--9---|------8-9-----8--9------|--5--5-7-5--5--5---7---5--|
|---------------------|------------------------|--3--3-3-3--3--3---3---3--|
|
|                                                           |---3----|
|  Q.     E E  E  E E     Q    E  E  E  E E  E   +H        +Q    Q   Q
|---------------------|------------------------|--------------------------|
|-10--------7-10-10-7-|--10----7-10h12-10-8--8-|-(8)-------(8)------------|
|---------7-----------|------------------------|-----------------9---7----|
|-12------------------|-(12)-------------------|-12-----------------------|
|-12------------------|-(12)-------------------|-14-----------------------|
|---------------------|------------------------|--------------------------|
   W                     +W                       H.               Q


  PM--------------------------|
  e e e e e e  e e   e  e e e e  E  E E
|------------------|--------------------|
|------------------|--------------------|
|------------------|------------------7-|
|-5-5-7-5-5-5--7-5s|=7--7-9-7-7-------7-|
|-3-3-3-3-3-3--3-3s|=5--5-5-5-5--8--9---|
|------------------|--------------------|
|
| E E E E Q    Q     Q.     E E  E  E E
|------------------|--------------------|
|-8-5-8-5-8---10---|----------7-10-10-7-|
|------------------|--------7-----------|
|------------------|--------------------|
|------------------|--------------------|
|------------------|--------------------|


                              PM--------------|
   E E E     E   E   E E E    e  e e e  e e e e
|--------------------------|--------------------|
|--------------------------|--------------------|
|------------7-----------7-|--------------------|
|----7-------7-----------7-|--------------------|
|----8-9-------------8-9---|--5--5-7-5--5-5-7-5-|
|--------------------------|--3--3-3-3--3-3-3-3-|
|
|  Q   E  a  E  +E   Q   E   +H         Q   Q
|--------------------------|--------------------|
|-10---7-10h12-(12)-10---8-|-(8)h======12p==5---|
|--------------------------|--------------------|
|--------------------------|--------------------|
|--------------------------|--------------------|
|--------------------------|--------------------|


  PM---------------------------|
  e e e e e e e s s   e  e e e e  E  S S E    E E E     E   E     E Q
|-------------------|----------------------|-----------------------------|
|-------------------|----------------------|-----------------------------|
|-------------------|--------------------7-|------------7-----------7\---|
|-5-5-7-5-5-5-7-5-5s|=7--7-9-7-7---------7-|----7-------7-----------7\---|
|-3-3-3-3-3-3-3-3-3s|=5--5-5-5-5--8--8h9---|----8-9---------8-----9------|
|-------------------|----------------------|-----------------------------|
|
| H       E E Q       Q.     E E  E  E   E    Q   E  a  E  +E   a Q    E
|-----------x-x-----|----------------------|-----------------------------|
|-------------------|----------7-10-10---7-|-10---7-10h12-(12)-10p8----8-|
|-------------------|--------7-------------|-----------------------------|
|-------------------|----------------------|-----------------------------|
|-------------------|----------------------|-----------------------------|
|-------------------|----------------------|-----------------------------|


   PM--------------------------------------------------|
   e  e  e    e   e  e e e   e e e e e e e e   e e e e e E E E
|--------------------------|-----------------|------------------|
|--------------------------|-----------------|------------------|
|--------------------------|-----------------|---------------7--|
|--------------------------|-5-5-7-5-5-5-7-5s|=7-7-9-7-7-----7--|
|--5--5--7----5---5--5-7-5-|-3-3-3-3-3-3-3-3s|=5-5-5-5-5-8-9----|
|--3--3--3----3---3--3-3-3-|-----------------|------------------|
|
|        |--3---|
| +Q    +E  E   E Q.     E   E E E E Q   E E   E Q   E E Q   E
|--------------------------|-------------5---|-2-5-----2-5------|
|-(8)---(8)p5p==3--------5-|-8-8-8-5-8-----3-|-------3-------3--|
|--------------------------|-----------------|------------------|
|--------------------------|-----------------|------------------|
|--------------------------|-----------------|------------------|
|--------------------------|-----------------|------------------|


  E E E E E E Q      E E E E E E E E   E E E E e     E e E
|------------------|-----------------|---------------------||
|------------------|-----------------|---------------------||
|-------7-----7\---|-----------------|---5-5-5-5-------5---||
|---7---7-----7\---|-----------------|---5-5-5-5-------5---||
|---8-9---8-9------|-5-5-7-5-5-5-7-5-|---3-3-3-3-------3---||
|------------------|-3-3-3-3-3-3-3-3-|---------------------||
|
| E E E E Q   E  E   E E E E E E E E   E E E E Q       Q
|---5-5---5--------|-6-6-6-6-6-6-6-6-|-6-6-6-6-------------||
|-7-----7--------8-|-----------------|---------5b5.5-------||
|------------------|-----------------|---------------------||
|------------------|-----------------|---------------------||
|------------------|-----------------|---------------------||
|------------------|-----------------|---------------------||


 Chorus
  Q    E E E  E Q        E   E  E  E +Q     E E
|--------------------|--------------------------|
|--------------------|--------------------------|
|------9---7--9------|---9------7--9-(9)\-------|
|------9---7--9------|---9------7--9-(9)\-----9-|
|------7---7--7------|---7------7--7-(7)\-----7-|
|--------------------|--------------------------|
|
| E  E E E E  E E  E    +Q      H           E E
|-------------5p3--7-|--(7)---------------------|
|-5--5-7-5-8---------|----------------------5---|
|--------------------|------------------------7-|
|--------------------|--------------------------|
|--------------------|--------------------------|
|--------------------|--------------------------|
|
| Gtr IV
| E  E E E E  E E  E     Q      H           E E
|--------------------|--------------------------|
|-5--5-7-5-8-10p8-12-|--12------------------5-3-|
|-9---------------12-|-(12)-12-11--9--9---7p5-5-|
|-9---------------14-|-(14)-14-12-10-10---9p7-5-|
|--------------------|--------------------------|
|--------------------|--------------------------|
  H.            E  E    +E   E  E  E  E   E E E


  +E  E E E Q    Q       E   Q     E  Q   E     E
|---------------------|---------------------------|
|---------------------|---------------------------|
|---------------------|---------------------------|
|-(9)-9-7---5----5----|------2--------2---------2-|
|-(7)-7-5---3----3----|------0--------0---------0-|
|---------------------|--3---------3------3b3.5---|
|
|  E  E E E E  E E  E   +Q      H         E     E
|--------------5p3--7-|-(7)-----------------------|
|--5--5-7-5-8---------|-------------------------5-|
|---------------------|---------------------------|
|---------------------|---------------------------|
|---------------------|---------------------------|
|---------------------|---------------------------|
|
|  E  E E E E  E E  E    Q      H         E     E
|---------------------|---------------------------|
|--5--5-7-5-8-10p8-12-|-12----------------------5-|
|--9---------------12-|-12--12-11--9--9-7-------9-|
|--9---------------14-|-14--14-12-10-10-9-------9-|
|---------------------|---------------------------|
|---------------------|---------------------------|
   H.            E  E    E   E  E  E  E Q       E


   Q    E E E  E Q        E   E  E  E +Q     E E
|---------------------|--------------------------|
|---------------------|--------------------------|
|-------9---7--9------|---9------7--9-(9)\-------|
|-------9---7--9------|---9------7--9-(9)\-----9-|
|-------7---7--7------|---7------7--7-(7)\-----7-|
|---------------------|--------------------------|
|
| +E  E E E E  Q    E    +H            E   E E E
|--------------5----7-|--(7)---------------------|
|-(5)-5-7-5-8---------|--------------------3-5-3-|
|---------------------|--------------------------|
|---------------------|--------------------------|
|---------------------|--------------------------|
|---------------------|--------------------------|
|
|  E  E E E E  E E  E     Q      H           Q
|---------------------|--------------------------|
|--5--5-7-5-8-10p8-12-|--12------------------5---|
|-(9)--------------12-|-(12)-12-11--9--9---7p5-5-|
|-(9)--------------14-|-(14)-14-12-10-10---9p7-5-|
|---------------------|--------------------------|
|---------------------|--------------------------|
  +H.            E  E    +E   E  E  E  E   E E E


  +E  E E E Q    Q        E   Q     E  Q   E     E
|---------------------|----------------------------||
|---------------------|----------------------------||
|---------------------|----------------------------||
|-(9)-9-7---5----5----|-------2--------2---------2-||
|-(7)-7-5---3----3----|-------0--------0---------0-||
|---------------------|---3---------3------3b3.5---||
|
|  E  E E E E  Q    E    +W
|--------------5----7-|--(7)p======================||
|--5--5-7-5-8---------|----------------------------||
|---------------------|----------------------------||
|---------------------|----------------------------||
|---------------------|----------------------------||
|---------------------|----------------------------||
|
|  E  E E E E  E E  E    +W
|---------------------|----------------------------||
|--5--5-7-5-8-10p8-12-|-(12)p======================||
|--9---------------12-|--12--12-11--9--9-7-------9-||
|--9---------------14-|--14--14-12-10-11-9-------9-||
|---------------------|----------------------------||
|---------------------|----------------------------||
   H.            E  E     E   E  E  E  E Q       E


 Verse
   PM-------------------------------------------
   e  e e e e  e  e e     e  e e  e  e   e e e
|---------------------|------------------------|
|---------------------|------------------------|
|---------------------|------------------------|
|--7--7-7-7-7--7--7-7-|---7--7-7--7--7---7-7-7-|
|--5--5-5-5-5--5--5-5-|---5--5-5--5--5---5-5-5-|
|---------------------|------------------------|
|
|  Q    E E E  E  E E     Q    E  E +E   Q   E
|--5-----------5--5---|---5-------5-(5)--5-----|
|-----------7-------7-|--------7-------------8-|
|---------7-----------|------------------------|
|---------------------|------------------------|
|---------------------|------------------------|
|---------------------|------------------------|
|
|  Q.     E E  E  E E     Q    E  E  E   E E E
|---------------------|------------------------|
|-10--------7-10-10-7-|--10----7-10h12--10-8-8-|
|---------7-----------|------------------------|
|-12------------------|-(12)-------------------|
|-12------------------|-(12)-------------------|
|---------------------|------------------------|
   W                     +W


 -------------------------------------------|
   e  e  e    e   e  e e e    e e e e e e e e
|--------------------------|--------------------|
|--------------------------|--------------------|
|--------------------------|--------------------|
|--------------------------|--5-5-5-5-5-5-5-5---|
|--5--5--5----5---5--5-5-5-|--3-3-3-3-3-3-3-3---|
|--3--3--3----3---3--3-3-3-|--------------------|
|
|        |--3---|
| +Q    +E  E   E Q.     E    E E E E Q   Q
|--------------------------|--3---3---3---5-----|
|-(8)---(8)p5p==3--------5-|----5---5-----------|
|--7-----------------------|--9-----------------|
|--9-----------------------|-10-----------------|
|--------------------------|--------------------|
|--------------------------|--------------------|
|  W                          W
|
|  W                          W
|--------------------------|--------------------|
|--------------------------|--------------------|
|--------------------------|--------------------|
|--------------------------|--------------------|
|--------------------------|--------------------|
|--------------------------|--------------------|


                                                      PM-
  E  E E E E E E E    E E E     E a      +E     +E  E e
|------------------|------------------------------------|
|------------------|------------------------------------|
|----------------7-|------------7-9b10===(9)r===(9)-7---|
|-7--7-9-7-7-----7-|----7-------7-9b10===(9)r===(9)-7---|
|-5--5-5-5-5-8-9---|----8-9-----------------------------|
|------------------|----------------------------------0-|
|
| Q.     E E E E E    Q   E  a  E        +E   a  Q    E
|------------5-5---|------------------------------------|
|----------7-----7-|-10---7-10h12-------(12)-10p=8----8-|
|--------7---------|------------------------------------|
|------------------|------------------------------------|
|------------------|------------------------------------|
|------------------|------------------------------------|


 -----------------------|
   e  e  e    e   e e e e
|-------------------------|
|-------------------------|
|-------------------------|
|-------------------------|
|--5--5--7----5---5-5-7-5-|
|--3--3--3----3---3-3-3-3-|
|
|        |--3---|
| +Q    +E  E   E E E E E
|-------------------------|
|-(8)---(8)p5p==3---x---x-|
|-------------------------|
|-------------------------|
|-------------------------|
|-------------------------|


  PM---------------------------|
  e e e e e e e s s   e  e e e e E S S E    E E E     E   E     E E E
|-------------------|--------------------|-----------------------------|
|-------------------|--------------------|-----------------------------|
|-------------------|------------------7-|------------7-------------7\-|
|-5-5-7-5-5-5-7-5-5s|=7--7-9-7-7-------7-|----7-------7-------------7\-|
|-3-3-3-3-3-3-3-3-3s|=5--5-5-5-5-8-8h9---|----8-9---------------8-9----|
|-------------------|--------------------|-----------------------------|
|
| E E E E E E Q       Q.     E E E E   E    Q   E  a  E  +E   a Q   E
|-------------------|------------5-5-----|-----------------------------|
|-x-x-x-x-x-x-------|----------7-------7-|-10---7-10h12-(12)-10p8---8--|
|-------------------|--------7-----------|-----------------------------|
|-------------------|--------------------|-----------------------------|
|-------------------|--------------------|-----------------------------|
|-------------------|--------------------|-----------------------------|


   PM----------------------------------------------------|
   e  e e e  e e e  e    e  e  e  e  e  e  e e   e e e e e E E E
|---------------------|------------------------|-----------------|
|---------------------|------------------------|-----------------|
|---------------------|------------------------|---------------7-|
|---------------------|--5--5--7--5--5--5--7-5s|=7-7-9-7-7-----7-|
|--5--5-7-5--5-5-7--5-|--3--3--3--3--3--3--3-3s|=5-5-5-5-5-8-9---|
|--3--3-3-3--3-3-3--3-|------------------------|-----------------|
|
| +H         Q   E  E    E  E  E  E  E  E  E E   E Q   E E Q   E
|---------------------|------------------------|---5-------5-----|
|-(8)h======12-----12-|-13-13-13-13-11p10-10---|-7-------7-------|
|---------------------|----------------------7-|-------7-------7-|
|---------------------|------------------------|-----------------|
|---------------------|------------------------|-----------------|
|---------------------|------------------------|-----------------|


                            PM----------------|
  E E E E a     +E    +E  E e   e e e e e e e e   E E E E E E Q
|-----------------------------|-----------------|------------------||
|-----------------------------|-----------------|------------------||
|-------7-9b10==(9)r==(9)-7---|-----------------|---5-5-5-5--------||
|---7---7-9b10==(9)r==(9)-7---|-----------------|---5-5-5-5---5/---||
|---8-9-----------------------|-5-5-7-5-5-5-7-5-|---3-3-3-3---3/---||
|---------------------------0-|-3-3-3-3-3-3-3-3-|------------------||
|
|                \0.25
| E E E E        Q        E E   E E E E E E E E   E E E E E Q    E
|---5-5----------5------------|-6-6-6-6-6-6-6-6-|-6-6-6-6----------||
|-7-----7-------------------8-|-----------------|---------8p3h===5-||
|-----------------------------|-----------------|------------------||
|-----------------------------|-----------------|------------------||
|-----------------------------|-----------------|------------------||
|-----------------------------|-----------------|------------------||


  Q    E E E  E Q        E   E  E  E +Q     E E
|--------------------|--------------------------|
|--------------------|--------------------------|
|------9---7--9------|---9------7--9-(9)\-------|
|------9---7--9------|---9------7--9-(9)\-----9-|
|------7---7--7------|---7------7--7-(7)\-----7-|
|--------------------|--------------------------|
|
| E  E E E E  E E  E    +Q      H           E E
|-------------5p3--7-|--(7)---------------------|
|-5--5-7-5-8---------|----------------------5---|
|--------------------|------------------------7-|
|--------------------|--------------------------|
|--------------------|--------------------------|
|--------------------|--------------------------|
|
| Gtr IV
| E  E E E E  E E  E     Q      H           E E
|--------------------|--------------------------|
|-5--5-7-5-8-10p8-12-|--12------------------5-3-|
|-9---------------12-|-(12)-12-11--9--9---7p5-5-|
|-9---------------14-|-(14)-14-12-10-10---9p7-5-|
|--------------------|--------------------------|
|--------------------|--------------------------|
  H.            E  E    +E   E  E  E  E   E E E


  +E  E E E Q    Q       E   Q     E  Q   E     E
|---------------------|---------------------------|
|---------------------|---------------------------|
|---------------------|---------------------------|
|-(9)-9-7---5----5----|------2--------2---------2-|
|-(7)-7-5---3----3----|------0--------0---------0-|
|---------------------|--3---------3------3b3.5---|
|
|  E  E E E E  E E  E   +Q      H         E     E
|--------------5p3--7-|-(7)-----------------------|
|--5--5-7-5-8---------|-------------------------5-|
|---------------------|---------------------------|
|---------------------|---------------------------|
|---------------------|---------------------------|
|---------------------|---------------------------|
|
|  E  E E E E  E E  E    Q      H         E     E
|---------------------|---------------------------|
|--5--5-7-5-8-10p8-12-|-12----------------------5-|
|--9---------------12-|-12--12-11--9--9-7-------9-|
|--9---------------14-|-14--14-12-10-10-9-------9-|
|---------------------|---------------------------|
|---------------------|---------------------------|
   H.            E  E    E   E  E  E  E Q       E


   Q    E E E  E Q        E   E  E  E +Q     E E
|---------------------|--------------------------|
|---------------------|--------------------------|
|-------9---7--9------|---9------7--9-(9)\-------|
|-------9---7--9------|---9------7--9-(9)\-----9-|
|-------7---7--7------|---7------7--7-(7)\-----7-|
|---------------------|--------------------------|
|
|  E  E E E E  E E  E    +H            E   E E E
|--------------5p3--7-|--(7)---------------------|
|--5--5-7-5-8---------|--------------------5-5---|
|---------------------|------------------------7-|
|---------------------|--------------------------|
|---------------------|--------------------------|
|---------------------|--------------------------|
|
|  E  E E E E  E E  E     Q      H           Q
|---------------------|--------------------------|
|--5--5-7-5-8-10p8-12-|--12------------------5---|
|-(9)--------------12-|-(12)-12-11--9--9---7p5-5-|
|-(9)--------------14-|-(14)-14-12-10-10---9p7-5-|
|---------------------|--------------------------|
|---------------------|--------------------------|
  +H.            E  E    +E   E  E  E  E   E E E


  +E  E E E Q    Q        E   E  E  E  E E E     E
|---------------------|----------------------------||
|---------------------|----------------------------||
|---------------------|-------2--2-----2-2-------2-||
|-(9)-9-7---5----5----|-------2--2-----2-2-------2-||
|-(7)-7-5---3----3----|-------0--0-----0-0-------0-||
|---------------------|---3---------3------3b3.5---||
|
|  E  E E Q    Q    E    +E   Q     E  H
|---------------------|----------------------------||
|--x--x---x----x----x-|--(x)--x-----x--x-----------||
|---------------------|----------------------------||
|---------------------|----------------------------||
|---------------------|----------------------------||
|---------------------|----------------------------||
|
|  E  E E E E  E E  E    +W
|---------------------|----------------------------||
|--5--5-7-5-8-10p8-12-|-(12)p======================||
|--9---------------12-|--12--12-11--9--9-7-------9-||
|--9---------------14-|--14--14-12-10-11-9-------9-||
|---------------------|----------------------------||
|---------------------|----------------------------||
   H.            E  E     E   E  E  E  E Q       E


 Guitar Solo
  Gtr II
                                                                          ~~
   E   S  S  S  S  S  S  E  E  E  S  S     S   S  S  S  E  E  a     +E    Q    S  S
|--------------------------------------|--------------------------------------------|
|--------------------------------------|------------------15------------------------|
|--------------------------------------|---------------12-14-14b16-(14)--12---------|
|-----14-14-14-14-14-14-14-------14-14-|--14--14-14-14------------------------14p12-|
|--------------------------------------|--------------------------------------------|
|--------------------------12----------|--------------------------------------------|
|
| Gtr I
|  Q         E     E     E  E  Q           E      E     E  E        +Q      E  E
|--------------------------------------|--------------------------------------------|
|--------------------------------------|--------------------------------------------|
|------------9-----------7--9----------|---9------------7--9--------(9)\------------|
|------------9-----------7--9----------|---9------------7--9--------(9)\-------9----|
|------------7-----------7--7----------|---7------------7--7--------(7)\-------7----|
|--------------------------------------|--------------------------------------------|
|
|  Q.              E     E  E  E  E        Q            E  E         E    E E  E
|--------------------------------------|--------------------------------------------|
|-10---------------------7-10-10--7----|--10------------7-10h=======12---10-8--8----|
|------------------7-------------------|--------------------------------------------|
|-12-----------------------------------|-(12)---------------------------------------|
|-12-----------------------------------|-(12)---------------------------------------|
|--------------------------------------|--------------------------------------------|
   W                                      +W


              ~~
   E     +E   Q    +E   S  a     +S   S  S  S  S
|---------------------------------------12--------|
|-15b17-(15)-15---(15)-12------------12----15p12--|
|-------------------------14b16-(14)--------------|
|-------------------------------------------------|
|-------------------------------------------------|
|-------------------------------------------------|
|
| +E      E   E E   Q                 Q
|-------------------------------------------------|
|-------------------------------------------------|
|-------------------------------------------------|
|-(9)-----9---7-----5-----------------5-----------|
|-(7)-----7---5-----3-----------------3-----------|
|-------------------------------------------------|
|
|  W
|-------------------------------------------------|
|-------------------------------------------------|
|-------------------------------------------------|
|-------------------------------------------------|
|-------------------------------------------------|
|-------------------------------------------------|


   S  S  S  S  S  S  S  S  S  S  E  E      S  S    E. S  E  E  +E   S  S  E     +E
|----12-----------------------------------------|-----------------------------------|
|----12-----------------------------------------|------------------------14b15-(14)-|
|-14----12-14p12----12--------------------------|----------12-(12)-14p12-14b15-(14)-|
|----------------14----14p12--------------------|----------12-(12)------------------|
|----------------------------14s12-10-----12p10-|-----7s14--------------------------|
|-----------------------------------------------|-12--------------------------------|
|
|  E     Q           E     Q        E      E       Q     E  E   E   E     Q
|-----------------------------------------------|-----------------------------------|
|-----------------------------------------------|-----------------------------------|
|-----------------------------------------------|--------9------7---9---------------|
|--------2-----------------2---------------2----|--------9------7---9---------------|
|--------0-----------------0---------------0----|--------7------7---7---------------|
|--3-----------------3--------------3b3.5-------|-----------------------------------|


      ~~
   E  Q    S  S  S    S  S  S  +E   S  S    a      Q     S  S  S  S  +E   a      Q     S  S
|----14----------------------------------|--------15----------------------------15----12--------|
|-12-14--------------------12-(12)-------|-14b15-(14)---12-15p12---------14b15-(14)------15S====|
|-12-14---12----14p==12----12-(12)-------|-----------------------12-(12)------------------------|
|------------14---------14---------14p12-|------------------------------------------------------|
|----------------------------------------|------------------------------------------------------|
|----------------------------------------|------------------------------------------------------|
|
|  E  E E  E    +Q              E   E             +E  E  E     E      Q             Q
|----------------------------------------|------------------------------------------------------|
|----------------------------------------|------------------------------------------------------|
|--9----7--9----(9)\---------------------|------------------------------------------------------|
|--9----7--9----(9)\----------------9----|--------(9)-9--7------------5-------------5-----------|
|--7----7--7----(7)\----------------7----|--------(7)-7--5------------3-------------3-----------|
|----------------------------------------|------------------------------------------------------|


   E  a      E   E  a      E   E  E  E      E
|-12------------12--------15--12--------------|
|-12--------12-----14b15-(14)-12-12-12--------|
|----14b16-(14)------------------12-12--------|
|------------------------------------------14-|
|---------------------------------------------|
|---------------------------------------------|
|
|  E         Q             E   Q     E      E
|---------------------------------------------|
|---------------------------------------------|
|---------------------------------------------|
|------------2-----------------2------------2-|
|------------0-----------------0------------0-|
|--3-----------------------3---------3b3.5----|


  PM--------|                         PM--------|
  s s s s s s S S +S  S S S S S S S   s s s s s s S S +S   S S S S S S S
|-------------------------------0---|--------------------------------0---|
|-------------------------------0---|--------------------------------0---|
|---------------------0h1---2h4-----|----------------------0h1---2h4-----|
|-----2-------2p0-(0)-----2---------|-----2-------2p0-(0)------2---------|
|-0-2---2-0-2-----------------------|-0-2---2-0-2------------------------|
|-----------------------------------|------------------------------------|
|
| Q       E   E    E    E   Q         E   E   E   E   +Q         E   E
|-----------------------------------|------------------------------------|
|-----------------------------------|------------------------------------|
|---------9--------7----9-----------|-9-------7---9---(9)\---------------|
|---------9--------7----9-----------|-9-------7---9---(9)\-----------9---|
|---------7--------7----7-----------|-7-------7---7---(7)\-----------7---|
|-----------------------------------|------------------------------------|


   E   E     +E   E  Q   S  S  a     +E    E  a     +Q    a     +Q     a     +Q         a     +E
|-----17b19-(17)-17-15--------19b21-(19)-|---19b21-(19)--19b21-(19)---19b21-(19)-------19b21-(19)-|
|-----------------------17p15------------|---19b21-(19)--19b21-(19)---19b21-(19)-------19b21-(19)-|
|----------------------------------------|--------------------------------------------------------|
|----------------------------------------|--------------------------------------------------------|
|----------------------------------------|--------------------------------------------------------|
|----------------------------------------|--------------------------------------------------------|
|
| +E   E      E   E  Q   Q                 E         Q           E  Q            E             E
|----------------------------------------|--------------------------------------------------------|
|----------------------------------------|--------------------------------------------------------|
|----------------------------------------|--------------------------------------------------------|
|-(9)--9------7------5---5---------------|-----------2--------------2--------------------------2--|
|-(7)--7------5------3---3---------------|-----------0--------------0--------------------------0--|
|----------------------------------------|-3---------------------3---------------3b3.5------------|


                            |3-|  |3-|
   a      +S   +S   E  Q    E  S  E  S  +E   E
|-19b21==(19)r(19)-15--------------------------|
|------------------15-17---17p15----17-(17)-17-|
|--------------------------------16-16-(16)----|
|----------------------------------------------|
|----------------------------------------------|
|----------------------------------------------|
|
|          Q           E E  E     E      Q
|----------------------------------------------|
|----------------------------------------------|
|----------------------9----7-----9------------|
|----------------------9----7-----9------------|
|----------------------7----7-----7------------|
|----------------------------------------------|


                              ~~~~
               |-3-|
   E     +E   +E   S     +E   Q     E    S  S
|------------------------------------------12-|
|-17b21-(17)-(17)-17b21-(17)-17----17\-----12-|
|--------------------------------------/12----|
|---------------------------------------------|
|---------------------------------------------|
|---------------------------------------------|
|
|  E      E    E          E  +Q     E    E
|---------------------------------------------|
|---------------------------------------------|
|--9-----------7----------9--(9)\-------------|
|--9-----------7----------9--(9)\--------9----|
|--7-----------7----------7--(7)\--------7----|
|---------------------------------------------|
|
| Gtr IV
|  W
|---------------------------------------------|
|---------------------------------------------|
|---------------------------------------------|
|---------------------------------------------|
|---------------------------------------------|
|---------------------------------------------|


   S   S  S  S  S  S  S  S  a     +S   S  S  S  S  S  S  S         E   S  S  E      E   E  E  E  S  S
|-----12-------12----12-12---------------12-12-12-12-12-12-|------12--12-15-15-----15--15-15-15-15p12-|
|-12--12-15p12-12-12-12-12-15b17-(15)-12-12-12-12-12-------|------12--12-14-14-----14--14-14-14-14p12-|
|----------------------------------------------------------|------------------------------------------|
|----------------------------------------------------------|------------------------------------------|
|----------------------------------------------------------|------------------------------------------|
|----------------------------------------------------------|------------------------------------------|
|
| +E      E     Q                  Q            Q            a    +E   Q       a   +E   Q     E  E
|----------------------------------------------------------|------------------------------------------|
|----------------------------------------------------------|------------------------------------------|
|---------9-----7------------------5------------5----------|------------------------------------------|
|-(9)-----9-----7------------------5------------5----------|-----------2----------------2-------------|
|-(7)-----------5------------------3------------3----------|-----------0----------------0-------------|
|----------------------------------------------------------|-3b4--(3)----------3b4-(3)--------2p=0----|
|
|  E      E     E     E            E      E     E     E           +W
|----------------------------------------------------------|------------------------------------------|
|--5------5-----7-----5------------8-----10p====8----12----|-----(12)p================================|
|--9-------------------------------------------------12----|------12--12----11------9---9--7-----9----|
|--9-------------------------------------------------14----|------14--14----12-----10--11--9-----9----|
|----------------------------------------------------------|------------------------------------------|
|----------------------------------------------------------|------------------------------------------|
   H.                                           E     E            E   E     E      E   E  Q     E


 Verse
  Gtr I
   PM-------|
   e  e e e e  E  E E     E  E E  E   E   E Q
|---------------------|--------------------------|
|---------------------|--------------------------|
|-------------------7-|-----------7---------7\---|
|--7--7-9-7-7-------7-|------7----7---------7\---|
|--5--5-5-5-5--8--9---|------8-9------8---9------|
|---------------------|--------------------------|
|
| Gtr III
|  Q.     E E  E  E E     Q    E  E  +E   E E  E
|--------------5--5---|---5----------------------|
|-----------7-------7-|--------7-10-(10)-10p8--8-|
|---------7-----------|--------------------------|
|---------------------|--------------------------|
|---------------------|--------------------------|
|---------------------|--------------------------|
|
|  Q.     E E  E  E E     Q    E  E   E   E E  E
|---------------------|--------------------------|
|-10--------7-10-10-7-|--10----7-10h=12--10-8--8-|
|---------7-----------|--------------------------|
|-12------------------|-(12)---------------------|
|-12------------------|-(12)---------------------|
|---------------------|--------------------------|
   W                     +W


   PM-------------------------------------|
   e  e e e  e    e   e e   e e e e e e e e
|-------------------------|-------------------|
|-------------------------|-------------------|
|-------------------------|-------------------|
|-------------------------|-5-5-7-5-5-5-7-5---|
|--5--5-7-5--5----5---7-5-|-3-3-3-3-3-3-3-3---|
|--3--3-3-3--3----3---3-3-|-------------------|
|
|            |--3---|
| +H        +E  E   E E E   E E E E Q   Q
|-------------------------|-3---3---3---5-----|
|-(8)-------(8)p5p==3---5-|---5---5-----------|
|--4----------------------|-5-----------------|
|-------------------------|-------------------|
|-------------------------|-------------------|
|-------------------------|-------------------|
|  W                        W
|
|  W                        W
|-------------------------|-------------------|
|-------------------------|-------------------|
|-------------------------|-------------------|
|-------------------------|-------------------|
|-------------------------|-------------------|
|-------------------------|-------------------|


  PM------------------------------------------------------------------|
  e  e e e e e e e    e  e e   e  e     e e e    e  e e e  e    e   e e
|------------------|--------------------------|-------------------------|
|------------------|--------------------------|-------------------------|
|------------------|--------------------------|-------------------------|
|-7--7-9-7-7-7-7-7-|--7--7-9---7--7-----7-7---|-----------------------5-|
|-5--5-5-5-5-5-5-5-|--5--5-5---5--5-----5-5---|--5--5-5-5--5----5---5-3-|
|------------------|------------------------0-|--3--3-3-3--3----3---3---|
|
|                                                          |--3---|
| Q.     E E E E E    Q    E a E +E   a Q   E   +H        +E  E   E E E
|------------5-5---|--5------5h7-(7)----------|-------------------------|
|----------7-----7-|-------7---------10p8---8-|-(8)-------(8)p5p==3---x-|
|--------7---------|--------------------------|--4----------------------|
|-7----------------|-(7)----------------------|-------------------------|
|------------------|--------------------------|-------------------------|
|------------------|--------------------------|-------------------------|
  W                  +W                          W


  PM--------------------------|
  e e e e e e e e    e  e e e e E E E   E E E   E  E   E E E
|-----------------|-------------------|----------------------|
|-----------------|-------------------|----------------------|
|-----------------|-----------------7-|---------7----------7-|
|-5-5-5-5-5-5-5-5-|--7--7-9-7-7-----7-|---7-----7----------7-|
|-3-3-3-3-3-3-3-3-|--5--5-5-5-5-8-9---|---8-8----------8-9---|
|-----------------|-------------------|----------------------|
|
| E E E E E E Q      Q.     E E E E E   Q   E a E +E   E E E
|-----------------|-------------5-5---|-5-----5s7-(7)--------|
|-x-x-x-x-x-x-----|-----------7-----7-|-----7---------10p8-8-|
|-5---------------|---------7---------|----------------------|
|-----------------|-12----------------|----------------------|
|-----------------|-------------------|----------------------|
|-----------------|-------------------|----------------------|
  W                  W


   PM---------------------------------------------------|
   e  e e e  e    e   e e   e e e e e e e s s   e e e e e E E E
|-------------------------|-------------------|-----------------|
|-------------------------|-------------------|-----------------|
|-------------------------|-------------------|---------------7-|
|-------------------------|-5-5-7-5-5-5-7-5-5-|-7-7-9-7-7-----7-|
|--5--5-7-5--5----5---7-5-|-3-3-3-3-3-3-3-3-3-|-5-5-5-5-5-8-9---|
|--3--3-3-3--3----3---3-3-|-------------------|-----------------|
|
|            |--3---|
| +H        +E  E   E E E   E E E E E E E E     E Q   E E Q   E
|-------------------------|-8-8-8-8-6p5-5-----|---5-----2-5-----|
|-(8)-------(8)p5p==3---8-|---------------3---|-3-----3-------3-|
|-------------------------|-------------------|-----------------|
|-------------------------|-------------------|-----------------|
|-------------------------|-------------------|-----------------|
|-------------------------|-------------------|-----------------|


  E E E E E E E E    E E E E E E E E   E E E E E E E E
|------------------|-----------------|-----------------||
|------------------|-----------------|-----------------||
|-----7-----7------|-----------------|-----------------||
|-----7-----7------|-----5-----5-----|---5-5-5-5---5---||
|-8-9---8-9---8-9\-|-----5-----5-----|---3-3-3-3---3---||
|------------------|-6-7---6-7---6-7-|-----------------||
|
| E E E E E E E E    E E E E E E E E   E E E E E Q   E
|---5-5---5--------|-6-6-6-6-6-6-6-6-|-6-6-6-6-6-6-----||
|-7-----7-------8--|-----------------|---------------5-||
|-----------7------|-----------------|---------------4-||
|------------------|-----------------|-----------------||
|------------------|-----------------|-----------------||
|------------------|-----------------|-----------------||


 Chorus
  Q   E E E E Q      E  E E E +Q     E E   +E  E E E Q  Q
|-----------------|----------------------|------------------|
|-----------------|----------------------|------------------|
|-----9---7-9-----|--9----7-9-(9)\-------|------------------|
|-----9---7-9-----|--9----7-9-(9)\-----9-|-(9)-9-7---5--5---|
|-----7---7-7-----|--7----7-7-(7)\-----7-|-(7)-7-5---3--3---|
|-----------------|----------------------|------------------|
|
| H.          E E   +E  E E E  E   E E E   +H.          E E
|-----------------|----------------------|------------------|
|-5-------------8-|-(8)-8-7-5--5---3p1-1-|-(1)------------8-|
|-4-------------9-|-(9)-9-7-5--5---4p2-2-|-(2)------------9-|
|-----------------|----------------------|------------------|
|-----------------|----------------------|------------------|
|-----------------|----------------------|------------------|


   E  Q   E Q   E     E      Q     E E  E  E Q          E  E E E +Q    E E
|-----------------------||---------------------------|---------------------|
|-----------------------||o--------------------------|---------------------|
|-----------------------||---------9----7--9---------|--9----7-9-(9)\------|
|-----2-----2---------2-||---------9----7--9---------|--9----7-9-(9)\----9-|
|-----0-----0---------0-||o--------7----7--7---------|--7----7-7-(7)\----7-|
|--3------3-----3b3.5---||---------------------------|---------------------|
|
| +E  E E E E Q       E      E  E  E E  E  E E E       +H         Q    E E
|-----------------------||---0--0--2-0--3--5p3-7-----|-(7)-----------------|
|-(8)-8-7-5-5-3-------3-||o-(3)-5------(5)-----8b8.5-|-----------------5-3-|
|-(9)-9-7-5-5-4-------2-||--(2)-4------(4)-----------|---------------------|
|-----------------------||---------------------------|---------------------|
|-----------------------||o--------------------------|---------------------|
|-----------------------||---------------------------|---------------------|
                            +E  Q.     +Q.     E


  +E  E E E Q   Q      E  Q    E Q   E     E   Q   E E E E Q
|-------------------|------------------------|-----------------|
|-------------------|------------------------|-----------------|
|-------------------|------------------------|-----9---7-9-----|
|-(9)-9-7---5---5---|-----2------2---------2-|-----9---7-9-----|
|-(7)-7-5---3---3---|-----0------0---------0-|-----7---7-7-----|
|-------------------|--3-------3-----3b3.5---|-----------------|
|
|  E  E E E E E E E   +Q    Q.     E E     E   E E E E E E E E
|-------------5p3-7-|-(7)--------------------|-----------5p3-7-|
|--5--7-7-5-8-------|--------------5-5-----3-|-5-5-7-5-8-------|
|-------------------|------------------------|-----------------|
|-------------------|------------------------|-----------------|
|-------------------|------------------------|-----------------|
|-------------------|------------------------|-----------------|


   E  E E  E +Q     E E   +E  E E E Q   Q      E      Q  E Q  E     E
|-----------------------|-------------------|--------------------------||
|-----------------------|-------------------|-------------------------o||
|--9----7--9-(9)\-------|-------------------|--------------------------||
|--9----7--9-(9)\-----9-|-(9)-9-7---5---5---|---------2----2--------2--||
|--7----7--7-(7)\-----7-|-(7)-7-5---3---3---|---------0----0--------0-o||
|-----------------------|-------------------|--3---------3----3b3.5----||
|
| +Q    Q.        E E E   +E  E E E E Q   E   +H           H
|-(7)-------------------|-------------5---7-|-(7)b7.5------------------||
|-----------------5-3-5-|-(5)-5-7-7-8-------|-------------------------o||
|-----------------------|-------------------|--------------------------||
|-----------------------|-------------------|--------------------------||
|-----------------------|-------------------|-------------------------o||
|-----------------------|-------------------|--------------------------||


 Outro
  Gtr II
     E     +E   E  E  Q         E  E
|--------------12----14b14.5---12----|
|---15b17-(15)----12-14b14.5------12-|
|------------------------------------|
|------------------------------------|
|------------------------------------|
|------------------------------------|
|
| Gtr I
| a  E      E   Q     E      E  Q
|------------------------------------|
|------------------------------------|
|-----------9---------7------9-------|
|-----------9---------7------9-------|
|---------------------7------9-------|
|-5s=7-------------------------------|


   E     +E   E  E  Q        E  E    E     +E   E  E  E  E       E  E
|------------12----14b14.5--12----|------------12----15---------12----|
|-15b17-(15)----12-14b14.5-----12-|-15b17-(15)----12-15-15b15.5-12----|
|---------------------------------|--------------------------------12-|
|---------------------------------|-----------------------------------|
|---------------------------------|-----------------------------------|
|---------------------------------|-----------------------------------|
|
|  E      E   E  E +Q        E  E   +E      E   Q     Q          Q
|---------------------------------|-----------------------------------|
|---------------------------------|-----------------------------------|
|--9----------7--9-(9)\-----------|---------9---7-----5----------5----|
|--9----------7--9-(9)\---------9-|-(9)-----9---7-----5----------5----|
|--7----------7--7-(7)\---------7-|-(7)---------5-----3----------3----|
|---------------------------------|-----------------------------------|


                                                           ~~
   E  E  E  E  E  a     +E   E      E      E  a     +Q     E  E  Q    E
|-15-15-15-12-12------------12--------|---15-17b19-(17)------15---------|
|-14----14-12----15b17-(15)--------12-|-------------------17----17---17-|
|-------------------------------------|---------------------------------|
|-------------------------------------|---------------------------------|
|-------------------------------------|---------------------------------|
|-------------------------------------|---------------------------------|
|
|  E  Q     E  Q             E      E   a  E         E  Q     E  E Q
|-------------------------------------|---------------------------------|
|-------------------------------------|---------------------------------|
|-------------------------------------|--------------9--------7--9------|
|-----2--------2--------------------2-|--------------9--------7--9------|
|-----0--------0--------------------0-|-----------------------7--9------|
|--3--------3----------------3b3.5----|-5s=7----------------------------|


   E  E  E  E  E    E  E  E    a     +Q.      a     +Q.     a     +Q
|-15-15-15-15-15---15-15-15-|-19b22-(19)-----19b22-(19)----19b22-(19)--|
|---------------------------|-19b22-(19)-----19b22-(19)----19b22-(19)--|
|---------------------------|------------------------------------------|
|---------------------------|------------------------------------------|
|---------------------------|------------------------------------------|
|---------------------------|------------------------------------------|
|
|  E  E  E  E +Q       E  E          +E  E Q            Q          Q
|---------------------------|------------------------------------------|
|---------------------------|------------------------------------------|
|--9-----7--9-(9)\----------|------------9-7------------5----------5---|
|--9-----7--9-(9)\--------9-|--------(9)-9-7------------5----------5---|
|--7-----7--7-(7)\--------7-|--------(7)---5------------3----------3---|
|---------------------------|------------------------------------------|


   +E   a     +Q.     a     +Q    a     +Q
|-(19)-19b22-(19)----19b21-(19)--19b21-(19)------|
|-(19)-19b22-(19)----19b21-(19)--19b21-(19)------|
|------------------------------------------------|
|------------------------------------------------|
|------------------------------------------------|
|------------------------------------------------|
|
|   E          Q   E         Q           E     E
|------------------------------------------------|
|------------------------------------------------|
|------------------------------------------------|
|--------------2-------------2-----------------2-|
|--------------0-------------0-----------------0-|
|---3--------------3---------------------3b3.5---|


                                        ~~~~
   a      +E   E H.           E  a     +Q.      E    E  E  E
|-19b21==(19)r19------------|---17b19-(17)-----15---17-15----*|
|-19b21==(19)r19------------|-----------------------------15-*|
|---------------------------|--------------------------------*|
|---------------------------|--------------------------------*|
|---------------------------|--------------------------------*|
|---------------------------|--------------------------------*|
|
|  a       E   E Q   E E Q    E         E  E E +Q       E  E
|---------------------------|--------------------------------*|
|---------------------------|--------------------------------*|
|--------------9-----7-9----|-9------------7-9-(9)\----------*|
|--------------9-----7-9----|-9------------7-9-(9)\--------9-*|
|--------------------7-9----|-7------------7-7-(7)\--------7-*|
|--5s======7----------------|--------------------------------*|



Duration Legend
---------------
W - whole; H - half; Q - quarter; E - 8th; S - 16th; T - 32nd; X - 64th; a - acciaccatura
+ - note tied to previous; . - note dotted; .. - note double dotted
Uncapitalized letters represent notes that are staccato (1/2 duration)
Irregular groupings are notated above the duration line
Duration letters will always appear directly above the note/fret number it represents the
duration for.  Duration letters with no fret number below them represent rests.  Multi-
bar rests are notated in the form Wxn, where n is the number of bars to rest for.  Low
melody durations appear below the staff

Tablature Legend
----------------
 h   - hammer-on
 p   - pull-off
 b   - bend
 pb  - pre-bend
 r   - bend release (if no number after the r, then release immediately)
 /\  - slide into or out of (from/to "nowhere")
 s   - legato slide
 S   - shift slide
 - natural harmonic
[n]  - artificial harmonic
n(n) - tapped harmonic
 ~   - vibrato
 tr  - trill
 T   - tap
 TP  - trem. picking
 PM  - palm muting
\n/  - tremolo bar dip; n = amount to dip
 \n  - tremolo bar down
 n/  - tremolo bar up
/n\  - tremolo bar inverted dip
 =   - hold bend; also acts as connecting device for hammers/pulls
 <> - volume swell (louder/softer)
 x   - on rhythm slash represents muted slash
 o   - on rhythm slash represents single note slash

Misc Legend
-----------
 |  - bar
||  - double bar
||o - repeat start
o|| - repeat end
*|  - double bar (ending)
 :  - bar (freetime)
 $  - Segno
 &  - Coda
Tempo markers -  = BPM(8/16=s8/s16), where s8 = swing 8ths, s16 = swing 16ths

comments
We did not receive enough feedback on this tab! Please rate:
print report bad tab
1 2 3 4 5
I want to post or [tab]
guest
You may want to rate the tab now too:
select rating
Please do not post tabs as comments. Select "correction" instead!