Oops, an error
Loading. Please wait.

Toys In The Attic Tab

ver2
ver2

Whole song

Interactive

More versions @911Tabs.com
15,434 views 21 this week
4 commentsread comments
1 2 3 4 5
excellent!
x 7
Autoscroll
+/-
esc
set tempo
stop
Hey! There's an official Ultimate Guitar app which is ideal
for learning songs when you're away from computer. Get the app
WARNING: You are trying to view
                                    content from Ultimate-Guitar.com
                                    in an unauthorized application,
                                    which is prohibited.

                                    Please use an official Ultimate
                                    Guitar Tabs application for iPhone,
                                    iPad or Android to access legitimate
                                    chords, guitar, bass, and drum tabs
                                    from Ultimate-Guitar.com database.

                                    Type "ultimate guitar tabs" in Apple
                                    App Store's or Android Market's
                                    search to find the application.
Band: Aerosmith
Song: Toys In The Attic
Album: Toys In The Attic
Transcribed by: ulisses





Guitar 1



     W                   E  E  E  E  E  E  E  E     E  E  E  E  E  E  E  E   
E||-------------------|--------------------------|--------------------------|
B||-------------------|--------------------------|--------------------------|
G||-------------------|--------------------------|--------------------------|
D||-------------------|-----2--0-----0-----------|-----2--0-----0-----------|
A||-------------------|-----------2-----2--------|-----------2-----2--------|
E||-------------------|--0-----------------3--0--|--0-----------------3--0--|


  E  E  E  E  E  E  E  E     E  Q.     E  Q.        E  E  E  E  E  E  E  E   
--------------------------|----------------------|--------------------------|
--------------------------|-----3----------------|--------------------------|
--------------------------|-----2---------2------|--------------------------|
-----2--0-----0-----------|-----0---------2------|-----2--0-----0-----------|
-----------2-----2--------|--0---------0--0------|-----------2-----2--------|
--0-----------------3--0--|----------------------|--0-----------------3--0--|


  E  E  E  E  E  E  E  E     E  E  E  E  E  E  E  E     E  Q.     E  Q.      
--------------------------|--------------------------|----------------------|
--------------------------|--------------------------|-----3----------------|
--------------------------|--------------------------|-----2---------2------|
-----2--0-----0-----------|-----2--0-----0-----------|-----0---------2------|
-----------2-----2--------|-----------2-----2--------|--0---------0--0------|
--0-----------------3--0--|--0-----------------3--0--|----------------------|


  E  E  E  E  E  E  E  E     E  E  E  E  E  E  E  E   
--------------------------|--------------------------|
--------------------------|--------------------------|
--------------------------|--------------------------|
-----2--0-----0-----------|-----2--0-----0-----------|
-----------2-----2--------|-----------2-----2--------|
--0-----------------3--0--|--0-----------------3--0--|


  E  E  E  E  E  E  E  E     E  Q.     E  Q.        E  E  E  E  E  E  E  E   
--------------------------|----------------------|--------------------------|
--------------------------|-----3----------------|--------------------------|
--------------------------|-----2---------2------|--------------------------|
-----2--0-----0-----------|-----0---------2------|-----2--0-----0-----------|
-----------2-----2--------|--0---------0--0------|-----------2-----2--------|
--0-----------------3--0--|----------------------|--0-----------------3--0--|


  E  E  E  E  E  E  E  E     E  E  E  E  E  E  E  E     E  Q.     E  Q.      
--------------------------|--------------------------|----------------------|
--------------------------|--------------------------|-----3---------0------|
--------------------------|--------------------------|-----2----------------|
-----2--0-----0-----------|-----2--0-----0-----------|-----0---------4------|
-----------2-----2--------|-----------2-----2--------|--0---------0--2------|
--0-----------------3--0--|--0-----------------3--0--|----------------------|


  W                   Q.     Q.     Q       W                 
-------------------|---------------------|-------------------|
-------------------|---------------------|--3----------------|
--2----------------|--2------------------|--2----------------|
--2----------------|--2------2------0----|--0----------------|
--0----------------|--0------2-----------|-------------------|
-------------------|---------0-----------|-------------------|


  Q.     H        E     H        Q    Q       Q.     H        E   
---------------------|--3--------3---------|---------------------|
--3------------------|--3--------3---------|--3------------------|
--2------2-----------|--0--------0---------|--2------2-----------|
--0------2-----------|--0------------------|--0------2-----------|
---------0--------L--|---------------------|---------0--------L--|
---------------------|--3------------------|---------------------|


  Q.     E  E  E  Q       E  E  E  Q    E  Q       Q    E  E  E  E  Q     
-----------------------|------------------------|------------------------|
--0------------0-------|-----0------------------|----------------0-------|
------------------2----|-----------4----2--2----|-------------------2----|
--4---------1--4--2----|-----4-----4----2--2----|-------------1--4--2----|
--2------4-------------|--2---------------------|--2----2--4-------------|
-----------------------|------------------------|------------------------|


  E  E  E  Q    E  Q       W                   H.           Q     
------------------------|-------------------|--------------------|
-----0------------------|--0----------------|--L-----------------|
-----------4----2-------|-------------------|--------------------|
-----4-----4----2-------|--2----------------|--L-----------------|
--2----------------2----|-------------------|--------------------|
------------------------|--0----------------|--L-----------------|


  E  E  E  Q    E  E  E     E  E  E  Q.     E  E     W                 
--5--4--5--4-------------|------------------------|-------------------|
--------7--5----7--0-----|------------------------|-------------------|
----------------7-----6--|--L---------------------|-------------------|
----------------------7--|--L--0------------------|-------------------|
-------------------------|--------7--0------------|-------------------|
-------------------------|------------------7--0--|--L----------------|


  W                   E  E  E  Q    E  E  E     E  E  E  Q.     E  E   
-------------------|--5--4--5--4-------------|------------------------|
-------------------|--------7--5----7--0-----|------------------------|
-------------------|----------------7-----6--|--L---------------------|
-------------------|----------------------7--|--L--0------------------|
-------------------|-------------------------|--------7--0------------|
--L----------------|-------------------------|------------------7--0--|


  W                   W                   E  E  E  Q    E  E  E   
-------------------|-------------------|--5--4--5--4-------------|
-------------------|-------------------|--------7--5----7--0-----|
-------------------|-------------------|----------------7-----6--|
-------------------|-------------------|----------------------7--|
-------------------|-------------------|-------------------------|
--L----------------|--L----------------|-------------------------|


  E  E  E  Q.     E  E     W                   W                 
------------------------|-------------------|-------------------|
------------------------|-------------------|-------------------|
--L---------------------|-------------------|-------------------|
--L--0------------------|-------------------|-------------------|
--------7--0------------|-------------------|-------------------|
------------------7--0--|--L----------------|--L----------------|


  E  E  E  Q    E  E  E     H.           E  E     Q.     Q.     Q     
--5--4--5--4-------------|---------------------|---------------------|
--------7--5----7--0-----|---------------------|---------------------|
----------------7-----6--|--L------------L-----|--2------------------|
----------------------7--|--L------------L-----|--2------2------0----|
-------------------------|---------------------|--0------2-----------|
-------------------------|---------------------|---------0-----------|


  W                   Q.     H        E     H.           E  E   
-------------------|---------------------|--3------------L-----|
--3----------------|--3------------------|--3------------L-----|
--2----------------|--2------2-----------|--0------------L-----|
--0----------------|--0------2-----------|--0------------L-----|
-------------------|---------0--------L--|---------------------|
-------------------|---------------------|--3------------L-----|


  Q.     H        E     Q    E  E  E  E  Q       E  E  E  Q    E  Q     
---------------------|------------------------|------------------------|
--3------------------|----------------0-------|-----0------------------|
--2------2-----------|-------------------2----|-----------4----2--2----|
--0------2-----------|-------------1--4--2----|-----4-----4----2--2----|
---------0--------L--|--2----2--4-------------|--2---------------------|
---------------------|------------------------|------------------------|


  Q    E  E  E  E  Q       E  E  E  Q    E  E  E     E  E  E  E  E  E  E  E   
------------------------|-------------------------|--------------------------|
----------------0-------|-----0-------------------|--------------------------|
-------------------2----|-----------4----2--2-----|--------------------------|
--4----------1--4--2----|-----4-----4----2--2-----|-----2--0-----0-----------|
--2----2--4-------------|--2----------------------|-----------2-----2--------|
------------------------|-------------------------|--0-----------------3--0--|


  E  E  E  E  E  E  E  E     E  E  E  E  E  E  E  E     E  Q.     E  Q.      
--------------------------|--------------------------|----------------------|
--------------------------|--------------------------|-----3----------------|
--------------------------|--------------------------|-----2---------2------|
-----2--0-----0-----------|-----2--0-----0-----------|-----0---------2------|
-----------2-----2--------|-----------2-----2--------|--0---------0--0------|
--0-----------------3--0--|--0-----------------3--0--|----------------------|


  E  E  E  E  E  E  E  E     E  E  E  E  E  E  E  E   
--------------------------|--------------------------|
--------------------------|--------------------------|
--------------------------|--------------------------|
-----2--0-----0-----------|-----2--0-----0-----------|
-----------2-----2--------|-----------2-----2--------|
--0-----------------3--0--|--0-----------------3--0--|


  E  E  E  E  E  E  E  E     E  Q.     E  Q.        E  E  E  E  E  E  E  E   
--------------------------|----------------------|--------------------------|
--------------------------|-----3----------------|--------------------------|
--------------------------|-----2---------2------|--------------------------|
-----2--0-----0-----------|-----7---------2------|-----2--0-----0-----------|
-----------2-----2--------|--0--5------0--0------|-----------2-----2--------|
--0-----------------3--0--|----------------------|--0-----------------3--0--|


  E  E  E  E  E  E  E  E     E  E  E  E  E  E  E  E     E  Q.     E  Q.      
--------------------------|--------------------------|----------------------|
--------------------------|--------------------------|-----3----------------|
--------------------------|--------------------------|-----2---------2------|
-----2--0-----0-----------|-----2--0-----0-----------|-----0---------2------|
-----------2-----2--------|-----------2-----2--------|--0---------0--0------|
--0-----------------3--0--|--0-----------------3--0--|----------------------|


  E  E  E  E  E  E  E  E     E  E  E  E  E  E  E  E   
--------------------------|--------------------------|
--------------------------|--------------------------|
--------------------------|--------------------------|
-----2--0-----0-----------|-----2--0-----0-----------|
-----------2-----2--------|-----------2-----2--------|
--0-----------------3--0--|--0-----------------3--0--|


  E  E  E  E  E  E  E  E     E  Q.     E  Q.        W                 
--------------------------|----------------------|-------------------|
--------------------------|-----3---------0------|-------------------|
--------------------------|-----2----------------|--2----------------|
-----2--0-----0-----------|-----0---------4------|--2----------------|
-----------2-----2--------|--0---------0--2------|--0----------------|
--0-----------------3--0--|----------------------|-------------------|


  Q.     Q.     Q       W                   Q.     H        E   
---------------------|-------------------|---------------------|
---------------------|--3----------------|--3------------------|
--2------------------|--2----------------|--2------2-----------|
--2------2------0----|--0----------------|--0------2-----------|
--0------2-----------|-------------------|---------0--------L--|
---------0-----------|-------------------|---------------------|


  H        Q    Q       Q.     H        E     Q.     E  E  E  Q     
--3--------3---------|---------------------|-----------------------|
--3--------3---------|--3------------------|--0------------0-------|
--0--------0---------|--2------2-----------|------------------2----|
--0------------------|--0------2-----------|--4---------1--4--2----|
---------------------|---------0--------L--|--2------4-------------|
--3------------------|---------------------|-----------------------|


  E  E  E  Q    E  Q       Q    E  E  E  E  Q       E  E  E  Q    E  Q     
------------------------|------------------------|------------------------|
-----0------------------|----------------0-------|-----0------------------|
-----------4----2--2----|-------------------2----|-----------4----2-------|
-----4-----4----2--2----|-------------1--4--2----|-----4-----4----2-------|
--2---------------------|--2----2--4-------------|--2---------------------|
------------------------|------------------------|-------------------2----|


  E  E  E  E  E  E  E  E     E  E  E  E  E  E  E  E   
--------------------------|--------------------------|
--------------------------|--------------------------|
--0--0--0--0--0--0--0--0--|--0--0--0--0--0--0--0--0--|
--------------------------|--------------------------|
--3--3--3--3--3--3--3--3--|--3--3--3--3--3--3--3--3--|
--------------------------|--------------------------|


  E  E  E  E  E  E  E  E     E  E  E  E  E  E  E  E   
--------------------------|--------------------------|
--------------------------|--------------------------|
--0--0--0--0--0--0--0--0--|--0--0--0--0--0--0--0--0--|
--------------------------|--------------------------|
--3--3--3--3--3--3--3--3--|--3--3--3--3--3--3--3--3--|
--------------------------|--------------------------|


  E  E  E  E  E  E  E  E     E  E  E  E  E  E  E  E   
--------------------------|--------------------------|
--------------------------|--------------------------|
--0--0--0--0--0--0--0--0--|--0--0--0--0--0--0--0--0--|
--------------------------|--------------------------|
--3--3--3--3--3--3--3--3--|--3--3--3--3--3--3--3--3--|
--------------------------|--------------------------|


  E  E  E  E  E  E  E  E     E  E  E  E  E  E  E  E     Q    E  E  E  E  Q     
--------------------------|--------------------------|------------------------|
--------------------------|--------------------------|----------------1-------|
--0--0--0--0--0--0--0--0--|--0--0--0--0--0--0--0--0--|--0-------------0--3----|
--------------------------|--------------------------|----------0--2-----3----|
--3--3--3--3--3--3--3--3--|--3--3--3--3--3--3--3--3--|--3----3----------------|
--------------------------|--------------------------|------------------------|


  E  E  E  Q    E  Q       Q    E  E  E  E  Q       E  E  E  Q    E  Q     
------------------------|------------------------|------------------------|
-----1-----1----1-------|----------------1-------|-----1-----1----1-------|
-----0-----0----0--3----|----------------0--3----|-----0-----0----0--3----|
-------------------3----|----------0--2-----3----|-------------------3----|
--3--------3------------|--3----3----------------|--3---------------------|
------------------------|------------------------|------------------------|


  Q    E  E  E  E  Q       E  E  Q    Q    Q       Q    E  E  E  E  Q     
------------------------|-----------------------|------------------------|
----------------1-------|-----1-------1----1----|----------------1-------|
----------------0--3----|-----0-------0----0----|----------------0--3----|
----------0--2-----3----|-----------------------|----------0--2-----3----|
--3----3----------------|--3----------3---------|--3----3----------------|
------------------------|-----------------------|------------------------|


  E  E  E  Q    E  Q       Q    H.              W                 
------------------------|-------0------------|--L----------------|
-----1-----1----1-------|--4----0------------|--L----------------|
-----0-----0----0--3----|--3-----------------|-------------------|
-------------------3----|--1----2------------|--L----------------|
--3---------------------|--------------------|-------------------|
------------------------|-------0------------|--L----------------|


  E  E  E  Q    E  E  E     E  E  E  Q.     E  E     W                 
--5--4--5--4-------------|------------------------|-------------------|
--------7--5----7--0-----|------------------------|-------------------|
----------------7-----6--|--L---------------------|-------------------|
----------------------7--|--L--0------------------|-------------------|
-------------------------|--------7--0------------|-------------------|
-------------------------|------------------7--0--|--L----------------|


  W                   E  E  E  Q    E  E  E     E  E  E  Q.     E  E   
-------------------|--5--4--5--4-------------|------------------------|
-------------------|--------7--5----7--0-----|------------------------|
-------------------|----------------7-----6--|--L---------------------|
-------------------|----------------------7--|--L--0------------------|
-------------------|-------------------------|--------7--0------------|
--L----------------|-------------------------|------------------7--0--|


  Q    E  E  E  Q.        H.           E  E     E  E  E  Q    E  E  E   
-------0---------------|---------------------|--5--4--5--4-------------|
-----------------------|---------------0-----|--------7--5----7--0-----|
----------0--1---------|---------------------|----------------7-----6--|
----------------2------|--L------------------|----------------------7--|
-----------------------|---------------------|-------------------------|
--L--------------------|---------------------|-------------------------|


  E  E  E  Q.     E  E     W                   W                 
------------------------|-------------------|-------------------|
------------------------|-------------------|-------------------|
--L---------------------|-------------------|-------------------|
--L--0------------------|-------------------|-------------------|
--------7--0------------|-------------------|-------------------|
------------------7--0--|--L----------------|--L----------------|


  E  E  E  Q    E  E  E     H.           E  E     Q.     Q.     Q     
--5--4--5--4-------------|---------------------|---------------------|
--------7--5----7--0-----|---------------------|---------------------|
----------------7-----6--|--L------------L-----|--2------------------|
----------------------7--|--L------------L-----|--2------2------0----|
-------------------------|---------------------|--0------2-----------|
-------------------------|---------------------|---------0-----------|


  W                   Q.     H        E     H.           E  E   
-------------------|---------------------|--3------------L-----|
--3----------------|--3------------------|--3------------L-----|
--2----------------|--2------2-----------|--0------------L-----|
--0----------------|--0------2-----------|--0------------L-----|
-------------------|---------0--------L--|---------------------|
-------------------|---------------------|--3------------L-----|


  Q.     H        E     Q    E  E  E  E  Q       E  E  E  Q    E  Q     
---------------------|------------------------|------------------------|
--3------------------|----------------0-------|-----0------------------|
--2------2-----------|-------------------2----|-----------4----2--2----|
--0------2-----------|-------------1--4--2----|-----4-----4----2--2----|
---------0--------L--|--2----2--4-------------|--2---------------------|
---------------------|------------------------|------------------------|


  Q    E  E  E  E  Q       E  E  E  Q    E  E  E     E  E  E  E  E  E  E  E   
------------------------|-------------------------|--------------------------|
----------------0-------|-----0-------------------|--------------------------|
-------------------2----|-----------4----2--2-----|--------------------------|
--4----------1--4--2----|-----4-----4----2--2-----|-----2--0-----0-----------|
--2----2--4-------------|--2----------------------|-----------2-----2--------|
------------------------|-------------------------|--0-----------------3--0--|


  E  E  E  E  E  E  E  E     E  E  E  E  E  E  E  E     E  Q.     E  Q.      
--------------------------|--------------------------|----------------------|
--------------------------|--------------------------|----------------------|
--------------------------|--------------------------|-----2---------2------|
-----2--0-----0-----------|-----2--0-----0-----------|-----0---------2------|
-----------2-----2--------|-----------2-----2--------|--0---------0--0------|
--0-----------------3--0--|--0-----------------3--0--|----------------------|


  E  E  E  E  E  E  E  E     E  E  E  E  E  E  E  E   
--------------------------|--------------------------|
--------------------------|--------------------------|
--------------------------|--------------------------|
-----2--0-----0-----------|-----2--0-----0-----------|
-----------2-----2--------|-----------2-----2--------|
--0-----------------3--0--|--0-----------------3--0--|


  E  E  E  E  E  E  E  E     E  Q.     E  Q.        E  E  E  E  E  E  E  E   
--------------------------|----------------------|--------------------------|
--------------------------|----------------------|--------------------------|
--------------------------|-----2---------2------|--------------------------|
-----2--0-----0-----------|-----0---------2------|-----2--0-----0-----------|
-----------2-----2--------|--0---------0--0------|-----------2-----2--------|
--0-----------------3--0--|----------------------|--0-----------------3--0--|


  E  E  E  E  E  E  E  E     E  E  E  E  E  E  E  E     E  Q.     E  Q.      
--------------------------|--------------------------|----------------------|
--------------------------|--------------------------|----------------------|
--------------------------|--------------------------|-----2---------2------|
-----2--0-----0-----------|-----2--0-----0-----------|-----0---------2------|
-----------2-----2--------|-----------2-----2--------|--0---------0--0------|
--0-----------------3--0--|--0-----------------3--0--|----------------------|


  E  E  E  E  E  E  E  E     E  E  E  E  E  E  E  E   
--------------------------|--------------------------|
--------------------------|--------------------------|
--------------------------|--------------------------|
-----2--0-----0-----------|-----2--0-----0-----------|
-----------2-----2--------|-----------2-----2--------|
--0-----------------3--0--|--0-----------------3--0--|


  E  E  E  E  E  E  E  E     E  Q.     E  Q.        E  E  E  E  E  E  E  E   
--------------------------|----------------------|--------------------------|
--------------------------|----------------------|--------------------------|
--------------------------|-----2---------2------|--------------------------|
-----2--0-----0-----------|-----0---------2------|-----2--0-----0-----------|
-----------2-----2--------|--0---------0--0------|-----------2-----2--------|
--0-----------------3--0--|----------------------|--0-----------------3--0--|


  E  E  E  E  E  E  E  E     E  E  E  E  E  E  E  E     E  Q.     E  Q.      
--------------------------|--------------------------|---------------0------|
--------------------------|--------------------------|----------------------|
--------------------------|--------------------------|-----2---------2------|
-----2--0-----0-----------|-----2--0-----0-----------|-----0---------2------|
-----------2-----2--------|-----------2-----2--------|--0---------0--0------|
--0-----------------3--0--|--0-----------------3--0--|----------------------|


  E  E  E  E  E  E  E  E     E  E  E  E  E  E  E  E   
--------------------------|--------------------------|
--------------------------|--------------------------|
--------------------------|--------------------------|
-----2--0-----0-----------|-----2--0-----0-----------|
-----------2-----2--------|-----------2-----2--------|
--0-----------------3--0--|--0-----------------3--0--|


  E  E  E  E  E  E  E  E     E  Q.     E  Q.        E  E  E  E  E  E  E  E   
--------------------------|---------------0------|--------------------------|
--------------------------|----------------------|--------------------------|
--------------------------|-----2---------2------|--------------------------|
-----2--0-----0-----------|-----0---------2------|-----2--0-----0-----------|
-----------2-----2--------|--0---------0--0------|-----------2-----2--------|
--0-----------------3--0--|----------------------|--0-----------------3--0--|


  E  E  E  E  E  E  E  E     E  E  E  E  E  E  E  E     E  Q.     E  Q.      
--------------------------|--------------------------|---------------0------|
--------------------------|--------------------------|----------------------|
--------------------------|--------------------------|-----2---------2------|
-----2--0-----0-----------|-----2--0-----0-----------|-----0---------2------|
-----------2-----2--------|-----------2-----2--------|--0---------0--0------|
--0-----------------3--0--|--0-----------------3--0--|----------------------|


  E  E  E  E  E  E  E  E     E  E  E  E  E  E  E  E   
--------------------------|--------------------------|
--------------------------|--------------------------|
--------------------------|--------------------------|
-----2--0-----0-----------|-----2--0-----0-----------|
-----------2-----2--------|-----------2-----2--------|
--0-----------------3--0--|--0-----------------3--0--|


  E  E  E  E  E  E  E  E     E  Q.     E  Q.       
--------------------------|---------------0------||
--------------------------|----------------------||
--------------------------|-----2---------2------||
-----2--0-----0-----------|-----0---------2------||
-----------2-----2--------|--0---------0--0------||
--0-----------------3--0--|----------------------||










Guitar 2



     W                   W                   W                 
E||-------------------|-------------------|-------------------|
B||-------------------|-------------------|-------------------|
G||-------------------|-------------------|-------------------|
D||-------------------|-------------------|-------------------|
A||-------------------|-------------------|-------------------|
E||-------------------|-------------------|-------------------|


  W                   W                   W                   W                 
-------------------|-------------------|-------------------|-------------------|
-------------------|-------------------|-------------------|-------------------|
-------------------|-------------------|-------------------|-------------------|
-------------------|-------------------|-------------------|-------------------|
-------------------|-------------------|-------------------|-------------------|
-------------------|-------------------|-------------------|-------------------|


  W                   W                   W                   W                 
-------------------|-------------------|-------------------|-------------------|
-------------------|-------------------|-------------------|-------------------|
-------------------|-------------------|-------------------|-------------------|
-------------------|-------------------|-------------------|-------------------|
-------------------|-------------------|-------------------|-------------------|
-------------------|-------------------|-------------------|-------------------|


  W                   W                   W                   W                 
-------------------|-------------------|-------------------|-------------------|
-------------------|-------------------|-------------------|-------------------|
-------------------|-------------------|-------------------|-------------------|
-------------------|-------------------|-------------------|-------------------|
-------------------|-------------------|-------------------|-------------------|
-------------------|-------------------|-------------------|-------------------|


  W                   E  Q.     E  Q    E     W                 
-------------------|-----------------------|-------------------|
-------------------|-----3---------0-------|-------------------|
-------------------|-----2-----------------|--2----------------|
-------------------|-----0---------4----0--|--2----------------|
-------------------|---------------2-------|--0----------------|
-------------------|-----------------------|-------------------|


  Q.     H        E     W                   Q.     Q.     E  E   
---------------------|-------------------|----------------------|
---------------------|--3----------------|--3-------------------|
--2------------------|--2----------------|--2------2---------0--|
--2------2-----------|--0----------------|--0------2---------0--|
--0------2-----------|-------------------|---------0------------|
---------0--------L--|-------------------|----------------------|


  H.           E  E     Q.     H        E     Q.     E  E  E  Q     
---------------------|---------------------|-----------------------|
---------------------|--3------------------|---------------0-------|
--0------------L-----|--2------2-----------|------------------2----|
--0------------L-----|--0------2-----------|------------1--4--2----|
---------------------|---------0--------L--|--2------4-------------|
--3------------L-----|---------------------|-----------------------|


  E  E  E  Q    E  Q       Q    E  E  E  E  Q       E  E  E  Q    E  Q     
------------------------|------------------------|------------------------|
-----0------------------|----------------0-------|-----0------------------|
-----------4----2--2----|-------------------2----|-----------4----2-------|
-----4-----4----2--2----|-------------1--4--2----|-----4-----4----2-------|
--2--------2----0--0----|--2----2--4-------------|--2----------------2----|
------------------------|------------------------|------------------------|


                                           |--3--|                    
  W                   H.           Q       E  E  E  E  Q    E  E  E   
--0----------------|--L-----------------|--5--4--2--5--4-------------|
--0----------------|--L-----------------|-----------5--5----3-----2--|
-------------------|--------------------|----------------------4--2--|
--2----------------|--L-----------------|----------------------------|
-------------------|--------------------|----------------------------|
--0----------------|--L-----------------|----------------------------|


  E  E  E  Q.     E  E     W                   W                 
------------------------|-------------------|-------------------|
--L---------------------|-------------------|-------------------|
--L---------------------|-------------------|-------------------|
-----0--2---------------|-------------------|-------------------|
-----------0------2-----|-------------------|-------------------|
---------------------0--|--L----------------|--L----------------|


  |--3--|                                                                 
  E  E  E  E  Q    E  E  E     E  E  E  Q.     E  E     W                 
--5--4--2--5--4-------------|------------------------|-------------------|
-----------5--5----3-----2--|--L---------------------|-------------------|
----------------------4--2--|--L---------------------|-------------------|
----------------------------|-----0--2---------------|-------------------|
----------------------------|-----------0------2-----|-------------------|
----------------------------|---------------------0--|--L----------------|


                      |--3--|                                             
  W                   E  E  E  E  Q    E  E  E     E  E  E  Q.     E  E   
-------------------|--5--4--2--5--4-------------|------------------------|
-------------------|-----------5--5----3-----2--|--L---------------------|
-------------------|----------------------4--2--|--L---------------------|
-------------------|----------------------------|-----0--2---------------|
-------------------|----------------------------|-----------0------2-----|
--L----------------|----------------------------|---------------------0--|


                                          |--3--|                    
  W                   W                   E  E  E  E  Q    E  E  E   
-------------------|-------------------|--5--4--2--5--4-------------|
-------------------|-------------------|-----------5--5----3-----2--|
-------------------|-------------------|----------------------4--2--|
-------------------|-------------------|----------------------------|
-------------------|-------------------|----------------------------|
--L----------------|--L----------------|----------------------------|


  H.           E  E     Q.     H        E     W                 
---------------------|---------------------|-------------------|
--L------------------|---------------------|--3----------------|
--L------------0-----|--2------------------|--2----------------|
---------------------|--2------2-----------|--0----------------|
---------------------|--0------2-----------|-------------------|
---------------------|---------0--------L--|-------------------|


  Q.     H        E     H.           E  E     Q.     H        E   
---------------------|---------------------|---------------------|
--3------------------|---------------------|--3------------------|
--2------2-----------|--0------------L-----|--2------2-----------|
--0------2-----------|--0------------L-----|--0------2-----------|
---------0--------L--|---------------------|---------0--------L--|
---------------------|--3------------L-----|---------------------|


  Q    E  E  E  E  Q       E  E  E  Q    E  Q       Q    E  E  E  E  Q     
------------------------|------------------------|------------------------|
----------------0-------|-----0------------------|----------------0-------|
-------------------2----|-----------4----2--2----|-------------------2----|
--4----------1--4--2----|-----4-----4----2--2----|-------------1--4--2----|
--2----2--4-------------|--2---------------------|--2----2--4-------------|
------------------------|------------------------|------------------------|


  E  E  E  Q    E  Q       E  E  Q    Q    Q       E  E  Q    Q    Q     
------------------------|-----0-------0---------|-----0-------0---------|
-----0------------------|-----0-------0---------|-----0-------0---------|
-----------4----2-------|-----------------------|-----------------------|
-----4-----4----2-------|-----2-------2---------|-----2-------2---------|
--2----------------2----|-----------------------|-----------------------|
------------------------|-----------------------|-----------------------|


  E  E  Q    Q    Q       E  Q.     E  Q.        E  E  Q    Q    Q     
-----0-------0---------|----------------------|-----0-------0---------|
-----0-------0---------|-----3----------------|-----0-------0---------|
-----------------------|-----2---------2------|-----------------------|
-----2-------2---------|-----0---------2------|-----2-------2---------|
-----------------------|---------------0------|-----------------------|
-----------------------|----------------------|-----------------------|


  E  E  Q    Q    Q       E  E  Q    Q    Q       E  Q.     E  Q.      
-----0-------0---------|-----0-------0---------|----------------------|
-----0-------0---------|-----0-------0---------|-----3----------------|
-----------------------|-----------------------|-----2---------2------|
-----2-------2---------|-----2-------2---------|-----0---------2------|
-----------------------|-----------------------|---------------0------|
-----------------------|-----------------------|----------------------|


  E  E  Q    Q    Q       E  E  Q    Q    Q       E  E  Q    Q    Q     
-----0-------0---------|-----0-------0---------|-----0-------0---------|
-----0-------0---------|-----0-------0---------|-----0-------0---------|
-----------------------|-----------------------|-----------------------|
-----2-------2---------|-----2-------2---------|-----2-------2---------|
-----------------------|-----------------------|-----------------------|
-----------------------|-----------------------|-----------------------|


  E  Q.     E  Q.        E  E  Q    Q    Q       E  E  Q    Q    Q     
----------------------|-----0-------0---------|-----0-------0---------|
-----3----------------|-----0-------0---------|-----0-------0---------|
-----2---------2------|-----------------------|-----------------------|
-----0---------2------|-----2-------2---------|-----2-------2---------|
---------------0------|-----------------------|-----------------------|
----------------------|-----------------------|-----------------------|


  E  E  Q    Q    Q       E  Q.     E  Q.        W                 
-----0-------0---------|----------------------|-------------------|
-----0-------0---------|-----3---------0------|-------------------|
-----------------------|-----2----------------|--2----------------|
-----2-------2---------|-----0---------4------|--2----------------|
-----------------------|---------------2------|--0----------------|
-----------------------|----------------------|-------------------|


  Q.     H        E     W                   Q.     H        E   
---------------------|-------------------|---------------------|
---------------------|--3----------------|--3------------------|
--2------------------|--2----------------|--2------2--------0--|
--2------2-----------|--0----------------|--0------2--------0--|
--0------2-----------|-------------------|---------0-----------|
---------0--------L--|-------------------|---------------------|


  H.           E  E     Q.     H        E     Q.     E  E  E  Q     
---------------------|---------------------|-----------------------|
---------------------|--3------------------|---------------0-------|
--0------------L-----|--2------2-----------|------------------2----|
--0------------L-----|--0------2-----------|------------1--4--2----|
---------------------|---------0--------L--|--2------4-------------|
--3------------L-----|---------------------|-----------------------|


  E  E  E  Q    E  Q       Q    E  E  E  E  Q       E  E  E  Q    E  E  E   
------------------------|------------------------|-------------------------|
-----0------------------|----------------0-------|-----0-------------------|
-----------4----2--2----|-------------------2----|-----------4----------0--|
-----4-----4----2--2----|-------------1--4--2----|-----4-----4-------------|
--2---------------------|--2----2--4-------------|--2--------2-------------|
------------------------|------------------------|-------------------2-----|


  E  E  E  E  E  E  E  E     E  E  E  E  E  E  E  E   
--------------------------|--------------------------|
--------------------------|--------------------------|
--0--0--0--0--0--0--0--0--|--0--0--0--0--0--0--0--0--|
--------------------------|--------------------------|
--3--3--3--3--3--3--3--3--|--3--3--3--3--3--3--3--3--|
--------------------------|--------------------------|


  E  E  E  E  E  E  E  E     E  E  E  E  E  E  E  E   
--------------------------|--------------------------|
--------------------------|--------------------------|
--0--0--0--0--0--0--0--0--|--0--0--0--0--0--0--0--0--|
--------------------------|--------------------------|
--3--3--3--3--3--3--3--3--|--3--3--3--3--3--3--3--3--|
--------------------------|--------------------------|


  E  E  E  E  E  E  E  E     E  E  E  E  E  E  E  E   
--------------------------|--------------------------|
--------------------------|--------------------------|
--0--0--0--0--0--0--0--0--|--0--0--0--0--0--0--0--0--|
--------------------------|--------------------------|
--3--3--3--3--3--3--3--3--|--3--3--3--3--3--3--3--3--|
--------------------------|--------------------------|


  E  E  E  E  E  E  E  E     E  E  E  E  E  E  E  E     Q    E  E  E  E  Q     
--------------------------|--------------------------|------------------------|
--------------------------|--------------------------|----------------1-------|
--0--0--0--0--0--0--0--0--|--0--0--0--0--0--0--0--0--|--0-------------0--3----|
--------------------------|--------------------------|----------0--2-----3----|
--3--3--3--3--3--3--3--3--|--3--3--3--3--3--3--3--3--|--3----3----------------|
--------------------------|--------------------------|------------------------|


  E  E  E  Q    E  Q       Q    E  E  E  E  Q       E  E  E  Q    E  E  E   
------------------------|------------------------|-------------------------|
-----1-----1----1-------|----------------1-------|-----1-----1----1--------|
-----0-----0----0--3----|----------------0--3----|-----0-----0----0--3-----|
-------------------3----|----------0--2-----3----|-------------------3-----|
--3--------3------------|--3----3----------------|--3--------3-------------|
------------------------|------------------------|-------------------------|


  Q    E  E  E  E  Q       E  E  E  Q    E  Q       Q    E  E  E  E  Q     
------------------------|------------------------|------------------------|
----------------1-------|-----1-----1----1-------|----------------1-------|
----------------0--3----|-----0-----0----0--3----|----------------0--3----|
----------0--2-----8----|-------------------3----|----------0--2-----3----|
--3----3-----------8----|--3---------------------|--3----3----------------|
------------------------|------------------------|------------------------|


  E  E  E  Q    E  E  E     Q    H.              W                 
-------------------------|-------0------------|--L----------------|
-----1-----1----1--------|--4----0------------|--L----------------|
-----0-----0----0--3-----|--3-----------------|-------------------|
-------------------3-----|--1----2------------|--L----------------|
--3----------------------|--------------------|-------------------|
-------------------------|-------0------------|--L----------------|


  |--3--|                                                                 
  E  E  E  E  Q    E  E  E     E  E  E  Q.     E  E     W                 
--5--4--2--5--4-------------|------------------------|-------------------|
-----------5--5----3-----2--|--L---------------------|-------------------|
----------------------4--2--|--L---------------------|-------------------|
----------------------------|-----0--2---------------|-------------------|
----------------------------|-----------0------2-----|-------------------|
----------------------------|---------------------0--|--L----------------|


                      |--3--|                                             
  W                   E  E  E  E  Q    E  E  E     E  E  E  Q.     E  E   
-------------------|--5--4--2--5--4-------------|------------------------|
-------------------|-----------5--5----3-----2--|--L---------------------|
-------------------|----------------------4--2--|--L---------------------|
-------------------|----------------------------|-----0--2---------------|
-------------------|----------------------------|-----------0------2-----|
--L----------------|----------------------------|---------------------0--|


                                          |--3--|                    
  W                   W                   E  E  E  E  Q    E  E  E   
-------------------|-------------------|--5--4--2--5--4-------------|
-------------------|-------------------|-----------5--5----3-----2--|
-------------------|-------------------|----------------------4--2--|
-------------------|-------------------|----------------------------|
-------------------|-------------------|----------------------------|
--L----------------|--L----------------|----------------------------|


  E  E  E  Q.     E  E     W                   W                 
------------------------|-------------------|-------------------|
--L---------------------|-------------------|-------------------|
--L---------------------|-------------------|-------------------|
-----0--2---------------|-------------------|-------------------|
-----------0------2-----|-------------------|-------------------|
---------------------0--|--L----------------|--L----------------|


  |--3--|                                                              
  E  E  E  E  Q    E  E  E     W                   Q.     H        E   
--5--4--2--5--4-------------|-------------------|---------------------|
-----------5--5----3-----2--|--L----------------|---------------------|
----------------------4--2--|--L----------------|--2------------------|
----------------------------|-------------------|--2------2-----------|
----------------------------|-------------------|--0------2-----------|
----------------------------|-------------------|---------0--------L--|


  W                   Q.     H        E     H.           E  E   
-------------------|---------------------|---------------------|
--3----------------|--3------------------|---------------------|
--2----------------|--2------2-----------|--0------------L-----|
--0----------------|--0------2-----------|--0------------L-----|
-------------------|---------0--------L--|---------------------|
-------------------|---------------------|--3------------L-----|


  Q.     H        E     Q    E  E  E  E  Q       E  E  E  Q    E  Q     
---------------------|------------------------|------------------------|
--3------------------|----------------0-------|-----0------------------|
--2------2-----------|-------------------2----|-----------4----2--2----|
--0------2-----------|--4----------1--4--2----|-----4-----4----2--2----|
---------0--------L--|--2----2--4-------------|--2---------------------|
---------------------|------------------------|------------------------|


  Q    E  E  E  E  Q       E  E  E  Q    E  Q       E  E  Q    Q    Q     
------------------------|------------------------|-----0-------0---------|
----------------0-------|-----0------------------|-----0-------0---------|
-------------------2----|-----------4----2-------|-----------------------|
-------------1--4--2----|-----4-----4----2-------|-----2-------2---------|
--2----2--4-------------|--2----------------2----|-----------------------|
------------------------|------------------------|-----------------------|


  E  E  Q    Q    Q       E  E  Q    Q    Q       E  Q.     E  Q.      
-----0-------0---------|-----0-------0---------|----------------------|
-----0-------0---------|-----0-------0---------|-----3----------------|
-----------------------|-----------------------|-----2---------2------|
-----2-------2---------|-----2-------2---------|-----0---------2------|
-----------------------|-----------------------|--0---------0---------|
-----------------------|-----------------------|----------------------|


  E  E  Q    Q    Q       E  E  Q    Q    Q       E  E  Q    Q    Q     
-----0-------0---------|-----0-------0---------|-----0-------0---------|
-----0-------0---------|-----0-------0---------|-----0-------0---------|
-----------------------|-----------------------|-----------------------|
-----2-------2---------|-----2-------2---------|-----2-------2---------|
-----------------------|-----------------------|-----------------------|
-----------------------|-----------------------|-----------------------|


  E  Q.     E  Q.        E  E  Q    Q    Q       E  E  Q    Q    Q     
----------------------|-----0-------0---------|-----0-------0---------|
-----3----------------|-----0-------0---------|-----0-------0---------|
-----2---------2------|-----------------------|-----------------------|
-----0---------2------|-----2-------2---------|-----2-------2---------|
--0---------0---------|-----------------------|-----------------------|
----------------------|-----------------------|-----------------------|


  E  E  Q    Q    Q       E  Q.     E  Q.        E  E  Q    Q    Q     
-----0-------0---------|----------------------|-----0-------0---------|
-----0-------0---------|-----3----------------|-----0-------0---------|
-----------------------|-----2---------2------|-----------------------|
-----2-------2---------|-----0---------2------|-----2-------2---------|
-----------------------|--0---------0---------|-----------------------|
-----------------------|----------------------|-----------------------|


  E  E  Q    Q    Q       E  E  Q    Q    Q       E  Q.     E  Q.      
-----0-------0---------|-----0-------0---------|----------------------|
-----0-------0---------|-----0-------0---------|-----3----------------|
-----------------------|-----------------------|-----2---------2------|
-----2-------2---------|-----2-------2---------|-----0---------2------|
-----------------------|-----------------------|--0---------0---------|
-----------------------|-----------------------|----------------------|


  E  E  Q    Q    Q       E  E  Q    Q    Q       E  E  Q    Q    Q     
-----0-------0---------|-----0-------0---------|-----0-------0---------|
-----0-------0---------|-----0-------0---------|-----0-------0---------|
-----------------------|-----------------------|-----------------------|
-----2-------2---------|-----2-------2---------|-----2-------2---------|
-----------------------|-----------------------|-----------------------|
-----------------------|-----------------------|-----------------------|


  E  Q.     E  Q.        E  E  Q    Q    Q       E  E  Q    Q    Q     
----------------------|-----0-------0---------|-----0-------0---------|
-----3----------------|-----0-------0---------|-----0-------0---------|
-----2---------2------|-----------------------|-----------------------|
-----0---------2------|-----2-------2---------|-----2-------2---------|
--0---------0---------|-----------------------|-----------------------|
----------------------|-----------------------|-----------------------|


  E  E  Q    Q    Q       E  Q.     E  Q.        E  E  Q    Q    Q     
-----0-------0---------|----------------------|-----0-------0---------|
-----0-------0---------|-----3----------------|-----0-------0---------|
-----------------------|-----2---------2------|-----------------------|
-----2-------2---------|-----0---------2------|-----2-------2---------|
-----------------------|--0---------0---------|-----------------------|
-----------------------|----------------------|-----------------------|


  E  E  Q    Q    Q       E  E  Q    Q    Q       E  Q.     E  Q.      
-----0-------0---------|-----0-------0---------|----------------------|
-----0-------0---------|-----0-------0---------|-----3----------------|
-----------------------|-----------------------|-----2---------2------|
-----2-------2---------|-----2-------2---------|-----0---------2------|
-----------------------|-----------------------|--0---------0---------|
-----------------------|-----------------------|----------------------|


  E  E  Q    Q    Q       E  E  Q    Q    Q       E  E  Q    Q    Q     
-----0-------0---------|-----0-------0---------|-----0-------0---------|
-----0-------0---------|-----0-------0---------|-----0-------0---------|
-----------------------|-----------------------|-----------------------|
-----2-------2---------|-----2-------2---------|-----2-------2---------|
-----------------------|-----------------------|-----------------------|
-----------------------|-----------------------|-----------------------|


  E  Q.     E  Q.       
----------------------||
-----3----------------||
-----2---------2------||
-----0---------2------||
--0---------0---------||
----------------------||










Guitar 3



     W                   E  E  E  E  Q    E  E     E  E  E  E  Q    E  E   
E||-------------------|-----0--------0----------|-----0--------0----------|
B||-------------------|-----0--------0----------|-----0--------0----------|
G||-------------------|-------------------------|-------------------------|
D||-------------------|--2--2--2--2--2----2--2--|--2--2--2--2--2----2--2--|
A||-------------------|-------------------------|-------------------------|
E||-------------------|-------------------------|-------------------------|


  E  E  E  E  Q    E  E     E  Q.     E  Q.        E  E  E  E  Q    E  E   
-----0--------0----------|----------------------|-----0--------0----------|
-----0--------0----------|-----3----------------|-----0--------0----------|
-------------------------|-----2---------2------|-------------------------|
--2--2--2--2--2----2--2--|-----0---------2------|--2--2--2--2--2----2--2--|
-------------------------|---------------0------|-------------------------|
-------------------------|----------------------|-------------------------|


  E  E  E  E  Q    E  E     E  E  E  E  Q    E  E     E  Q.     E  Q.      
-----0--------0----------|-----0--------0----------|----------------------|
-----0--------0----------|-----0--------0----------|-----3----------------|
-------------------------|-------------------------|-----2---------2------|
--2--2--2--2--2----2--2--|--2--2--2--2--2----2--2--|-----0---------2------|
-------------------------|-------------------------|---------------0------|
-------------------------|-------------------------|----------------------|


  E  E  E  E  Q    E  E     E  E  E  E  Q    E  E     E  E  E  E  Q    E  E   
-----0--------0----------|-----0--------0----------|-----0--------0----------|
-----0--------0----------|-----0--------0----------|-----0--------0----------|
-------------------------|-------------------------|-------------------------|
--2--2--2--2--2----2--2--|--2--2--2--2--2----2--2--|--2--2--2--2--2----2--2--|
-------------------------|-------------------------|-------------------------|
-------------------------|-------------------------|-------------------------|


  E  Q.     E  Q.        E  E  E  E  Q    E  E     E  E  E  E  Q    E  E   
----------------------|-----0--------0----------|-----0--------0----------|
-----3----------------|-----0--------0----------|-----0--------0----------|
-----2---------2------|-------------------------|-------------------------|
-----0---------2------|--2--2--2--2--2----2--2--|--2--2--2--2--2----2--2--|
-----0----------------|-------------------------|-------------------------|
----------------------|-------------------------|-------------------------|


  E  E  E  E  Q    E  E     E  Q.     E  Q.        W                 
-----0--------0----------|----------------------|-------------------|
-----0--------0----------|-----3---------0------|-------------------|
-------------------------|-----2----------------|--2----------------|
--2--2--2--2--2----2--2--|-----0---------4------|--2----------------|
-------------------------|---------------2------|--0----------------|
-------------------------|----------------------|-------------------|


  Q.     H        E     W                   Q.     H        E   
---------------------|-------------------|---------------------|
---------------------|--3----------------|--3------------------|
--2------------------|--2----------------|--2------2--------L--|
--2------2--------L--|--0----------------|--0------2--------L--|
--0------2--------L--|-------------------|---------0--------L--|
---------0--------L--|-------------------|---------------------|


  W                   Q.     H        E     W                 
-------------------|---------------------|-------------------|
-------------------|--3------------------|--0----------------|
--0----------------|--2------2--------L--|-------------------|
--0----------------|--0------2--------L--|--4----------------|
-------------------|---------0--------L--|--2----------------|
--3----------------|---------------------|-------------------|


  W                   W                   H.           Q     
-------------------|-------------------|--------------------|
--L----------------|--L----------------|--L------------0----|
-------------------|-------------------|--------------------|
--L----------------|--L----------------|--L------------4----|
--L----------------|--L----------------|--L------------2----|
-------------------|-------------------|--------------------|


  W                   W                   W                 
--0----------------|--L----------------|--L----------------|
--0----------------|--L----------------|--L----------------|
-------------------|-------------------|-------------------|
--2----------------|--L----------------|--L----------------|
-------------------|-------------------|-------------------|
-------------------|-------------------|-------------------|


  H.           E  E     W                   W                 
--L------------0--0--|--L----------------|--L----------------|
--L------------0--0--|--L----------------|--L----------------|
---------------------|-------------------|-------------------|
--L------------2--2--|--L----------------|--L----------------|
---------------------|-------------------|-------------------|
---------------------|-------------------|-------------------|


  W                   H.           E  E     W                 
--L----------------|--L------------0--0--|--L----------------|
--L----------------|--L------------0--0--|--L----------------|
-------------------|---------------------|-------------------|
--L----------------|--L------------2--2--|--L----------------|
-------------------|---------------------|-------------------|
-------------------|---------------------|-------------------|


  W                   W                   H.           E  E   
--L----------------|--L----------------|--L------------0--0--|
--L----------------|--L----------------|--L------------0--0--|
-------------------|-------------------|---------------------|
--L----------------|--L----------------|--L------------2--2--|
-------------------|-------------------|---------------------|
-------------------|-------------------|---------------------|


  W                   W                   H.           E  E   
--L----------------|--L----------------|--L------------L-----|
--L----------------|--L----------------|--L------------L-----|
-------------------|-------------------|------------------2--|
--L----------------|--L----------------|--L------------L--2--|
-------------------|-------------------|------------------0--|
-------------------|-------------------|---------------------|


  W                   Q.     H        E     W                 
-------------------|---------------------|-------------------|
-------------------|---------------------|--3----------------|
--L----------------|--2------------------|--2----------------|
--L----------------|--2------2--------L--|--0----------------|
--L----------------|--0------2--------L--|-------------------|
-------------------|---------0--------L--|-------------------|


  Q.     H        E     W                   Q.     H        E   
---------------------|-------------------|---------------------|
--3------------------|-------------------|--3------------------|
--2------2--------L--|--0----------------|--2------2--------L--|
--0------2--------L--|--0----------------|--0------2--------L--|
---------0--------L--|-------------------|---------0--------L--|
---------------------|--3----------------|---------------------|


  W                   W                   W                   W                 
-------------------|-------------------|-------------------|-------------------|
--0----------------|--L----------------|--L----------------|--L----------------|
-------------------|-------------------|-------------------|-------------------|
--4----------------|--L----------------|--L----------------|--L----------------|
--2----------------|--L----------------|--L----------------|--L----------------|
-------------------|-------------------|-------------------|-------------------|


  W                   W                   W                   W                 
-------------------|-------------------|-------------------|-------------------|
-------------------|-------------------|-------------------|-------------------|
-------------------|-------------------|-------------------|-------------------|
-------------------|-------------------|-------------------|-------------------|
-------------------|-------------------|-------------------|-------------------|
-------------------|-------------------|-------------------|-------------------|


  W                   W                   W                   W                 
-------------------|-------------------|-------------------|-------------------|
-------------------|-------------------|-------------------|-------------------|
-------------------|-------------------|-------------------|-------------------|
-------------------|-------------------|-------------------|-------------------|
-------------------|-------------------|-------------------|-------------------|
-------------------|-------------------|-------------------|-------------------|


  W                   W                   W                   W                 
-------------------|-------------------|-------------------|-------------------|
-------------------|-------------------|-------------------|-------------------|
-------------------|-------------------|-------------------|-------------------|
-------------------|-------------------|-------------------|-------------------|
-------------------|-------------------|-------------------|-------------------|
-------------------|-------------------|-------------------|-------------------|


  Q.     H        E     W                   W                 
---------0--------L--|--L----------------|-------------------|
---------------------|-------------------|-------------------|
---------------------|-------------------|-------------------|
---------2--------L--|--L----------------|-------------------|
---------------------|-------------------|-------------------|
---------0--------L--|--L----------------|-------------------|


  E  Q.     E  Q.        W                   Q.     H        E   
----------------------|-------------------|---------------------|
-----3---------0------|-------------------|---------------------|
-----2----------------|--2----------------|--2------------------|
-----0---------4------|--2----------------|--2------2--------L--|
---------------2------|--0----------------|--0------2--------L--|
----------------------|-------------------|---------0--------L--|


  W                   Q.     H        E     W                 
-------------------|---------------------|-------------------|
--3----------------|--3------------------|-------------------|
--2----------------|--2------2--------L--|--0----------------|
--0----------------|--0------2--------L--|--0----------------|
-------------------|---------0--------L--|-------------------|
-------------------|---------------------|--3----------------|


  Q.     H        E     W                   W                 
---------------------|-------------------|-------------------|
--3------------------|--0----------------|--L----------------|
--2------2--------L--|-------------------|-------------------|
--0------2--------L--|--4----------------|--L----------------|
---------0--------L--|--2----------------|--L----------------|
---------------------|-------------------|-------------------|


  W                   W                   W                   W                 
-------------------|-------------------|-------------------|-------------------|
--L----------------|-------------------|-------------------|-------------------|
-------------------|-------------------|-------------------|-------------------|
--L----------------|-------------------|-------------------|-------------------|
--L----------------|-------------------|-------------------|-------------------|
-------------------|-------------------|-------------------|-------------------|


  W                   W                   W                   W                 
-------------------|-------------------|-------------------|-------------------|
-------------------|-------------------|-------------------|-------------------|
-------------------|-------------------|-------------------|-------------------|
-------------------|-------------------|-------------------|-------------------|
-------------------|-------------------|-------------------|-------------------|
-------------------|-------------------|-------------------|-------------------|


  W                   W                   Q    Q    Q    Q     
-------------------|-------------------|----------------------|
-------------------|-------------------|----------------------|
-------------------|-------------------|--0----0----0----0----|
-------------------|-------------------|----------------------|
-------------------|-------------------|--3----3----3----3----|
-------------------|-------------------|----------------------|


  Q    Q    Q    Q       Q    Q    Q    Q       Q    Q    Q    Q     
----------------------|----------------------|----------------------|
----------------------|----------------------|----------------------|
--0----0----0----0----|--0----0----0----0----|--0----0----0----0----|
----------------------|----------------------|----------------------|
--3----3----3----3----|--3----3----3----3----|--3----3----3----3----|
----------------------|----------------------|----------------------|


  Q    Q    Q    Q       Q    Q    Q    Q       Q    Q    Q    Q     
----------------------|----------------------|----------------------|
----------------------|----------------------|----------------------|
--0----0----0----0----|--0----0----0----0----|--0----0----0----0----|
----------------------|----------------------|----------------------|
--3----3----3----3----|--3----3----3----3----|--3----3----3----3----|
----------------------|----------------------|----------------------|


  Q    Q    Q    Q       Q    Q    E  E  E  E     E  E  E  E  E  E  E  E   
----------------------|--0----0----0--0--0--0--|--0--0--0--0--0--0--0--0--|
----------------------|--0----0----0--0--0--0--|--0--0--0--0--0--0--0--0--|
--0----0----0----0----|------------------------|--------------------------|
----------------------|--2----2----2--2--2--2--|--2--2--2--2--2--2--2--2--|
--3----3----3----3----|------------------------|--------------------------|
----------------------|------------------------|--------------------------|


  E  E  E  E  E  E  E  E     E  E  E  E  E  E  E  E     W                 
--0--0--0--0--0--0--0--0--|--0--0--0--0--0--0--0--0--|--L----------------|
--0--0--0--0--0--0--0--0--|--0--0--0--0--0--0--0--0--|--L----------------|
--------------------------|--------------------------|-------------------|
--2--2--2--2--2--2--2--2--|--2--2--2--2--2--2--2--2--|--L----------------|
--------------------------|--------------------------|-------------------|
--------------------------|--------------------------|-------------------|


  W                   W                   H.           E  E   
--L----------------|--L----------------|--L------------0--0--|
--L----------------|--L----------------|--L------------0--0--|
-------------------|-------------------|---------------------|
--L----------------|--L----------------|--L------------2--2--|
-------------------|-------------------|---------------------|
-------------------|-------------------|---------------------|


  W                   W                   W                 
--L----------------|--L----------------|--L----------------|
--L----------------|--L----------------|--L----------------|
-------------------|-------------------|-------------------|
--L----------------|--L----------------|--L----------------|
-------------------|-------------------|-------------------|
-------------------|-------------------|-------------------|


  H.           E  E     W                   W                 
--L------------0--0--|--L----------------|--L----------------|
--L------------0--0--|--L----------------|--L----------------|
---------------------|-------------------|-------------------|
--L------------2--2--|--L----------------|--L----------------|
---------------------|-------------------|-------------------|
---------------------|-------------------|-------------------|


  H.           E  E     W                   Q.     H        E   
--L------------0-----|-------------------|---------------------|
--L------------0-----|-------------------|---------------------|
------------------2--|--L----------------|--2------------------|
--L------------2--2--|--L----------------|--2------2--------L--|
------------------0--|--L----------------|--0------2--------L--|
---------------------|-------------------|---------0--------L--|


  W                   Q.     H        E     W                 
-------------------|---------------------|-------------------|
--3----------------|--3------------------|-------------------|
--2----------------|--2------2--------L--|--0----------------|
--0----------------|--0------2--------L--|--0----------------|
-------------------|---------0--------L--|-------------------|
-------------------|---------------------|--3----------------|


  Q.     H        E     W                   W                 
---------------------|-------------------|-------------------|
--3------------------|--0----------------|--L----------------|
--2------2--------L--|-------------------|-------------------|
--0------2--------L--|--4----------------|--L----------------|
---------0--------L--|--2----------------|--L----------------|
---------------------|-------------------|-------------------|


  W                   W                    W                 
-------------------|-------------------|--12----------------|
--L----------------|--L----------------|--------------------|
-------------------|-------------------|--------------------|
--L----------------|--L----------------|--------------------|
--L----------------|--L----------------|--------------------|
-------------------|-------------------|--------------------|


   W                    W                    W                 
--12----------------|--12----------------|--12----------------|
--------------------|--------------------|--------------------|
--------------------|--------------------|--------------------|
--------------------|--------------------|--------------------|
--------------------|--------------------|--------------------|
--------------------|--------------------|--------------------|


   W                    W                    W                 
--12----------------|--12----------------|--12----------------|
--------------------|--------------------|--------------------|
--------------------|--------------------|--------------------|
--------------------|--------------------|--------------------|
--------------------|--------------------|--------------------|
--------------------|--------------------|--------------------|


   W                    W                    W                 
--12----------------|--12----------------|--12----------------|
--------------------|--------------------|--------------------|
--------------------|--------------------|--------------------|
--------------------|--------------------|--------------------|
--------------------|--------------------|--------------------|
--------------------|--------------------|--------------------|


   W                    W                    W                 
--12----------------|--12----------------|--12----------------|
--------------------|--------------------|--------------------|
--------------------|--------------------|--------------------|
--------------------|--------------------|--------------------|
--------------------|--------------------|--------------------|
--------------------|--------------------|--------------------|


   W                    W                    W                 
--12----------------|--12----------------|--12----------------|
--------------------|--------------------|--------------------|
--------------------|--------------------|--------------------|
--------------------|--------------------|--------------------|
--------------------|--------------------|--------------------|
--------------------|--------------------|--------------------|


   W                    W                    W                 
--12----------------|--12----------------|--12----------------|
--------------------|--------------------|--------------------|
--------------------|--------------------|--------------------|
--------------------|--------------------|--------------------|
--------------------|--------------------|--------------------|
--------------------|--------------------|--------------------|


   W                    W                    W                 
--12----------------|--12----------------|--12----------------|
--------------------|--------------------|--------------------|
--------------------|--------------------|--------------------|
--------------------|--------------------|--------------------|
--------------------|--------------------|--------------------|
--------------------|--------------------|--------------------|


   W                    W                    W                 
--12----------------|--12----------------|--12----------------|
--------------------|--------------------|--------------------|
--------------------|--------------------|--------------------|
--------------------|--------------------|--------------------|
--------------------|--------------------|--------------------|
--------------------|--------------------|--------------------|


   W                    W                    W                 
--12----------------|--12----------------|--12----------------|
--------------------|--------------------|--------------------|
--------------------|--------------------|--------------------|
--------------------|--------------------|--------------------|
--------------------|--------------------|--------------------|
--------------------|--------------------|--------------------|


   W                    W                    W                 
--12----------------|--12----------------|--12----------------|
--------------------|--------------------|--------------------|
--------------------|--------------------|--------------------|
--------------------|--------------------|--------------------|
--------------------|--------------------|--------------------|
--------------------|--------------------|--------------------|


   W                  
--12----------------||
--------------------||
--------------------||
--------------------||
--------------------||
--------------------||










Guitar 4



     W                   W                   W                 
E||-------------------|-------------------|-------------------|
B||-------------------|-------------------|-------------------|
G||-------------------|-------------------|-------------------|
D||-------------------|-------------------|-------------------|
A||-------------------|-------------------|-------------------|
E||-------------------|-------------------|-------------------|


  W                   W                   W                   W                 
-------------------|-------------------|-------------------|-------------------|
-------------------|-------------------|-------------------|-------------------|
-------------------|-------------------|-------------------|-------------------|
-------------------|-------------------|-------------------|-------------------|
-------------------|-------------------|-------------------|-------------------|
-------------------|-------------------|-------------------|-------------------|


  W                   W                   W                   W                 
-------------------|-------------------|-------------------|-------------------|
-------------------|-------------------|-------------------|-------------------|
-------------------|-------------------|-------------------|-------------------|
-------------------|-------------------|-------------------|-------------------|
-------------------|-------------------|-------------------|-------------------|
-------------------|-------------------|-------------------|-------------------|


  W                   W                   W                   W                 
-------------------|-------------------|-------------------|-------------------|
-------------------|-------------------|-------------------|-------------------|
-------------------|-------------------|-------------------|-------------------|
-------------------|-------------------|-------------------|-------------------|
-------------------|-------------------|-------------------|-------------------|
-------------------|-------------------|-------------------|-------------------|


  W                   W                   W                   W                 
-------------------|-------------------|-------------------|-------------------|
-------------------|-------------------|-------------------|-------------------|
-------------------|-------------------|-------------------|-------------------|
-------------------|-------------------|-------------------|-------------------|
-------------------|-------------------|-------------------|-------------------|
-------------------|-------------------|-------------------|-------------------|


  W                   W                   W                   W                 
-------------------|-------------------|-------------------|-------------------|
-------------------|-------------------|-------------------|-------------------|
-------------------|-------------------|-------------------|-------------------|
-------------------|-------------------|-------------------|-------------------|
-------------------|-------------------|-------------------|-------------------|
-------------------|-------------------|-------------------|-------------------|


  W                   W                   W                   W                 
-------------------|-------------------|-------------------|-------------------|
-------------------|-------------------|-------------------|-------------------|
-------------------|-------------------|-------------------|-------------------|
-------------------|-------------------|-------------------|-------------------|
-------------------|-------------------|-------------------|-------------------|
-------------------|-------------------|-------------------|-------------------|


  W                   W                   W                   W                 
-------------------|-------------------|-------------------|-------------------|
-------------------|-------------------|-------------------|-------------------|
-------------------|-------------------|-------------------|-------------------|
-------------------|-------------------|-------------------|-------------------|
-------------------|-------------------|-------------------|-------------------|
-------------------|-------------------|-------------------|-------------------|


  W                   W                   W                   W                 
-------------------|-------------------|-------------------|-------------------|
-------------------|-------------------|-------------------|-------------------|
-------------------|-------------------|-------------------|-------------------|
-------------------|-------------------|-------------------|-------------------|
-------------------|-------------------|-------------------|-------------------|
-------------------|-------------------|-------------------|-------------------|


  W                   W                   W                   W                 
-------------------|-------------------|-------------------|-------------------|
-------------------|-------------------|-------------------|-------------------|
-------------------|-------------------|-------------------|-------------------|
-------------------|-------------------|-------------------|-------------------|
-------------------|-------------------|-------------------|-------------------|
-------------------|-------------------|-------------------|-------------------|


  W                   W                   W                   W                 
-------------------|-------------------|-------------------|-------------------|
-------------------|-------------------|-------------------|-------------------|
-------------------|-------------------|-------------------|-------------------|
-------------------|-------------------|-------------------|-------------------|
-------------------|-------------------|-------------------|-------------------|
-------------------|-------------------|-------------------|-------------------|


  W                   W                   W                   W                 
-------------------|-------------------|-------------------|-------------------|
-------------------|-------------------|-------------------|-------------------|
-------------------|-------------------|-------------------|-------------------|
-------------------|-------------------|-------------------|-------------------|
-------------------|-------------------|-------------------|-------------------|
-------------------|-------------------|-------------------|-------------------|


  W                   W                   W                   W                 
-------------------|-------------------|-------------------|-------------------|
-------------------|-------------------|-------------------|-------------------|
-------------------|-------------------|-------------------|-------------------|
-------------------|-------------------|-------------------|-------------------|
-------------------|-------------------|-------------------|-------------------|
-------------------|-------------------|-------------------|-------------------|


  W                   W                   W                   W                 
-------------------|-------------------|-------------------|-------------------|
-------------------|-------------------|-------------------|-------------------|
-------------------|-------------------|-------------------|-------------------|
-------------------|-------------------|-------------------|-------------------|
-------------------|-------------------|-------------------|-------------------|
-------------------|-------------------|-------------------|-------------------|


  W                   W                   W                   W                 
-------------------|-------------------|-------------------|-------------------|
-------------------|-------------------|-------------------|-------------------|
-------------------|-------------------|-------------------|-------------------|
-------------------|-------------------|-------------------|-------------------|
-------------------|-------------------|-------------------|-------------------|
-------------------|-------------------|-------------------|-------------------|


  W                   W                   W                   W                 
-------------------|-------------------|-------------------|-------------------|
-------------------|-------------------|-------------------|-------------------|
-------------------|-------------------|-------------------|-------------------|
-------------------|-------------------|-------------------|-------------------|
-------------------|-------------------|-------------------|-------------------|
-------------------|-------------------|-------------------|-------------------|


  W                   W                   W                   W                 
-------------------|-------------------|-------------------|-------------------|
-------------------|-------------------|-------------------|-------------------|
-------------------|-------------------|-------------------|-------------------|
-------------------|-------------------|-------------------|-------------------|
-------------------|-------------------|-------------------|-------------------|
-------------------|-------------------|-------------------|-------------------|


  W                   W                   W                   W                 
-------------------|-------------------|-------------------|-------------------|
-------------------|-------------------|-------------------|-------------------|
-------------------|-------------------|-------------------|-------------------|
-------------------|-------------------|-------------------|-------------------|
-------------------|-------------------|-------------------|-------------------|
-------------------|-------------------|-------------------|-------------------|


  W                   W                   W                   W                 
-------------------|-------------------|-------------------|-------------------|
-------------------|-------------------|-------------------|-------------------|
-------------------|-------------------|-------------------|-------------------|
-------------------|-------------------|-------------------|-------------------|
-------------------|-------------------|-------------------|-------------------|
-------------------|-------------------|-------------------|-------------------|


  W                   W                   H.           E  E   
-------------------|-------------------|---------------------|
-------------------|-------------------|------------------3--|
-------------------|-------------------|---------------------|
-------------------|-------------------|---------------------|
-------------------|-------------------|---------------------|
-------------------|-------------------|---------------------|


  E  E  E  E  E  E  E  E     E  E  E  E  Q    E  E   
-----6--------6--------6--|--------6-----0----8-----|
--4-----3--4-----3--4-----|--3--4-----3----------8--|
--------------------------|-------------------------|
--------------------------|-------------------------|
--------------------------|-------------------------|
--------------------------|-------------------------|


                    |--3--|     |--3--|                     
  E  E  E  E  E  E  E  E  E     E  E  E  E  E  E  E  E  E   
--0--------------------------|-----------------------------|
--------------5-----3--------|--3--1-----1--3--4--3--1--3--|
-----7--5--7-----5-----5--2--|--------2--------------------|
-----------------------------|-----------------------------|
-----------------------------|-----------------------------|
-----------------------------|-----------------------------|


                                                                     |--3--|   
  E  Q    Q.     E  E     Q    E  E  E  E  E  E     E  E  Q    E  E  E  E  E   
--0--8----5---------5--|--L----------8--------8--|--L--8--8----6--------------|
-----8----6------8--6--|--L----8-----8--6--7--8--|--L-------------8--7--6--4--|
-----------------8-----|-------8--5--------------|----------------------------|
-----------------------|-------------------------|----------------------------|
-----------------------|-------------------------|----------------------------|
-----------------------|-------------------------|----------------------------|


  E  E  E  E  E  E  E  E     E  E  E  Q    E  E  E     E  E  E  Q    E  E  E   
--------3--1--------3--3--|-------------------------|-------------------------|
--6--6--------4--1--4--4--|--------4--4-------4--4--|--L-----4--4-------4--4--|
--------------------------|--3--0--3--3----0--3--3--|--L--0--3--3----0--3--3--|
--------------------------|-------------------------|-------------------------|
--------------------------|-------------------------|-------------------------|
--------------------------|-------------------------|-------------------------|


  E  E  E  E  E  E  E  E      E  E   E   E  E   E  E  E   
-----------------1--------|--10---------10--8------8--7--|
--L--4--4--3-----1-----1--|--10---------10--8------8-----|
--L--3--3--2--0-----3-----|--10--8--10---------10--------|
--------------------------|------------------------------|
--------------------------|------------------------------|
--------------------------|------------------------------|


  E  E  E  E  E  E  E  E     E  E  E  H        E   
--8--------8-----7--8-----|-----8-----5--------5--|
--8-----7--8--------8-----|--7--8-----------------|
-----8--------8--------8--|--------8--------------|
--------------------------|-----------------------|
--------------------------|-----------------------|
--------------------------|-----------------------|


        |--3--|        |--3--|                                                  
  E  E  E  E  E  E  E  E  E  E     E  E  E  E  E  E  E.  S    W                 
--L--8--------------------------|--3--2--3--4--4--5--5-----|--7----------------|
-----8--7--6--4--6--6--7--6-----|--------------------------|--0----------------|
--------------------------------|--------------------------|-------------------|
-----------------------------5--|--------------------------|-------------------|
--------------------------------|--------------------------|-------------------|
--------------------------------|--------------------------|-------------------|


  H        Q.     E     W                   W                 
--L--------7---------|-------------------|-------------------|
--L--------0---------|-------------------|-------------------|
---------------------|-------------------|-------------------|
---------------------|-------------------|-------------------|
---------------------|-------------------|-------------------|
---------------------|-------------------|-------------------|


  W                   W                   W                   W                 
-------------------|-------------------|-------------------|-------------------|
-------------------|-------------------|-------------------|-------------------|
-------------------|-------------------|-------------------|-------------------|
-------------------|-------------------|-------------------|-------------------|
-------------------|-------------------|-------------------|-------------------|
-------------------|-------------------|-------------------|-------------------|


  W                   W                   W                   W                 
-------------------|-------------------|-------------------|-------------------|
-------------------|-------------------|-------------------|-------------------|
-------------------|-------------------|-------------------|-------------------|
-------------------|-------------------|-------------------|-------------------|
-------------------|-------------------|-------------------|-------------------|
-------------------|-------------------|-------------------|-------------------|


  W                   W                   W                   W                 
-------------------|-------------------|-------------------|-------------------|
-------------------|-------------------|-------------------|-------------------|
-------------------|-------------------|-------------------|-------------------|
-------------------|-------------------|-------------------|-------------------|
-------------------|-------------------|-------------------|-------------------|
-------------------|-------------------|-------------------|-------------------|


  W                   W                   W                   W                 
-------------------|-------------------|-------------------|-------------------|
-------------------|-------------------|-------------------|-------------------|
-------------------|-------------------|-------------------|-------------------|
-------------------|-------------------|-------------------|-------------------|
-------------------|-------------------|-------------------|-------------------|
-------------------|-------------------|-------------------|-------------------|


  W                   W                   W                   W                 
-------------------|-------------------|-------------------|-------------------|
-------------------|-------------------|-------------------|-------------------|
-------------------|-------------------|-------------------|-------------------|
-------------------|-------------------|-------------------|-------------------|
-------------------|-------------------|-------------------|-------------------|
-------------------|-------------------|-------------------|-------------------|


  W                   W                   W                   W                 
-------------------|-------------------|-------------------|-------------------|
-------------------|-------------------|-------------------|-------------------|
-------------------|-------------------|-------------------|-------------------|
-------------------|-------------------|-------------------|-------------------|
-------------------|-------------------|-------------------|-------------------|
-------------------|-------------------|-------------------|-------------------|


  W                   W                   W                   W                 
-------------------|-------------------|-------------------|-------------------|
-------------------|-------------------|-------------------|-------------------|
-------------------|-------------------|-------------------|-------------------|
-------------------|-------------------|-------------------|-------------------|
-------------------|-------------------|-------------------|-------------------|
-------------------|-------------------|-------------------|-------------------|


  W                   W                   W                   W                 
-------------------|-------------------|-------------------|-------------------|
-------------------|-------------------|-------------------|-------------------|
-------------------|-------------------|-------------------|-------------------|
-------------------|-------------------|-------------------|-------------------|
-------------------|-------------------|-------------------|-------------------|
-------------------|-------------------|-------------------|-------------------|


  W                   W                   W                   W                 
-------------------|-------------------|-------------------|-------------------|
-------------------|-------------------|-------------------|-------------------|
-------------------|-------------------|-------------------|-------------------|
-------------------|-------------------|-------------------|-------------------|
-------------------|-------------------|-------------------|-------------------|
-------------------|-------------------|-------------------|-------------------|


  W                   W                   W                   W                 
-------------------|-------------------|-------------------|-------------------|
-------------------|-------------------|-------------------|-------------------|
-------------------|-------------------|-------------------|-------------------|
-------------------|-------------------|-------------------|-------------------|
-------------------|-------------------|-------------------|-------------------|
-------------------|-------------------|-------------------|-------------------|


  W                   W                   W                   W                 
-------------------|-------------------|-------------------|-------------------|
-------------------|-------------------|-------------------|-------------------|
-------------------|-------------------|-------------------|-------------------|
-------------------|-------------------|-------------------|-------------------|
-------------------|-------------------|-------------------|-------------------|
-------------------|-------------------|-------------------|-------------------|


  W                   W                   W                   W                 
-------------------|-------------------|-------------------|-------------------|
-------------------|-------------------|-------------------|-------------------|
-------------------|-------------------|-------------------|-------------------|
-------------------|-------------------|-------------------|-------------------|
-------------------|-------------------|-------------------|-------------------|
-------------------|-------------------|-------------------|-------------------|


  W                   W                   W                   W                 
-------------------|-------------------|-------------------|-------------------|
-------------------|-------------------|-------------------|-------------------|
-------------------|-------------------|-------------------|-------------------|
-------------------|-------------------|-------------------|-------------------|
-------------------|-------------------|-------------------|-------------------|
-------------------|-------------------|-------------------|-------------------|


  W                  
-------------------||
-------------------||
-------------------||
-------------------||
-------------------||
-------------------||










Guitar 5



     W                   W                   W                 
E||-------------------|-------------------|-------------------|
B||-------------------|-------------------|-------------------|
G||-------------------|-------------------|-------------------|
D||-------------------|-------------------|-------------------|
A||-------------------|-------------------|-------------------|
E||-------------------|-------------------|-------------------|


  W                   W                   W                   W                 
-------------------|-------------------|-------------------|-------------------|
-------------------|-------------------|-------------------|-------------------|
-------------------|-------------------|-------------------|-------------------|
-------------------|-------------------|-------------------|-------------------|
-------------------|-------------------|-------------------|-------------------|
-------------------|-------------------|-------------------|-------------------|


  W                   W                   W                   W                 
-------------------|-------------------|-------------------|-------------------|
-------------------|-------------------|-------------------|-------------------|
-------------------|-------------------|-------------------|-------------------|
-------------------|-------------------|-------------------|-------------------|
-------------------|-------------------|-------------------|-------------------|
-------------------|-------------------|-------------------|-------------------|


  W                   W                   W                   W                 
-------------------|-------------------|-------------------|-------------------|
-------------------|-------------------|-------------------|-------------------|
-------------------|-------------------|-------------------|-------------------|
-------------------|-------------------|-------------------|-------------------|
-------------------|-------------------|-------------------|-------------------|
-------------------|-------------------|-------------------|-------------------|


  W                   W                   W                   W                 
-------------------|-------------------|-------------------|-------------------|
-------------------|-------------------|-------------------|-------------------|
-------------------|-------------------|-------------------|-------------------|
-------------------|-------------------|-------------------|-------------------|
-------------------|-------------------|-------------------|-------------------|
-------------------|-------------------|-------------------|-------------------|


  W                   W                   W                   W                 
-------------------|-------------------|-------------------|-------------------|
-------------------|-------------------|-------------------|-------------------|
-------------------|-------------------|-------------------|-------------------|
-------------------|-------------------|-------------------|-------------------|
-------------------|-------------------|-------------------|-------------------|
-------------------|-------------------|-------------------|-------------------|


  W                   W                   W                   W                 
-------------------|-------------------|-------------------|-------------------|
-------------------|-------------------|-------------------|-------------------|
-------------------|-------------------|-------------------|-------------------|
-------------------|-------------------|-------------------|-------------------|
-------------------|-------------------|-------------------|-------------------|
-------------------|-------------------|-------------------|-------------------|


  W                   W                   W                   W                 
-------------------|-------------------|-------------------|-------------------|
-------------------|-------------------|-------------------|-------------------|
-------------------|-------------------|-------------------|-------------------|
-------------------|-------------------|-------------------|-------------------|
-------------------|-------------------|-------------------|-------------------|
-------------------|-------------------|-------------------|-------------------|


  W                   W                   W                   W                 
-------------------|-------------------|-------------------|-------------------|
-------------------|-------------------|-------------------|-------------------|
-------------------|-------------------|-------------------|-------------------|
-------------------|-------------------|-------------------|-------------------|
-------------------|-------------------|-------------------|-------------------|
-------------------|-------------------|-------------------|-------------------|


  W                   W                   W                   W                 
-------------------|-------------------|-------------------|-------------------|
-------------------|-------------------|-------------------|-------------------|
-------------------|-------------------|-------------------|-------------------|
-------------------|-------------------|-------------------|-------------------|
-------------------|-------------------|-------------------|-------------------|
-------------------|-------------------|-------------------|-------------------|


  W                   W                   W                   W                 
-------------------|-------------------|-------------------|-------------------|
-------------------|-------------------|-------------------|-------------------|
-------------------|-------------------|-------------------|-------------------|
-------------------|-------------------|-------------------|-------------------|
-------------------|-------------------|-------------------|-------------------|
-------------------|-------------------|-------------------|-------------------|


  W                   W                   W                   W                 
-------------------|-------------------|-------------------|-------------------|
-------------------|-------------------|-------------------|-------------------|
-------------------|-------------------|-------------------|-------------------|
-------------------|-------------------|-------------------|-------------------|
-------------------|-------------------|-------------------|-------------------|
-------------------|-------------------|-------------------|-------------------|


  W                   W                   W                   W                 
-------------------|-------------------|-------------------|-------------------|
-------------------|-------------------|-------------------|-------------------|
-------------------|-------------------|-------------------|-------------------|
-------------------|-------------------|-------------------|-------------------|
-------------------|-------------------|-------------------|-------------------|
-------------------|-------------------|-------------------|-------------------|


  W                   W                   W                   W                 
-------------------|-------------------|-------------------|-------------------|
-------------------|-------------------|-------------------|-------------------|
-------------------|-------------------|-------------------|-------------------|
-------------------|-------------------|-------------------|-------------------|
-------------------|-------------------|-------------------|-------------------|
-------------------|-------------------|-------------------|-------------------|


  W                   W                   W                   W                 
-------------------|-------------------|-------------------|-------------------|
-------------------|-------------------|-------------------|-------------------|
-------------------|-------------------|-------------------|-------------------|
-------------------|-------------------|-------------------|-------------------|
-------------------|-------------------|-------------------|-------------------|
-------------------|-------------------|-------------------|-------------------|


  W                   W                   W                   W                 
-------------------|-------------------|-------------------|-------------------|
-------------------|-------------------|-------------------|-------------------|
-------------------|-------------------|-------------------|-------------------|
-------------------|-------------------|-------------------|-------------------|
-------------------|-------------------|-------------------|-------------------|
-------------------|-------------------|-------------------|-------------------|


  W                   W                   W                   W                 
-------------------|-------------------|-------------------|-------------------|
-------------------|-------------------|-------------------|-------------------|
-------------------|-------------------|-------------------|-------------------|
-------------------|-------------------|-------------------|-------------------|
-------------------|-------------------|-------------------|-------------------|
-------------------|-------------------|-------------------|-------------------|


  W                   W                   W                   W                 
-------------------|-------------------|-------------------|-------------------|
-------------------|-------------------|-------------------|-------------------|
-------------------|-------------------|-------------------|-------------------|
-------------------|-------------------|-------------------|-------------------|
-------------------|-------------------|-------------------|-------------------|
-------------------|-------------------|-------------------|-------------------|


  W                   W                   W                   W                 
-------------------|-------------------|-------------------|-------------------|
-------------------|-------------------|-------------------|-------------------|
-------------------|-------------------|-------------------|-------------------|
-------------------|-------------------|-------------------|-------------------|
-------------------|-------------------|-------------------|-------------------|
-------------------|-------------------|-------------------|-------------------|


  W                   W                   W                   W                 
-------------------|-------------------|-------------------|-------------------|
-------------------|-------------------|-------------------|-------------------|
-------------------|-------------------|-------------------|-------------------|
-------------------|-------------------|-------------------|-------------------|
-------------------|-------------------|-------------------|-------------------|
-------------------|-------------------|-------------------|-------------------|


  W                   W                   W                   W                 
-------------------|-------------------|-------------------|-------------------|
-------------------|-------------------|-------------------|-------------------|
-------------------|-------------------|-------------------|-------------------|
-------------------|-------------------|-------------------|-------------------|
-------------------|-------------------|-------------------|-------------------|
-------------------|-------------------|-------------------|-------------------|


  W                   W                   W                   W                 
-------------------|-------------------|-------------------|-------------------|
-------------------|-------------------|-------------------|-------------------|
-------------------|-------------------|-------------------|-------------------|
-------------------|-------------------|-------------------|-------------------|
-------------------|-------------------|-------------------|-------------------|
-------------------|-------------------|-------------------|-------------------|


  W                   W                   W                   W                 
-------------------|-------------------|-------------------|-------------------|
-------------------|-------------------|-------------------|-------------------|
-------------------|-------------------|-------------------|-------------------|
-------------------|-------------------|-------------------|-------------------|
-------------------|-------------------|-------------------|-------------------|
-------------------|-------------------|-------------------|-------------------|


  W                   W                   W                   W                 
-------------------|-------------------|-------------------|-------------------|
-------------------|-------------------|-------------------|-------------------|
-------------------|-------------------|-------------------|-------------------|
-------------------|-------------------|-------------------|-------------------|
-------------------|-------------------|-------------------|-------------------|
-------------------|-------------------|-------------------|-------------------|


  W                   W                   W                   W                 
-------------------|-------------------|-------------------|-------------------|
-------------------|-------------------|-------------------|-------------------|
-------------------|-------------------|-------------------|-------------------|
-------------------|-------------------|-------------------|-------------------|
-------------------|-------------------|-------------------|-------------------|
-------------------|-------------------|-------------------|-------------------|


  W                   W                   W                   W                 
-------------------|-------------------|-------------------|-------------------|
-------------------|-------------------|-------------------|-------------------|
-------------------|-------------------|-------------------|-------------------|
-------------------|-------------------|-------------------|-------------------|
-------------------|-------------------|-------------------|-------------------|
-------------------|-------------------|-------------------|-------------------|


  W                   W                   W                   W                 
-------------------|-------------------|-------------------|-------------------|
-------------------|-------------------|-------------------|-------------------|
-------------------|-------------------|-------------------|-------------------|
-------------------|-------------------|-------------------|-------------------|
-------------------|-------------------|-------------------|-------------------|
-------------------|-------------------|-------------------|-------------------|


  W                   W                   W                   W                 
-------------------|-------------------|-------------------|-------------------|
-------------------|-------------------|-------------------|-------------------|
-------------------|-------------------|-------------------|-------------------|
-------------------|-------------------|-------------------|-------------------|
-------------------|-------------------|-------------------|-------------------|
-------------------|-------------------|-------------------|-------------------|


  W                   W                   W                   W                 
-------------------|-------------------|-------------------|-------------------|
-------------------|-------------------|-------------------|-------------------|
-------------------|-------------------|-------------------|-------------------|
-------------------|-------------------|-------------------|-------------------|
-------------------|-------------------|-------------------|-------------------|
-------------------|-------------------|-------------------|-------------------|


  H        E  E  E  E     H        S S S S E.  S    E  E  E  E  E  E  E  E   
--------------------0--|--2--------L-0-----------|-----1--2--7--5-----------|
--4--------L-----3-----|---------------3-0-3-----|--3--------------7--5--7--|
--------------2--------|-------------------------|--------------------------|
-----------------------|-------------------------|--------------------------|
-----------------------|-------------------------|--------------------------|
-----------------------|-------------------------|--------------------------|


  E  Q    H        E     T H        Q    E  S T    W                 
-----5----7--------L--|--L----------------------|-------------------|
----------------------|-------------------------|-------------------|
--7-------------------|-------------------------|-------------------|
----------------------|-------------------------|-------------------|
----------------------|-------------------------|-------------------|
----------------------|-------------------------|-------------------|


  W                   W                   W                   W                 
-------------------|-------------------|-------------------|-------------------|
-------------------|-------------------|-------------------|-------------------|
-------------------|-------------------|-------------------|-------------------|
-------------------|-------------------|-------------------|-------------------|
-------------------|-------------------|-------------------|-------------------|
-------------------|-------------------|-------------------|-------------------|


  W                   W                   W                   W                 
-------------------|-------------------|-------------------|-------------------|
-------------------|-------------------|-------------------|-------------------|
-------------------|-------------------|-------------------|-------------------|
-------------------|-------------------|-------------------|-------------------|
-------------------|-------------------|-------------------|-------------------|
-------------------|-------------------|-------------------|-------------------|


  W                   W                   W                   W                 
-------------------|-------------------|-------------------|-------------------|
-------------------|-------------------|-------------------|-------------------|
-------------------|-------------------|-------------------|-------------------|
-------------------|-------------------|-------------------|-------------------|
-------------------|-------------------|-------------------|-------------------|
-------------------|-------------------|-------------------|-------------------|


  W                   W                   W                   W                 
-------------------|-------------------|-------------------|-------------------|
-------------------|-------------------|-------------------|-------------------|
-------------------|-------------------|-------------------|-------------------|
-------------------|-------------------|-------------------|-------------------|
-------------------|-------------------|-------------------|-------------------|
-------------------|-------------------|-------------------|-------------------|


  W                   W                   W                   W                 
-------------------|-------------------|-------------------|-------------------|
-------------------|-------------------|-------------------|-------------------|
-------------------|-------------------|-------------------|-------------------|
-------------------|-------------------|-------------------|-------------------|
-------------------|-------------------|-------------------|-------------------|
-------------------|-------------------|-------------------|-------------------|


  W                   W                   W                   W                 
-------------------|-------------------|-------------------|-------------------|
-------------------|-------------------|-------------------|-------------------|
-------------------|-------------------|-------------------|-------------------|
-------------------|-------------------|-------------------|-------------------|
-------------------|-------------------|-------------------|-------------------|
-------------------|-------------------|-------------------|-------------------|


  W                   W                   W                   W                 
-------------------|-------------------|-------------------|-------------------|
-------------------|-------------------|-------------------|-------------------|
-------------------|-------------------|-------------------|-------------------|
-------------------|-------------------|-------------------|-------------------|
-------------------|-------------------|-------------------|-------------------|
-------------------|-------------------|-------------------|-------------------|


  W                   W                  
-------------------|-------------------||
-------------------|-------------------||
-------------------|-------------------||
-------------------|-------------------||
-------------------|-------------------||
-------------------|-------------------||




Duration Legend
---------------
W - whole
H - half
Q - quarter
E - 8th
S - 16th
T - 32nd
X - 64th
. - note dotted
|-n-|  - n-tuplets


Tablature Legend
----------------
L - tied note
x - dead note
g - grace note
(n) - ghost note
> - accentuded note
NH - natural harmonic
AH - artificial harmonic
TH - tapped harmonic
SH - semi harmonic
PH - pitch harmonic
h - hammer on
p - pull off
b - bend
br - bendRelease
pb - preBend
pbr - preBendRelease
brb - bendReleaseBend
\n/ - tremolo bar dip
\n - tremolo bar dive
-/n - tremolo bar Release up
/n\ - tremolo bar inverted dip
/n - tremolo bar return
-\n - tremolo bar Release down
S - shift slide
s - legato slide
/ -  slide into from below or out of upwards
\ -  slide into from above or out of downwards
~ - vibrato
W - wide vibrato
tr - trill
TP - tremolo picking
T - tapping
S - slap
P - pop
< - fade in
^ - brush up
v - brush down
comments
print report bad tab
4 comments total. Showing first comments.
+2 reply
extendafist wrote on August 2 2009, 06:31 am

you really wasted a lot of space doing it like this

0 reply
Supernaught wrote on October 8 2009, 02:27 pm

The tab might be right, but REALLY badly written.

0 reply
sir-psycho-sexy wrote on June 9 2010, 07:37 am

hey yo its just anuva BOMB TRACK!

I want to post or [tab]
guest
You may want to rate the tab now too:
select rating
Please do not post tabs as comments. Select "correction" instead!