Oops, an error
Loading. Please wait.

Walk This Way Tab

ver7
ver7

Intro

Solo

Interactive

Video

More versions @911Tabs.com
95,055 views 82 this week
2 commentsread comments
1 2 3 4 5
excellent!
x 8
Autoscroll
+/-
esc
set tempo
stop
Contributor
Hey! There's an official Ultimate Guitar app which is ideal
for learning songs when you're away from computer. Get the app
WARNING: You are trying to view
                                    content from Ultimate-Guitar.com
                                    in an unauthorized application,
                                    which is prohibited.

                                    Please use an official Ultimate
                                    Guitar Tabs application for iPhone,
                                    iPad or Android to access legitimate
                                    chords, guitar, bass, and drum tabs
                                    from Ultimate-Guitar.com database.

                                    Type "ultimate guitar tabs" in Apple
                                    App Store's or Android Market's
                                    search to find the application.
                                  WALK THIS WAY
                            As recorded by Aerosmith
                     (From the 1975 Album TOYS IN THE ATTIC)

Words and Music by Steven Tyler & Joe Perry
Transcribed by www.mikesguitarsite.co.uk

          A5
      5 7 7 x x x

Gtr I (E A D G B E) - 'Joe Perry - Rhythm'
Gtr II (E A D G B E) - 'Brad Whitford - Rhythm'
Gtr III (E A D G B E) - 'Joe Perry - Lead'
Gtr IV (E A D G B E) - 'Brad Whitford - Rhythm Fills'

 Intro
  Q=120
 4/4
  Gtr I
|---------||-----------------------|--------------------------|
|---------||-----------------------|--------------------------|
|---------||-----------------------|--------------------------|
|---------||-------2--------2------|-------2--------2-----2---|
|---------||-0-1-2----0-1-2--------|-0-1-2----0-1-2-----------|
|---------||------------------0--x-|------------------3p0-----|


                                          A5
  Gtr II
                                          |
                                          /

  Gtr I
|----------------------|----------------------||
|----------------------|----------------------||
|----------------------|------------------2---||
|-------2--------2-----|-------2--------2-2---||
|-0-1-2----0-1-2-------|-0-1-2----0-1-2---0---||
|------------------0---|----------------------||


   Verses
    $
    Gtrs I, II
    PM---------------------------------------------
||------------------------------------------------|
||o-----------------------------------------------|
||------------------------------------------------|
||---------------------------10-------------------|
||o-------10-(10)-10-12p10------10-10-13-10-12-10-|
||--8-8-8------------------8----------------------|


 --------------------------------------------|
|------------------------------------------------|
|------------------------------------------------|
|------------------------------------------------|
|--------------------------10--------------------|
|-------10-(10)-10-12p10------10-10-13-10-12-10--|
|-8-8-8------------------8-----------------------|


  PM---------------------------------------------
|-----------------------------------------------|
|-----------------------------------------------|
|-----------------------------------------------|
|--------------------------10-------------------|
|-------10-(10)-10-12p10------10-10-13-10-12-10-|
|-8-8-8------------------8----------------------|


 --------------------------------------------|
|-----------------------------------------------|
|-----------------------------------------------|
|-----------------------------------------------|
|--------------------------10-------------------|
|-------10-(10)-10-12p10------10-10-13-10-12-10-|
|-8-8-8------------------8----------------------|


  PM---------------------------------------------
|-----------------------------------------------|
|-----------------------------------------------|
|-----------------------------------------------|
|--------------------------10-------------------|
|-------10-(10)-10-12p10------10-10-13-10-12-10-|
|-8-8-8------------------8----------------------|


 --------------------------------------------|
|-----------------------------------------------|
|-----------------------------------------------|
|-----------------------------------------------|
|--------------------------10-------------------|
|-------10-(10)-10-12p10------10-10-13-10-12-10-|
|-8-8-8------------------8----------------------|


  PM---------------------------------------------
|-----------------------------------------------|
|-----------------------------------------------|
|-----------------------------------------------|
|--------------------------10-------------------|
|-------10-(10)-10-12p10------10-10-13-10-12-10-|
|-8-8-8------------------8----------------------|


 1.
 --------------------------------|
|------------------------------------||
|------------------------------------||
|------------------------------------||
|--------------------------10----7\--||
|-------10-(10)-10-12p10------10-7\--||
|-8-8-8------------------8-------5\--||


  PM------------------------
|--------------------------|
|--------------------------|
|--------------------------|
|-------2--------2---------|
|-0-1-2----0-1-2-----------|
|------------------0-x-x-x-|


 ---------------------------------------------------|
|--------------------------|--------------------------|
|--------------------------|--------------------------|
|--------------------------|--------------------------|
|-------2--------2-------2-|-------2--------2---------|
|-0-1-2----0-1-2-----------|-0-1-2----0-1-2-----------|
|------------------0-3p0---|------------------0-x-x-x-|


                           2.
  Gtr I
  PM-------------|          PM-----------------------|
|------------------------||---------------------------------------||
|-----------------------o||---------------------------------------||
|------------------------||---------------------------------------||
|-------2--------2-7/----||--------------------------10-----10\---||
|-0-1-2----0-1-2---7/---o||-------10-(10)-10-12p10----------10\---||
|------------------5/----||-8-8-8------------------8--------------||
|
| Gtr II                Gtr II
| PM-------------|          PM-----------------------|
|------------------------||---------------------------------------||
|-----------------------o||---------------------------------------||
|------------------2-----||---------------------------------------||
|-------2--------2-2-----||--------------------------10-----13\---||
|-0-1-2----0-1-2---0----o||-------10-(10)-10-12p10----------13\---||
|------------------------||-8-8-8------------------8----8-8-------||


   Chorus
      ~~~~                      ~~~~~~~~~                       ~~~
||--(11)--------------------------|----------------------11-11-11-|
||o-(10)-----------------10-10-10-|-(10)-----------------10-10-10-|
||------------------------8--8--8-|--(8)--------------------------|
||--------------------------------|-------------------------------|
||o-------------------------------|-------------------------------|
||--------------------------------|-------------------------------|
|
||--------------------------------|-------------------------------|
||o-------------------------------|-------------------------------|
||--------------------------------|-------------------------------|
||--------------------------------|--10--12-(12)-13-(13)----------|
||o--10--12-(12)-13-(13)----------|---8---8--(8)--8--(8)----------|
||----8---8--(8)--8--(8)----------|-------------------------------|


                                 1.
 ~~~~~~                       ~~~~~~~~~                       ~~
|-(11)--------------------------|----------------------11-11-11---||
|-(10)-----------------10-10-10-|-(10)-----------------10-10-10--o||
|-----------------------8--8--8-|--(8)----------------------------||
|-------------------------------|---------------------------------||
|-------------------------------|--------------------------------o||
|-------------------------------|---------------------------------||
|
|-------------------------------|---------------------------------||
|-------------------------------|--------------------------------o||
|-------------------------------|---------------------------------||
|-------------------------------|--10--12-(12)-13-(13)------------||
|--10--12-(12)-13-(13)----------|---8---8--(8)--8--(8)-----------o||
|---8---8--(8)--8--(8)----------|---------------------------------||


                                  Guitar Solo
  2.
                         To Coda
                                Gtr III
                              ~~
|----------------------11-11-11-||-11b12-------------------------8h11p=8-----8--------------|
|-(10)-----------------10-10-10-||---------------------------------------11----11b13========|
|---8---------------------------||----------------------------------------------------------|
|-------------------------------||----------------------------------------------------------|
|-------------------------------||----------------------------------------------------------|
|-------------------------------||----------------------------------------------------------|
|
|                               Gtrs I, II
|                                   PM-------------------------------------------------------
|-------------------------------||----------------------------------------------------------|
|-------------------------------||----------------------------------------------------------|
|-------------------------------||----------------------------------------------------------|
|--10--12-(12)-13-(13)----------||------------------------------10--------------------------|
|---8---8---8---8--(8)----------||-----------10-(10)-10-12p10---------10-10-13-10-----12-10-|
|-------------------------------||--8----8-8------------------8-----------------------------|


                                                  ~~
|-----------8----------------------------------------------|
|-(11)r(11)---11---8---------------------------------------|
|---------------------11p10p=8-10----10-10b12-----8--------|
|---------------------------------10-----------------------|
|----------------------------------------------------------|
|----------------------------------------------------------|
|
|------------------------------------------------------|
|----------------------------------------------------------|
|----------------------------------------------------------|
|----------------------------------------------------------|
|---------------------------------10-----------------------|
|-------------10-(10)-10-12p10-------10-10----13-10-12-10--|
|---8----8--8-------------------8--------------------------|


|---------------------------------------------------------|
|------10b11=====(10)----(10)r(10)-8-----8----------------|
|------------------------------------10----11p10p=8-10p=8-|
|-10------------------------------------------------------|
|---------------------------------------------------------|
|---------------------------------------------------------|
|
|  PM------------------------------------------------------
|---------------------------------------------------------|
|---------------------------------------------------------|
|---------------------------------------------------------|
|------------------------------------10-------------------|
|-------------10-(10)-10--12p==10-------10-10-13-10-12-10-|
|--8-8--8--------------------------8----------------------|


                                                 ~~
|-----------------------------------------------------||
|-----------------------11b13==(11)----(11)r(11)------||
|-10p8-11p10p==8--10p=8-------------------------------||
|------------------------------------------------7----||
|-----------------------------------------------------||
|-----------------------------------------------------||
|
|------------------------------------------------|
|-----------------------------------------------------||
|-----------------------------------------------------||
|-----------------------------------------------------||
|-----------------------------------10-----------7\---||
|---------10-(10)-10-12p10--------------10-------7\---||
|--8-8--8------------------------8---------------5\---||


  Gtrs I, II
  PM------------------------------------------------|
|--------------------------|---------------------------|
|--------------------------|---------------------------|
|--------------------------|---------------------------|
|-------2--------2---------|-------2--------2-------2--|
|-0-1-2----0-1-2-----------|-0-1-2----0-1-2------------|
|------------------0-x-x-x-|------------------0-3p0----|


                                         D.S. al Coda
  Gtr I
  PM-------------------------|
|------------------------------|-----------------------||
|------------------------------|-----------------------||
|------------------------------|-----------------------||
|-------2--------2-------------|-------2--------2-7/---||
|-0-1-2----0-1-2---------------|-0-1-2----0-1-2---7/---||
|------------------0-x-x-x-x-x-|------------------5/---||
|
| Gtr II
| PM-------------------------|
|------------------------------|-----------------------||
|------------------------------|-----------------------||
|------------------------------|------------------2----||
|-------2--------2-------------|-------2--------2-2----||
|-0-1-2----0-1-2---------------|-0-1-2----0-1-2---0----||
|------------------0-x-x-x-x-x-|-----------------------||


 Guitar Solo 2
  &
  Gtr III
|------------5-----------------------------------------|
|------------------------------------------------------|
|-5-5-9p=8-------8p=7p=5-7p=5--7p=5--7--7b8==(7)r(7)p5-|
|------------------------------------------------------|
|------------------------------------------------------|
|------------------------------------------------------|
|
| Gtrs I, II
| PM----------------------------------------------------
|------------------------------------------------------|
|------------------------------------------------------|
|------------------------------------------------------|
|--------------------------10--------------------------|
|-------10-(10)-10-12p10------10-10-13-10----12--10----|
|-8-8-8------------------8-----------------------------|


|-------3p0------0----------------------------------------|
|---------------------------------------------------------|
|-0h3h5------5-------0--2--2-(2)b3r===============(2)-----|
|---------------------------------------------------------|
|---------------------------------------------------------|
|---------------------------------------------------------|
|
|-----------------------------------------------------|
|---------------------------------------------------------|
|---------------------------------------------------------|
|---------------------------------------------------------|
|----------------------------------10---------------------|
|-----------10-(10)-10-12p10----------10-10-13-10-12--10--|
|-8---8---8-------------------8---------------------------|


|---------------------------------------------------------------|
|----------------------------------------------8p5-------5------|
|----------------5--8p5------8p5-------5----8---------8-------8p|
|--------7s==8-------------8--------8---------------------------|
|-3---3---------------------------------------------------------|
|---------------------------------------------------------------|
|
| PM-------------------------------------------------------------
|---------------------------------------------------------------|
|---------------------------------------------------------------|
|---------------------------------------------------------------|
|--------------------------------10-----------------------------|
|-------10-(10)-10-12p==10------------10-10---13---10---12-10---|
|-8-8-8----------------------8----------------------------------|


|----------------------------------------8----------------||
|---------------------------------------------------------||
|-7p5-7p=5---7b8==(7)r--5--7b8==(7)r--5-------------------||
|---------------------------------------------------------||
|----------------------------------------------0----------||
|---------------------------------------------------------||
|
|------------------------------------------------------|
|---------------------------------------------------------||
|---------------------------------------------------------||
|---------------------------------------------------------||
|------------------------------------10-------------------||
|-------10-(10)---10---12p10------------10-10-13-10-12-10-||
|-8-8-8--------------------------8------------------------||


 Outro - Solo
                                                    ~~~~~
|-------------------------|-------------------------------|
|-------------------------|-------------------------------|
|--------------------2b4r=|=(2)----------------4b6r(4)b7--|
|-------------------------|-------------------------------|
|-------------------------|-------------------------------|
|-------------------------|-------------------------------|
|
| PM---------------|         PM--------------|
|-------------------------|-------------------------------|
|-------------------------|-------------------------------|
|-------------------------|--------------------2----------|
|-------2--------2--------|---------2--------2-2----------|
|----------0-1-2----------|------------0-1-2---0----------|
|-0-3-4------------0------|--0--3-4-----------------------|


                     ~~~                          ~~~~~
|-------------------------|-------------------------------|
|-------------------------|-------------------------------|
|--------------------2b4--|------------------4b6r(4)b7----|
|-------------------------|-------------------------------|
|-------------------------|-------------------------------|
|-------------------------|-------------------------------|
|
| PM---------------|        PM-------------|
|-------------------------|-------------------------------|
|-------------------------|-------------------------------|
|-------------------------|------------------2------------|
|-------2--------2--------|-------2--------2-2------------|
|----------0-1-2----------|----------0-1-2---0------------|
|-0-3-4------------0------|-0-3-4-------------------------|


                      ~~~~~~~~~~~~~~~                       ~~~~~~~~~
|----------------------------|--------------------------------------|
|----------------------------|--------------------------------------|
|--------------------14b16===|=(14)r----------------16b18r(16)b19===|
|----------------------------|--------------------------------------|
|----------------------------|--------------------------------------|
|----------------------------|--------------------------------------|
|
| PM---------------|             PM---------------|
|----------------------------|--------------------------------------|
|----------------------------|--------------------------------------|
|----------------------------|-----------------------2--------------|
|-------2--------2-----------|-----------2--------2--2--------------|
|----------0-1-2-------------|--------------0-1-2----0--------------|
|-0-3-4------------0---------|---0---3-4----------------------------|


 ~~~~~~~~                                                        ~~~~~~~
|---------------------------------|---------------------------------------|
|---------------------------------|---------------------------------------|
|-(16)r\------------------14pb16r=|=(14)\----------------16b18r(16)b19----|
|---------------------------------|---------------------------------------|
|---------------------------------|---------------------------------------|
|---------------------------------|---------------------------------------|
|
|   PM------------------|             PM---------------|
|---------------------------------|---------------------------------------|
|---------------------------------|---------------------------------------|
|---------------------------------|-----------------------2---------------|
|------------2--------2-----------|-----------2--------2--2---------------|
|---------------0-1-2-------------|--------------0-1-2----0---------------|
|---0----3-4------------0---------|---0---3-4-----------------------------|


|-12--------------------------------------------------|
|----15p12----15pb17r==(15)p12----15b17----15b17r(15)p|
|------------------------------15---------------------|
|-----------------------------------------------------|
|-----------------------------------------------------|
|-----------------------------------------------------|
|
|  PM-----------------------------|
|-----------------------------------------------------|
|-----------------------------------------------------|
|-----------------------------------------------------|
|----------2-----------------2------------------------|
|--------------0-----1---2----------------------------|
|--0--3--4-------------------------0------------------|
|
| Gtr IV
|-----------------------------------------------------|
|-----------------------------------------------------|
|---------------------------------------7\------------|
|---------------------------------------6\------------|
|---------------------------------------7\------------|
|-----------------------------------------------------|


                                                             ~~~~~
|------------------------------------------|----------12-16-----------12--------------12----------|
|-12-------------------------------14------|-------12-------15b17--------15p12-----------15p14p===|
|----15p14p12-14b15r====(14)-12----14------|-12h14-----------------------------12h13--------------|
|-------------------------------14-14------|------------------------------------------------------|
|------------------------------------------|------------------------------------------------------|
|------------------------------------------|------------------------------------------------------|
|
|  PM------------------------|                PM----------------------------|
|------------------------------------------|------------------------------------------------------|
|------------------------------------------|------------------------------------------------------|
|-----------------------------------2------|------------------------------------------------------|
|-----------2-----------------2-----2------|-----------2---------------2--------------------------|
|-------------------0-1---2---------0------|-----------------0----1-2-----------------------------|
|--0--3--4---------------------------------|--0--3--4------------------------0--------------------|
|
|------------------------------------------|------------------------------------------------------|
|------------------------------------------|------------------------------------------------------|
|-------------------------------------12\--|---------------------------------------7\-------------|
|-------------------------------------11\--|---------------------------------------6\-------------|
|-------------------------------------12\--|---------------------------------------7\-------------|
|------------------------------------------|------------------------------------------------------|


                                                                                            ~~~
|-------------------------------------------------|-------12-15b17==(15)-------(15)r-15b17-15---|
|-12-------12-----------------------------14------|---------------------------------------------|
|----14b15----14b15r(14)p12------14----12-14------|-12h14---------------------------------------|
|-----------------------------14----14----14------|---------------------------------------------|
|-------------------------------------------------|---------------------------------------------|
|-------------------------------------------------|---------------------------------------------|
|
|  PM----------------------------------|             PM------------------------------|
|-------------------------------------------------|---------------------------------------------|
|-------------------------------------------------|---------------------------------------------|
|------------------------------------------2------|---------------------------------------------|
|--------------2------------------------2--2------|-----------2------------------2--------------|
|---------------------------0-----1--2-----0------|----------------------0-1-2------------------|
|--0--3-----4-------------------------------------|--0--3--4--------------------------0---------|
|
|-------------------------------------------------|---------------------------------------------|
|-------------------------------------------------|---------------------------------------------|
|-----------------------------------------12-12\--|-----------------------------------------7\--|
|-----------------------------------------11-11\--|-----------------------------------------6\--|
|-----------------------------------------12-12\--|-----------------------------------------7\--|
|-------------------------------------------------|---------------------------------------------|


                                           ~~~~~~
|-12-------15-17-17-17pb18-17pb19r(17)p15-15b17r====(15)\-|
|----15s17------------------------------------------------|
|---------------------------------------------------------|
|---------------------------------------------------------|
|---------------------------------------------------------|
|---------------------------------------------------------|
|
|  PM-----------------------------|
|---------------------------------------------------------|
|---------------------------------------------------------|
|------------------------------------------2--------------|
|-----------2-----------------------2------2--------------|
|-----------------0--1------2--------------0--------------|
|--0--3--4------------------------------------------------|
|
|---------------------------------------------------------|
|---------------------------------------------------------|
|-----------------------------------------12----12\-------|
|-----------------------------------------11----11\-------|
|-----------------------------------------12----12\-------|
|---------------------------------------------------------|


|-----12-------------------------------------------------|
|--------15p12-------------------------------------------|
|-/13----------15p14p12-14b16r(14)p12----12--------------|
|-------------------------------------14----14p=12-------|
|--------------------------------------------------14-13-|
|--------------------------------------------------------|
|
|   PM--------------------------------|
|--------------------------------------------------------|
|--------------------------------------------------------|
|--------------------------------------------------------|
|------------2------------------2------------------------|
|------------------0--1--2-------------------------------|
|---0--3--4----------------------------0-----------------|
|
|--------------------------------------------------------|
|--------------------------------------------------------|
|--------------------------------------------7\----------|
|--------------------------------------------6\----------|
|--------------------------------------------7\----------|
|--------------------------------------------------------|


|------------------------------------------------------|-------------------------------------------------|
|------------------------------------------------------|-------------------------------------------------|
|------------------------------------12b14======(12)r\-|-2b4r====(2)p0-----2-2b4==(2)r(2)p0-------2b4====|
|------------------------------------------------------|---------------2--------------------2--2---------|
|-12-11h12p11----12------11h12-11----------------------|-------------------------------------------------|
|-------------12----(12)----------12-------------------|-------------------------------------------------|
|
|  PM--------------------------|                         PM---------------------------|
|------------------------------------------------------|-------------------------------------------------|
|------------------------------------------------------|-------------------------------------------------|
|-------------------------------------2----------------|-------------------------------------------------|
|--------------2----------------2-----2----------------|----------2----------2---------------------------|
|---------------------0---1--2--------0----------------|---------------0-1-2-----------------------------|
|--0--3-----4------------------------------------------|-0---3-4-----------------------0-----------------|
|
|------------------------------------------------------|-------------------------------------------------|
|------------------------------------------------------|-------------------------------------------------|
|------------------------------------12-----12\--------|------------------------------------7\-----------|
|------------------------------------11-----11\--------|------------------------------------6\-----------|
|------------------------------------12-----12\--------|------------------------------------7\-----------|
|------------------------------------------------------|-------------------------------------------------|


|-----------------------------------|
|-----------------------------------|
|-2r(2)p0---0-2---2b4r(2)p0--2------|
|---------2------------------2------|
|----------------------------0------|
|-----------------------------------|
|
| PM------------------|
|-----------------------------------|
|-----------------------------------|
|----------------------------2------|
|---------2------------2-----2------|
|-------------0-1-2----------0------|
|-0--3--4---------------------------|
|
|-----------------------------------|
|-----------------------------------|
|---------------------------12-12\--|
|---------------------------11-11\--|
|---------------------------12-12\--|
|-----------------------------------|


|----0-------0-------------------------------|
|-/3---0-3s5---0-3b4p0-0-3b4---0-3p=0-0-3b4--|
|--------------------------------------------|
|--------------------------------------------|
|--------------------------------------------|
|--------------------------------------------|
|
|  PM------------------------|
|--------------------------------------------|
|--------------------------------------------|
|--------------------------------------------|
|----------2-----------2---------------------|
|--------------0-1---2-----------------------|
|--0-3-4---------------------0---------------|
|
|--------------------------------------------|
|--------------------------------------------|
|--------------------------------7\----------|
|--------------------------------6\----------|
|--------------------------------7\----------|
|--------------------------------------------|


|---0-------------------------------|
|-0-0-3p0-0-3b5r==(3)p0-------------|
|-----------------------2-0--2------|
|----------------------------2------|
|----------------------------0------|
|-----------------------------------|
|
| PM--------------------|
|-----------------------------------|
|-----------------------------------|
|----------------------------2------|
|-------2---------------2----2------|
|-----------0---1--2---------0------|
|-0-3-4-----------------------------|
|
|-----------------------------------|
|-----------------------------------|
|---------------------------12-12\--|
|---------------------------11-11\--|
|---------------------------12-12\--|
|-----------------------------------|


|--------------------------------------------|-----------------------------------|
|--------------------------------------------|-----------------------------------|
|-2b4r(2)p==0------2b4r==(2)p0---------------|------------------------2-----2/---|
|-------------2----------------2-2-(2)-0h2p0-|-----------------2-0-2--2----------|
|--------------------------------------------|-2p1p0------------------0----------|
|--------------------------------------------|-------3b4-(3)-0-------------------|
|
| PM-----------------------------|             PM------------------|
|--------------------------------------------|-----------------------------------|
|--------------------------------------------|-----------------------------------|
|--------------------------------------------|------------------------2----------|
|---------------2--------------2-------------|-------2-------------2--2----------|
|------------------0---1--2------------------|---------------0-1-2----0----------|
|-0-------3---4------------------0-----------|-0-3-4-----------------------------|
|
|--------------------------------------------|-----------------------------------|
|--------------------------------------------|-----------------------------------|
|-----------------------------------7\-------|-----------------------12-12\------|
|-----------------------------------6\-------|-----------------------11-11\------|
|-----------------------------------7\-------|-----------------------12-12\------|
|--------------------------------------------|-----------------------------------|


      ~~~~~~~~~~~                                                      ~~~~~
|---------------------------------------|------------------------------------|
|-12-------------12------12------12-----|-12--------12--------15b17---15b17--|
|----12-----(12)----12------12-------12-|----12--------12--------------------|
|---------------------------------------|------------------------------------|
|---------------------------------------|------------------------------------|
|---------------------------------------|------------------------------------|
|
|  PM--------------------------|           PM-----------------|
|---------------------------------------|------------------------------------|
|---------------------------------------|------------------------------------|
|---------------------------------------|---------------------------2--------|
|---------2---------------2-------------|---------2------------2----2--------|
|-----------------0--1-2----------------|---------------0-1-2-------0--------|
|--0--3-4----------------------0--------|--0--3-4----------------------------|
|
|---------------------------------------|------------------------------------|
|---------------------------------------|------------------------------------|
|---------------------------------7\----|-----------------------------12\----|
|---------------------------------6\----|-----------------------------11\----|
|---------------------------------7\----|-----------------------------12\----|
|---------------------------------------|------------------------------------|


|---------------------------------------------*|
|-12-------12----15b17r====(15)-12------------*|
|----14b16----12-------------------14b16------*|
|---------------------------------------------*|
|---------------------------------------------*|
|---------------------------------------------*|
|
|  PM------------------------------------|
|---------------------------------------------*|
|---------------------------------------------*|
|---------------------------------------------*|
|--------------2-----------------2------------*|
|----------------------0-1---2----------------*|
|--0--3-----4----------------------------0----*|
|
|---------------------------------------------*|
|---------------------------------------------*|
|---------------------------------------------*|
|---------------------------------------------*|
|---------------------------------------------*|
|---------------------------------------------*|


Tablature Legend
----------------
 h   - hammer-on
 p   - pull-off
 b   - bend
 pb  - pre-bend
 r   - bend release (if no number after the r, then release immediately)
 /\  - slide into or out of (from/to "nowhere")
 s   - legato slide
 S   - shift slide
<n>  - natural harmonic
[n]  - artificial harmonic
n(n) - tapped harmonic
 ~   - vibrato
 tr  - trill
 T   - tap
 TP  - trem. picking
 PM  - palm muting
\n/  - tremolo bar dip; n = amount to dip
 \n  - tremolo bar down
 n/  - tremolo bar up
/n\  - tremolo bar inverted dip
 =   - hold bend; also acts as connecting device for hammers/pulls
 <>  - volume swell (louder/softer)
 x   - on rhythm slash represents muted slash
 o   - on rhythm slash represents single note slash

Misc Legend
-----------
 |  - bar
||  - double bar
||o - repeat start
o|| - repeat end
*|  - double bar (ending)
 :  - bar (freetime)
 $  - Segno
 &  - Coda
Tempo markers - <E/E./Q/Q./H/H.> = BPM(8/16=s8/s16), where s8 = swing 8ths, s16 = swing 16ths


***************************************************************************************
* Generated using Power Tab Editor by Brad Larsen - http://powertab.guitarnetwork.org *
***************************************************************************************
comments
print report bad tab
2 comments total.
0 reply
XhooperX wrote on May 16 2007, 09:39 pm

THIS IS PERFECT KID!

0 reply
hardfingers wrote on March 26 2009, 08:14 am

This is very hard to read, even though it might be 'perfect'.

I want to post or [tab]
guest
You may want to rate the tab now too:
select rating
Please do not post tabs as comments. Select "correction" instead!