Oops, an error
Loading. Please wait.

You See Me Crying Tab

ver1
ver1

Solo

Whole song

Interactive

More versions @911Tabs.com
8,143 views 9 this week
no commentswrite comment
1 2 3 4 5
excellent!
x 2
Autoscroll
+/-
esc
set tempo
stop
Hey! There's an official Ultimate Guitar app which is ideal
for learning songs when you're away from computer. Get the app
WARNING: You are trying to view
                                    content from Ultimate-Guitar.com
                                    in an unauthorized application,
                                    which is prohibited.

                                    Please use an official Ultimate
                                    Guitar Tabs application for iPhone,
                                    iPad or Android to access legitimate
                                    chords, guitar, bass, and drum tabs
                                    from Ultimate-Guitar.com database.

                                    Type "ultimate guitar tabs" in Apple
                                    App Store's or Android Market's
                                    search to find the application.
Song: You See Me Crying
Band: Aerosmith
Album: Toys In The Attic
Transcribed by: ulisses 



Guitar 1:


     W                   W                   W                 
E||-------------------|-------------------|-------------------|
B||-------------------|-------------------|-------------------|
G||-------------------|-------------------|-------------------|
D||-------------------|-------------------|-------------------|
A||-------------------|-------------------|-------------------|
E||-------------------|-------------------|-------------------|


  H        S S S S S S S S    H        H           H        S S S S S S S S  
---------------------------|--------------------|---------------------------|
---------------------------|--------------------|---------------------------|
---------------------0-1-2-|--------------------|---------------------0-1-2-|
-------------0-2-3-4-------|--------------------|-------------0-2-3-4-------|
---------------------------|--0-----------------|--3--------L---------------|
---------------------------|-----------1--------|---------------------------|


  H        H           W                   Q    E  E  E  E  E  E   
--------------------|-------------------|-------------------------|
--------------------|-------------------|--3----3-----6--5--3--5--|
--------------------|-------------------|--5----5-----5--5--5--5--|
--------------------|-------------------|-------------------------|
--0-----------------|--3----------------|-------------------------|
-----------1--------|-------------------|-------------------------|


  H        E  E  E  E     E  E  E  E  E  E  E  E     E  E  E  E  E  E  E  E   
-----------------0-----|-----------3-----------3--|--------0--5--------3--1--|
--L--------5-----------|-----0--3-----3--0--------|-----1-----------3-----1--|
--L--------5--4--2--0--|--0-----------------0-----|--2-----------0--------2--|
-----------------------|--------------------------|-----------------------3--|
-----------------------|--------------------------|--------------------------|
-----------------------|--------------------------|--------------------------|


  H        E  E  E  E     H        E  E  E  E     E  E  E  E  E  E  E  E   
--L--------1--0-----0--|--L--------0--0--0-----|-----------3--------------|
--L--------1--1--3--1--|--L--------1--0--------|-----0--3-----------------|
--L--------------5-----|-----------------2--0--|--0--------------------1--|
--L--------------------|-----------------------|--------------------2-----|
-----------------------|-----------------------|-----------------2--------|
-----------------------|-----------------------|--------------4-----------|


  E  E  E  E  E  E  E  E     H        E  E  E  E     Q    Q.     E  E  E   
--------0--5--------3--1--|--L--------1--0--------|--------------------1--|
-----1-----------3-----1--|--L--------1--1--3--1--|--L-----------1-----1--|
--2-----------0--------2--|--L--------------5--0--|--L-----------0--------|
-----------------------3--|--L--------------------|--------------------3--|
--------------------------|--------------------3--|--L----3------3--------|
--------------------------|-----------------------|-----------------------|


  H        Q    E  E     H        E  E  E  E     H        H         
--L--------1----1-----|-----------------------|--------------------|
--L--------1----1-----|--------------------4--|--L--------3--------|
----------------------|--3--------3--3-----3--|--L--------2--------|
--L--------3----3-----|--3--------3--3-----1--|--L--------0--------|
----------------------|--1--------1--1--------|--------------------|
----------------------|-----------------------|--------------------|


  H        E  E  E  E     H        Q    E  E     H        E  E  E  E   
--------------------1--|--L--------1----1-----|-----------------------|
--1--------1--1-----1--|--L--------1----1-----|--------------------4--|
--0--------0--0--------|----------------------|--3--------3--3-----3--|
--------------------3--|--L--------3----3-----|--3--------3--3-----1--|
--3--------3--3--------|----------------------|--1--------1--1--------|
-----------------------|----------------------|-----------------------|


  H        E  E  E  E     E  E  Q    E  E  Q       E  E  E  E   
-----------------------|------------------------|--1--0-----0--|
--L--------------3-----|------------------------|--1--1--3--1--|
--L--------2-----2-----|--------0----------0----|--------5-----|
--L--------0--0--0-----|------------------------|--------------|
-----------------------|------------------------|--------------|
-----------------------|--3--3-------3--3-------|--------------|


  H        E  E  E  E     E  E  E  E  E  E  E  E     E  E  E  E  E  E  E  E   
--L--------0-----0-----|-----------3-----------3--|--------0--5--------3--1--|
--L--------1--0--------|-----0--3-----3--0--------|-----1-----------3-----1--|
-----------------2--0--|--0-----------------0-----|--2-----------0--------2--|
-----------------------|--------------------------|-----------------------3--|
-----------------------|--------------------------|--------------------------|
-----------------------|--------------------------|--------------------------|


  H        E  E  E  E     H        E  E  E  E     E  E  E  E  E  E  E  E   
--L--------1--0-----0--|--L--------0--0--0-----|-----------3--------------|
--L--------1--1--3--1--|--L--------1--0--------|-----0--3-----------------|
--L--------------5-----|-----------------2--0--|--0--------------------1--|
--L--------------------|-----------------------|--------------------2-----|
-----------------------|-----------------------|-----------------2--------|
-----------------------|-----------------------|--------------4-----------|


  E  E  E  E  E  E  E  E     H        E  E  E  E     Q    Q.     E  E  E   
--------0--5--------3--1--|--L--------1--0--------|--------------------1--|
-----1-----------3-----1--|--L--------1--1--3--1--|--L-----------1-----1--|
--2-----------0--------2--|--L--------------5--0--|--L-----------0--------|
-----------------------3--|--L--------------------|--------------------3--|
--------------------------|--------------------3--|--L----3------3--------|
--------------------------|-----------------------|-----------------------|


  H        Q    E  E     H        E  E  E  E     H        H         
--L--------1----1-----|-----------------------|--------------------|
--L--------1----1-----|--------------------4--|--L--------3--------|
----------------------|--3--------3--3-----3--|--L--------2--------|
--L--------3----3-----|--3--------3--3-----1--|--L--------0--------|
----------------------|--1--------1--1--------|--------------------|
----------------------|-----------------------|--------------------|


  H        E  E  E  E     H        Q    E  E     H        E  E  E  E   
--------------------1--|--L--------1----1-----|-----------------------|
--1--------1--1-----1--|--L--------1----1-----|--------------------4--|
--0--------0--0--------|----------------------|--3--------3--3-----3--|
--------------------3--|--L--------3----3-----|--3--------3--3-----1--|
--3--------3--3--------|----------------------|--1--------1--1--------|
-----------------------|----------------------|-----------------------|


  Q    Q    Q    Q       E  E  Q    E  E  Q       E  E  Q    E  E  Q     
-------3--------------|------------------------|------------------------|
--L----4----3----3----|------------------------|------------------------|
--L----3----2----2----|--------0----------0----|--------0----------0----|
--L---------0----0----|------------------------|------------------------|
----------------------|------------------------|------------------------|
----------------------|--3--3-------3--3-------|--3--3-------3--3-------|


  E  E  Q    E  E  Q       E  E  E  E     H        E  E  E  E   
------------------------|--1--0-----0--|--L--------0--0--0-----|
------------------------|--1--1--3--1--|--L--------1--0--------|
--------0----------0----|--------5-----|-----------------2--0--|
------------------------|--------------|-----------------------|
------------------------|--------------|-----------------------|
--3--3-------3--3-------|--------------|-----------------------|


  E  E  E  E  E  E  E  E     E  E  E  E  E  E  E  E     H        E  E  E  E   
-----------3--------------|--------0--5--------3--1--|--L--------1--0-----0--|
-----0--3-----------------|-----1-----------3-----1--|--L--------1--1--3--1--|
--0--------------------1--|--2-----------0--------2--|--L--------------5--0--|
--------------------2-----|-----------------------3--|--L--------------------|
-----------------2--------|--------------------------|--------------------3--|
--------------4-----------|--------------------------|-----------------------|


  Q    Q    Q    Q       H        H            H        E  E  E   E   
--L----1----3----5----|--7--------0--------|---8--------7--7---------|
--L----3----5----6----|--8-----------------|--10--------8--8-----10--|
--L----2----4----5----|--7-----------------|---9--------7--7-----10--|
-------0----2----3----|--5--------6--------|---7--------5--5-----10--|
--L-------------------|--------------------|----------------------8--|
----------------------|--------------------|-------------------------|


  H        E  E  E  E     H        E  E  E   E     H        E  E  E  E   
-----------------------|------------------------|-----------------------|
--L--------8--8-----6--|--L--------8--8-----10--|--L--------8--8-----6--|
--L--------9--9-----7--|--L--------9--9-----10--|--L--------9--9-----7--|
--L--------9--9-----7--|--L--------9--9-----10--|--L--------9--9-----7--|
--L--------7--7-----5--|--L--------7--7------8--|--L--------7--7-----5--|
-----------------------|------------------------|-----------------------|


  H        E  E  E   E     H        E  E  E  E     E  E  E  E  E  E  E  E   
------------------------|-----------------------|--------------------------|
--L--------8--8-----10--|--L--------8--8--------|-----------------------0--|
--L--------9--9-----10--|--L--------9--9--------|--------------0--2--3-----|
--L--------9--9-----10--|--L--------9--9-----0--|--L-----3--4--------------|
--L--------7--7------8--|--L--------7--7--------|-----7--------------------|
------------------------|-----------------------|--------------------------|


  E  E  E   H        E     Q    H.              Q.      H        E   
-----------11--------L--|--L-----------------|---------11--------L--|
--1--1-----11--------L--|--L-----------------|---------11--------L--|
-----------10--------L--|--L-----------------|---------10--------L--|
------------------------|--------------------|----------------------|
------------------------|--------------------|----------------------|
------------------------|--------------------|----------------------|


  Q    H.              Q.      H        E     E  Q    E   
--L-----------------|---------11--------L--|--L----------|
--L-----------------|---------11--------L--|--L----------|
--L-----------------|----------------------|-------------|
--------------------|----------------------|-------------|
--------------------|----------------------|-------------|
--------------------|----------------------|----------3--|


  E  E  Q    E  E  Q       E  E  Q    E  E  Q       E  E  Q    E  E  Q     
------------------------|------------------------|------------------------|
------------------------|------------------------|------------------------|
--------0----------0----|--------0----------0----|--------0----------0----|
------------------------|------------------------|------------------------|
------------------------|------------------------|------------------------|
--L--3-------3--3-------|--3--3-------3--3-------|--3--3-------3--3-------|


  E  E  Q    E  E  Q       E  E  Q    E  E  Q       E  E  Q    E  E  Q     
------------------------|------------------------|------------------------|
------------------------|------------------------|------------------------|
--------0----------0----|--------0----------0----|--------0----------0----|
------------------------|------------------------|------------------------|
------------------------|------------------------|------------------------|
--3--3-------3--3-------|--3--3-------3--3-------|--3--3-------3--3-------|


  E  E  Q    E  E  Q       E  E  E  E     H        E  E  E  E   
------------------------|--------------|-----------0--0--0-----|
------------------------|--------------|-----------1--0--------|
--------0----------0----|--------------|-----------------2--0--|
------------------------|--------------|-----------------------|
------------------------|-----0--2--3--|--L--------------------|
--3--3-------3--3-------|--3-----------|-----------------------|


  E  E  E  E  E  E  E  E     E  E  E  E  E  E  E  E     H        E  E  E  E   
-----------3--------------|--------0--5--------3--1--|--L--------1--0-----0--|
-----0--3-----------------|-----1-----------3-----1--|--L--------1--1--3--1--|
--0--------------------1--|--2-----------0--------2--|--L--------------5-----|
--------------------2-----|-----------------------3--|--L--------------------|
-----------------2--------|--------------------------|-----------------------|
--------------4-----------|--------------------------|-----------------------|


  H        E  E  E  E     E  E  E  E  E  E  E  E     E  E  E  E  E  E  E  E   
--L--------0--0--0-----|-----------3--------------|--------0--5--------3--1--|
--L--------1--0--------|-----0--3-----------------|-----1-----------3-----1--|
-----------------2--0--|--0--------------------1--|--2-----------0--------2--|
-----------------------|--------------------2-----|-----------------------3--|
-----------------------|-----------------2--------|--------------------------|
-----------------------|--------------4-----------|--------------------------|


  H        E  E  E  E     Q    Q    E  Q    E     H        Q    E  E   
--L--------1--0--------|--------------------1--|--L--------1----1-----|
--L--------1--1--3--1--|--L---------1-------1--|--L--------1----1-----|
--L--------------5--0--|--L---------0----------|----------------------|
--L--------------------|--------------------3--|--L--------3----3-----|
--------------------3--|--L----3---------------|----------------------|
-----------------------|-----------------------|----------------------|


  H        E  E  E  E     H        H           H        E  E  E  E   
-----------------------|--------------------|--------------------1--|
--------------------4--|--L--------3--------|--1--------1--1-----1--|
--3--------3--3-----3--|--L--------2--------|--0--------0--0--------|
--3--------3--3-----1--|--L--------0--------|--------------------3--|
--1--------1--1--------|--------------------|--3--------3--3--------|
-----------------------|--------------------|-----------------------|


  H        Q    E  E     H        E  E  E  E     H        H         
--L--------1----1-----|-----------------------|--------------------|
--L--------1----1-----|--------------------4--|--L--------3--------|
----------------------|--3--------3--3-----3--|--L--------2--------|
--L--------3----3-----|--3--------3--3-----1--|--L--------0--------|
----------------------|--1--------1--1--------|--------------------|
----------------------|-----------------------|--------------------|


  E  E  Q    E  E  Q       Q    E  E  Q    E  E     Q    E  E  Q    E  E   
------------------------|------------------------|------------------------|
------------------------|------------------------|------------------------|
--------0----------0----|-------0----------0-----|-------0----------0-----|
------------------------|------------------------|------------------------|
------------------------|------------------------|------------------------|
--3--3-------3--3-------|-------3--3-------3--3--|-------3--3-------3--3--|


  Q    E  E  Q    E  E     Q    E  E  Q    E  E     Q    E  E  Q    E  E   
------------------------|------------------------|------------------------|
------------------------|------------------------|------------------------|
-------0----------0-----|-------0----------0-----|-------0----------0-----|
------------------------|------------------------|------------------------|
------------------------|------------------------|------------------------|
-------3--3-------3--3--|-------3--3-------3--3--|-------3--3-------3--3--|


  Q    E  E  Q    E  E     E  E  E  E     W                   W                 
------------------------|--------------|-------------------|-------------------|
------------------------|--------------|-------------------|-------------------|
-------0----------0-----|--------------|-------------------|-------------------|
------------------------|--------------|-------------------|-------------------|
------------------------|-----0--2--3--|--L----------------|-------------------|
-------3--3-------3--3--|--3-----------|-------------------|-------------------|


  H        S S S S S S S S    H        H           H        S S S S S S S S  
---------------------------|--------------------|---------------------------|
---------------------------|--------------------|---------------------------|
---------------------0-1-2-|--------------------|---------------------0-1-2-|
-------------0-2-3-4-------|--------------------|-------------0-2-3-4-------|
---------------------------|--0-----------------|--3--------L---------------|
---------------------------|-----------1--------|---------------------------|


  H        H           H        S S S S S S S S    H        H         
--------------------|---------------------------|--------------------|
--------------------|---------------------------|--------------------|
--------------------|---------------------0-1-2-|--------------------|
--------------------|-------------0-2-3-4-------|--------------------|
--0-----------------|--3--------L---------------|--0-----------------|
-----------1--------|---------------------------|-----------1--------|


  W                   W                  
-------------------|-------------------||
-------------------|-------------------||
-------------------|-------------------||
-------------------|-------------------||
--3----------------|--L----------------||
-------------------|-------------------||










Guitar 2:



     W                   W                   W                 
E||-------------------|-------------------|-------------------|
B||-------------------|-------------------|-------------------|
G||-------------------|-------------------|-------------------|
D||-------------------|-------------------|-------------------|
A||-------------------|-------------------|-------------------|
E||-------------------|-------------------|-------------------|


  W                   W                   W                   W                 
-------------------|-------------------|-------------------|-------------------|
-------------------|-------------------|-------------------|-------------------|
-------------------|-------------------|-------------------|-------------------|
-------------------|-------------------|-------------------|-------------------|
-------------------|-------------------|-------------------|-------------------|
-------------------|-------------------|-------------------|-------------------|


  W                   W                   W                   W                 
-------------------|-------------------|-------------------|-------------------|
-------------------|-------------------|-------------------|-------------------|
-------------------|-------------------|-------------------|-------------------|
-------------------|-------------------|-------------------|-------------------|
-------------------|-------------------|-------------------|-------------------|
-------------------|-------------------|-------------------|-------------------|


  W                   W                   W                   W                 
-------------------|-------------------|-------------------|-------------------|
-------------------|-------------------|-------------------|-------------------|
-------------------|-------------------|-------------------|-------------------|
-------------------|-------------------|-------------------|-------------------|
-------------------|-------------------|-------------------|-------------------|
-------------------|-------------------|-------------------|-------------------|


  W                   W                   W                   W                 
-------------------|-------------------|-------------------|-------------------|
-------------------|-------------------|-------------------|-------------------|
-------------------|-------------------|-------------------|-------------------|
-------------------|-------------------|-------------------|-------------------|
-------------------|-------------------|-------------------|-------------------|
-------------------|-------------------|-------------------|-------------------|


  W                   W                   W                   W                 
-------------------|-------------------|-------------------|-------------------|
-------------------|-------------------|-------------------|-------------------|
-------------------|-------------------|-------------------|-------------------|
-------------------|-------------------|-------------------|-------------------|
-------------------|-------------------|-------------------|-------------------|
-------------------|-------------------|-------------------|-------------------|


  W                   W                   W                   H         
-------------------|-------------------|-------------------|-----------|
-------------------|-------------------|-------------------|-----------|
-------------------|-------------------|-------------------|-----------|
-------------------|-------------------|-------------------|-----------|
-------------------|-------------------|-------------------|-----------|
-------------------|-------------------|-------------------|-----------|


  W                   W                   W                   W                 
-------------------|-------------------|-------------------|-------------------|
-------------------|-------------------|-------------------|-------------------|
-------------------|-------------------|-------------------|-------------------|
-------------------|-------------------|-------------------|-------------------|
-------------------|-------------------|-------------------|-------------------|
-------------------|-------------------|-------------------|-------------------|


  W                   W                   W                   W                 
-------------------|-------------------|-------------------|-------------------|
-------------------|-------------------|-------------------|-------------------|
-------------------|-------------------|-------------------|-------------------|
-------------------|-------------------|-------------------|-------------------|
-------------------|-------------------|-------------------|-------------------|
-------------------|-------------------|-------------------|-------------------|


  W                   W                   W                   W                 
-------------------|-------------------|-------------------|-------------------|
-------------------|-------------------|-------------------|-------------------|
-------------------|-------------------|-------------------|-------------------|
-------------------|-------------------|-------------------|-------------------|
-------------------|-------------------|-------------------|-------------------|
-------------------|-------------------|-------------------|-------------------|


  W                   W                   W                   W                 
-------------------|-------------------|-------------------|-------------------|
-------------------|-------------------|-------------------|-------------------|
-------------------|-------------------|-------------------|-------------------|
-------------------|-------------------|-------------------|-------------------|
-------------------|-------------------|-------------------|-------------------|
-------------------|-------------------|-------------------|-------------------|


  W                   W                   W                   H         
-------------------|-------------------|-------------------|-----------|
-------------------|-------------------|-------------------|-----------|
-------------------|-------------------|-------------------|-----------|
-------------------|-------------------|-------------------|-----------|
-------------------|-------------------|-------------------|-----------|
-------------------|-------------------|-------------------|-----------|


  W                   W                   W                   W                 
-------------------|-------------------|-------------------|-------------------|
-------------------|-------------------|-------------------|-------------------|
-------------------|-------------------|-------------------|-------------------|
-------------------|-------------------|-------------------|-------------------|
-------------------|-------------------|-------------------|-------------------|
-------------------|-------------------|-------------------|-------------------|


  W                   W                   W                   W                 
-------------------|-------------------|-------------------|-------------------|
-------------------|-------------------|-------------------|-------------------|
-------------------|-------------------|-------------------|-------------------|
-------------------|-------------------|-------------------|-------------------|
-------------------|-------------------|-------------------|-------------------|
-------------------|-------------------|-------------------|-------------------|


  W                   W                   W                   W                 
-------------------|-------------------|-------------------|-------------------|
-------------------|-------------------|-------------------|-------------------|
-------------------|-------------------|-------------------|-------------------|
-------------------|-------------------|-------------------|-------------------|
-------------------|-------------------|-------------------|-------------------|
-------------------|-------------------|-------------------|-------------------|


  W                   Q.     H        E     H        H         
-------------------|---------8--------L--|--L-----------------|
-------------------|---------------------|--------------------|
-------------------|---------------------|--------------------|
-------------------|---------------------|--------------------|
-------------------|---------------------|--------------------|
-------------------|---------------------|--------------------|


  Q.     H        E     H        H           Q.      H        E   
---------8--------L--|--L-----------------|---------11--------L--|
---------------------|--------------------|----------------------|
---------------------|--------------------|----------------------|
---------------------|--------------------|----------------------|
---------------------|--------------------|----------------------|
---------------------|--------------------|----------------------|


  Q     E  E     Q    E  E   Q     E  E      Q.      Q.     S  E.   
--L----10-----|-------6--8--10----10--8--|--10------13-------------|
-----------8--|--L-----------------------|--------------------13---|
--------------|--------------------------|-------------------------|
--------------|--------------------------|-------------------------|
--------------|--------------------------|-------------------------|
--------------|--------------------------|-------------------------|


   E   Q.      Q     Q        H         E   S  S S  S E   
--------------------------|------------------------------|
--11----------------------|------------------------------|
------12------------------|------------10--10-10---------|
--------------12----12----|--12--------------------10-8--|
--------------------------|------------------------------|
--------------------------|------------------------------|


  Q.     E   E  E  E  S S    S S S S S S S S S S S S Q     
---------6--10--6--8--6---|--8----------------------------|
--8---------------------6-|----8-6-----------1-0----------|
--------------------------|--------7-6-5-3-0-----0--------|
--------------------------|------------------------3-3----|
--------------------------|-------------------------------|
--------------------------|-------------------------------|


                        |-3-|                                         
  E  E  S S E  E  E  E  S S S    E  E  E  E     H        E  E  E  E   
---------------------3--1-----|--------------|-----------0-----------|
---------------3--3-------3-0-|--3--1-----1--|--L-----------3--1--3--|
----------0-3-----------------|--------3-----|-----------------------|
--L--0--3---------------------|--------------|-----------------------|
------------------------------|--------------|-----------------------|
------------------------------|--------------|-----------------------|


  H        Q    E  E     H        E  E  E  E     E  E  Q    Q.     E   
----------------0-----|-----------0-----------|--0--------------------|
--L--------3-------3--|--1-----------3--1--3--|--------1--------------|
----------------------|-----------------------|-----2-------0---------|
----------------------|-----------------------|-----------------------|
----------------------|-----------------------|--------------------3--|
----------------------|-----------------------|-----------------------|


  Q.     E  E  E  E  E     H        H           Q    S S E  E  E  E  E   
------------0--1--2--2--|--3--------4--------|--5------3-0--5--3--5--8--|
------------------------|--------------------|--5----L------------------|
------------------------|--------------------|--------------------------|
---------2--------------|--------------------|--------------------------|
--L---------------------|--------------------|--------------------------|
------------------------|--------------------|--------------------------|


  H         E   E  E   E     W                   W                 
--L--------12--10--8--15--|--L----------------|-------------------|
--------------------------|-------------------|-------------------|
--------------------------|-------------------|-------------------|
--------------------------|-------------------|-------------------|
--------------------------|-------------------|-------------------|
--------------------------|-------------------|-------------------|


  W                   W                   W                   W                 
-------------------|-------------------|-------------------|-------------------|
-------------------|-------------------|-------------------|-------------------|
-------------------|-------------------|-------------------|-------------------|
-------------------|-------------------|-------------------|-------------------|
-------------------|-------------------|-------------------|-------------------|
-------------------|-------------------|-------------------|-------------------|


  W                   W                   S E.  E.  S E   S S E  S S  
-------------------|-------------------|--6--------------------------|
-------------------|-------------------|----8---8-------------8--6-8-|
-------------------|-------------------|------------9-9--10-9--------|
-------------------|-------------------|-----------------------------|
-------------------|-------------------|-----------------------------|
-------------------|-------------------|-----------------------------|


  Q    E  S S E  E  E  E     Q    E  S S  S  S  E   S  S  S  S  
-------0----5-6--6--6--6--|--3----3--6-8-10-10-15--15-13-------|
--L-------8---------------|------------------------------15-15-|
--------------------------|------------------------------------|
--------------------------|------------------------------------|
--------------------------|------------------------------------|
--------------------------|------------------------------------|


  S  S  E   S  S  E   E   S  S  E   S  S     Q.      E   E   S  S  E   E   
---------------------13------------------|--15------13------18-17-15--20--|
----13--------13-15------15-13-----13-15-|--------------15----------------|
-------15--15------------------15--------|--------------------------------|
-----------------------------------------|--------------------------------|
-----------------------------------------|--------------------------------|
-----------------------------------------|--------------------------------|


             |--3--|                                                        
   Q     E   S  S  S  S  S  E   E   S  S     Q     E  S  S  E   E   E   E   
--20----18-----17-15-15-13---------------|--------13-----------------------|
------------20-------------15--15--------|--15----------13-11--------------|
-----------------------------------16-14-|---------------------12--10------|
-----------------------------------------|-----------------------------12--|
-----------------------------------------|---------------------------------|
-----------------------------------------|---------------------------------|


   E  E  E  E     W                   W                   W                 
---------------|-------------------|-------------------|-------------------|
---------------|-------------------|-------------------|-------------------|
--10--9--7--9--|--L----------------|-------------------|-------------------|
---------------|-------------------|-------------------|-------------------|
---------------|-------------------|-------------------|-------------------|
---------------|-------------------|-------------------|-------------------|


  W                   W                   W                   W                 
-------------------|-------------------|-------------------|-------------------|
-------------------|-------------------|-------------------|-------------------|
-------------------|-------------------|-------------------|-------------------|
-------------------|-------------------|-------------------|-------------------|
-------------------|-------------------|-------------------|-------------------|
-------------------|-------------------|-------------------|-------------------|


  W                   W                   W                  
-------------------|-------------------|-------------------||
-------------------|-------------------|-------------------||
-------------------|-------------------|-------------------||
-------------------|-------------------|-------------------||
-------------------|-------------------|-------------------||
-------------------|-------------------|-------------------||




Duration Legend
---------------
W - whole
H - half
Q - quarter
E - 8th
S - 16th
T - 32nd
X - 64th
. - note dotted
|-n-|  - n-tuplets


Tablature Legend
----------------
L - tied note
x - dead note
g - grace note
(n) - ghost note
> - accentuded note
NH - natural harmonic
AH - artificial harmonic
TH - tapped harmonic
SH - semi harmonic
PH - pitch harmonic
h - hammer on
p - pull off
b - bend
br - bendRelease
pb - preBend
pbr - preBendRelease
brb - bendReleaseBend
\n/ - tremolo bar dip
\n - tremolo bar dive
-/n - tremolo bar Release up
/n\ - tremolo bar inverted dip
/n - tremolo bar return
-\n - tremolo bar Release down
S - shift slide
s - legato slide
/ -  slide into from below or out of upwards
\ -  slide into from above or out of downwards
~ - vibrato
W - wide vibrato
tr - trill
TP - tremolo picking
T - tapping
S - slap
P - pop
< - fade in
^ - brush up
v - brush down

comments
We did not receive enough feedback on this tab! Please rate:
print report bad tab
1 2 3 4 5
I want to post or [tab]
guest
You may want to rate the tab now too:
select rating
Please do not post tabs as comments. Select "correction" instead!