Oops, an error
Loading. Please wait.

Carcinogen Crush Tab

by Afi
ver2
ver2

Whole song

Interactive

More versions @911Tabs.com
437 views 1 this week
no commentswrite comment
1 2 3 4 5
please rate
Autoscroll
+/-
esc
set tempo
stop
Contributor
Difficulty
intermediate
NEW! There's an official Ultimate Guitar app which is ideal
for learning songs when you're away from computer. Get the app
WARNING: You are trying to view
                                    content from Ultimate-Guitar.com
                                    in an unauthorized application,
                                    which is prohibited.

                                    Please use an official Ultimate
                                    Guitar Tabs application for iPhone,
                                    iPad or Android to access legitimate
                                    chords, guitar, bass, and drum tabs
                                    from Ultimate-Guitar.com database.

                                    Type "ultimate guitar tabs" in Apple
                                    App Store's or Android Market's
                                    search to find the application.
Carcinogen Crush                                                                             AFI
Jade Puget (Guitar 1)
Tune 1/2 Step Down


      E  E  E  Q    Q    E     E  E  E  Q    E  E  E     E  E  E  Q    Q    E   
D#||------------------------|-------------------------|------------------------|
A#||------------------------|-------------------------|------------------------|
F#||--4-------------7----5--|--L--5--5--4----4--4--4--|--4-------------7----5--|
C#||--5--7--7-------7----5--|--L--5--5--5----5--5--5--|--5--7--7-------7----5--|
G#||--5--7--7-------5----3--|--L--3--3--5----5--5--5--|--5--7--7-------5----3--|
D#||--3--5--5-------5----3--|--L--3--3--3----3--3--3--|--3--5--5-------5----3--|


  E  E  E  Q    E  E  E     E  E  E  Q    Q    E     E  E  E  Q    E  E  E   
-------------------------|------------------------|-------------------------|
-------------------------|------------------------|-------------------------|
--L--5--5--4----4--4--4--|--4-------------7----5--|--L--5--5--4----4--4--4--|
--L--5--5--5----5--5--5--|--5--7--7-------7----5--|--L--5--5--5----5--5--5--|
--L--3--3--5----5--5--5--|--5--7--7-------5----3--|--L--3--3--5----5--5--5--|
--L--3--3--3----3--3--3--|--3--5--5-------5----3--|--L--3--3--3----3--3--3--|


                                                     PM PM PM PM PM PM PM PM  
  E  E  E  Q    Q    E     E  E  E  Q    E  E  E     E  E  E  E  E  E  E  E   
------------------------|-------------------------|--------------------------|
------------------------|-------------------------|--------------------------|
--4-------------7----5--|--L--5--5--4----4--4--4--|--9-----9-----9-----9-----|
--5--7--7-------7----5--|--L--5--5--5----5--5--5--|-----7-----7-----7-----7--|
--5--7--7-------5----3--|--L--3--3--5----5--5--5--|--------------------------|
--3--5--5-------5----3--|--L--3--3--3----3--3--3--|--------------------------|


  PM PM PM PM PM PM PM PM    PM  PM PM  PM PM  PM PM  PM  
  E  E  E  E  E  E  E  E     E   E  E   E  E   E  E   E   
--------------------------|------------------------------|
--------------------------|--8------8------8------8------|
--9-----9-----9-----9-----|------------------------------|
-----7-----7-----7-----7--|-----10-----10-----10-----10--|
--------------------------|------------------------------|
--------------------------|------------------------------|


  PM  PM PM  PM PM  PM PM  PM    PM  PM PM  PM PM  PM PM  PM  
  E   E  E   E  E   E  E   E     E   E  E   E  E   E  E   E   
------------------------------|------------------------------|
--8------8------8------8------|------------------------------|
------------------------------|--9------9------9------9------|
-----10-----10-----10-----10--|-----10-----10-----10-----10--|
------------------------------|------------------------------|
------------------------------|------------------------------|


  PM  PM PM  PM PM  PM PM  PM    PM PM PM PM PM PM PM PM  
  E   E  E   E  E   E  E   E     E  E  E  E  E  E  E  E   
------------------------------|--------------------------|
------------------------------|--8-----8-----8-----8-----|
--9------9------9------9------|--------------------------|
-----10-----10-----10-----10--|-----9-----9-----9-----9--|
------------------------------|--------------------------|
------------------------------|--------------------------|


  E  E  E  E  E  E  E  E     E  E  E  E  E  E  E  E   
--------------------------|--------------------------|
--8-----8-----8-----8-----|--------------------------|
--------------------------|--9-----9-----9-----9-----|
-----9-----9-----9-----9--|-----7-----7-----7-----7--|
--------------------------|--------------------------|
--------------------------|--------------------------|


  E  E  E  E  E  E  E  E     E   E  E   E  E   E  E   E   
--------------------------|------------------------------|
--------------------------|--8------8------8------8------|
--9-----9-----9-----9-----|------------------------------|
-----7-----7-----7-----7--|-----10-----10-----10-----10--|
--------------------------|------------------------------|
--------------------------|------------------------------|


  E   E  E   E  E   E  E   E     E   E  E   E  E   E  E   E   
------------------------------|------------------------------|
--8------8------8------8------|------------------------------|
------------------------------|--9------9------9------9------|
-----10-----10-----10-----10--|-----10-----10-----10-----10--|
------------------------------|------------------------------|
------------------------------|------------------------------|


  E   E  E   E  E   E  E   E     E  E  E  E  E  E  E  E   
------------------------------|--------------------------|
------------------------------|--8-----8-----8-----8-----|
--9------9------9------9------|--------------------------|
-----10-----10-----10-----10--|-----9-----9-----9-----9--|
------------------------------|--------------------------|
------------------------------|--------------------------|


  E  E  E  E  E  E  E  E      Q.     Q.      Q       Q.     Q    Q.      
--------------------------|-----------------------|--8-----------8------|
--8-----8-----8-----8-----|--10-------------10----|---------------------|
--------------------------|----------9------------|---------9-----------|
-----9-----9-----9-----9--|-----------------------|---------------------|
--------------------------|-----------------------|---------------------|
--------------------------|-----------------------|---------------------|


  Q.     Q    Q.        Q.     Q    Q.        W                 
--7-----------7------|---------7----8------|--L----------------|
---------8-----------|--5------------------|-------------------|
---------------------|---------------------|-------------------|
---------------------|---------------------|-------------------|
---------------------|---------------------|-------------------|
---------------------|---------------------|-------------------|


  E  E  E  E  E  E  E  E     E  E  E  E  E  E  E  E   
--------------------------|--------------------------|
--------------------------|--------------------------|
--------------------------|--5--5--5--5--5--5--5--5--|
--5--5--5--5--5--5--5--5--|--5--5--5--5--5--5--5--5--|
--5--5--5--5--5--5--5--5--|--5--5--5--5--5--5--5--5--|
--3--3--3--3--3--3--3--3--|--3--3--3--3--3--3--3--3--|


                                 PM PM PM PM PM PM PM PM  
   E   E   E   E  E  E  E  E     E  E  E  E  E  E  E  E   
------------------------------|--------------------------|
------------------------------|--------------------------|
--12--12--12--12--9--9--9--9--|--9-----9-----9-----9-----|
---x---x---x---x--x--x--x--x--|-----7-----7-----7-----7--|
--10--10--10--10--7--7--7--7--|--------------------------|
------------------------------|--------------------------|


  PM PM PM PM PM PM PM PM    PM  PM PM  PM PM  PM PM  PM  
  E  E  E  E  E  E  E  E     E   E  E   E  E   E  E   E   
--------------------------|------------------------------|
--------------------------|--8------8------8------8------|
--9-----9-----9-----9-----|------------------------------|
-----7-----7-----7-----7--|-----10-----10-----10-----10--|
--------------------------|------------------------------|
--------------------------|------------------------------|


  PM  PM PM  PM PM  PM PM  PM    PM  PM PM  PM PM  PM PM  PM  
  E   E  E   E  E   E  E   E     E   E  E   E  E   E  E   E   
------------------------------|------------------------------|
--8------8------8------8------|------------------------------|
------------------------------|--9------9------9------9------|
-----10-----10-----10-----10--|-----10-----10-----10-----10--|
------------------------------|------------------------------|
------------------------------|------------------------------|


  PM  PM PM  PM PM  PM PM  PM    PM PM PM PM PM PM PM PM  
  E   E  E   E  E   E  E   E     E  E  E  E  E  E  E  E   
------------------------------|--------------------------|
------------------------------|--8-----8-----8-----8-----|
--9------9------9------9------|--------------------------|
-----10-----10-----10-----10--|-----9-----9-----9-----9--|
------------------------------|--------------------------|
------------------------------|--------------------------|


  E  E  E  E  E  E  E  E     E  E  E  E  E  E  E  E   
--------------------------|--------------------------|
--8-----8-----8-----8-----|--------------------------|
--------------------------|--9-----9-----9-----9-----|
-----9-----9-----9-----9--|-----7-----7-----7-----7--|
--------------------------|--------------------------|
--------------------------|--------------------------|


  E  E  E  E  E  E  E  E     E   E  E   E  E   E  E   E   
--------------------------|------------------------------|
--------------------------|--8------8------8------8------|
--9-----9-----9-----9-----|------------------------------|
-----7-----7-----7-----7--|-----10-----10-----10-----10--|
--------------------------|------------------------------|
--------------------------|------------------------------|


  E   E  E   E  E   E  E   E     E   E  E   E  E   E  E   E   
------------------------------|------------------------------|
--8------8------8------8------|------------------------------|
------------------------------|--9------9------9------9------|
-----10-----10-----10-----10--|-----10-----10-----10-----10--|
------------------------------|------------------------------|
------------------------------|------------------------------|


  E   E  E   E  E   E  E   E     E  E  E  E  E  E  E  E   
------------------------------|--------------------------|
------------------------------|--8-----8-----8-----8-----|
--9------9------9------9------|--------------------------|
-----10-----10-----10-----10--|-----9-----9-----9-----9--|
------------------------------|--------------------------|
------------------------------|--------------------------|


  E  E  E  E  E  E  E  E      Q.     Q.      Q       Q.     Q    Q.      
--------------------------|-----------------------|--8-----------8------|
--8-----8-----8-----8-----|--10-------------10----|---------------------|
--------------------------|----------9------------|---------9-----------|
-----9-----9-----9-----9--|-----------------------|---------------------|
--------------------------|-----------------------|---------------------|
--------------------------|-----------------------|---------------------|


  Q.     Q    Q.        Q.     Q    Q.        W                 
--7-----------7------|---------7----8------|--L----------------|
---------8-----------|--5------------------|-------------------|
---------------------|---------------------|-------------------|
---------------------|---------------------|-------------------|
---------------------|---------------------|-------------------|
---------------------|---------------------|-------------------|


  E  E  E  E  E  E  E  E     E  E  E  E  E  E  E  E      Q.     Q.      Q     
--------------------------|--------------------------|-----------------------|
--------------------------|--------------------------|--10-------------10----|
--------------------------|--5--5--5--5--5--5--5--5--|----------9------------|
--5--5--5--5--5--5--5--5--|--5--5--5--5--5--5--5--5--|-----------------------|
--5--5--5--5--5--5--5--5--|--5--5--5--5--5--5--5--5--|-----------------------|
--3--3--3--3--3--3--3--3--|--3--3--3--3--3--3--3--3--|-----------------------|


  Q.     Q    Q.        Q.     Q    Q.        Q.     Q    Q.      
--8-----------8------|--7-----------7------|---------7----8------|
---------------------|---------8-----------|--5------------------|
---------9-----------|---------------------|---------------------|
---------------------|---------------------|---------------------|
---------------------|---------------------|---------------------|
---------------------|---------------------|---------------------|


  W                   Q    E  E  E  E  E  E     E  E  E  E  E  E  E  E   
--L----------------|-------------------------|--------------------------|
-------------------|-------------------------|--------------------------|
-------------------|-------------------5--5--|--5--5--5--5--5--5--5--5--|
-------------------|-------------3--3--------|--5--5--5--5--5--5--5--5--|
-------------------|-------3--3--------------|--5--5--5--5--5--5--5--5--|
-------------------|-------------------------|--3--3--3--3--3--3--3--3--|


                                 PM PM PM PM PM PM PM PM  
   E   E   E   E  E  E  E  E     E  E  E  E  E  E  E  E   
------------------------------|--------------------------|
------------------------------|--------------5--5--5--5--|
--12--12--12--12--9--9--9--9--|--------------5--5--5--5--|
---x---x---x---x--x--x--x--x--|--3--3--3--3--3--3--3--3--|
--10--10--10--10--7--7--7--7--|--3--3--3--3--3--3--3--3--|
------------------------------|--1--1--1--1--------------|


  PM PM PM PM PM PM PM PM    PM PM PM PM PM PM PM PM  
  E  E  E  E  E  E  E  E     E  E  E  E  E  E  E  E   
--------------------------|--------------------------|
--------------5--5--5--5--|--------------------------|
--------------5--5--5--5--|--------------------------|
--3--3--3--3--3--3--3--3--|--5--5--5--5--5--5--5--5--|
--3--3--3--3--3--3--3--3--|--5--5--5--5--5--5--5--5--|
--1--1--1--1--------------|--3--3--3--3--3--3--3--3--|


  PM PM PM PM PM PM PM PM    PM PM PM PM PM PM PM PM  
  E  E  E  E  E  E  E  E     E  E  E  E  E  E  E  E   
--------------------------|--------------------------|
--------------------------|--------------5--5--5--5--|
--------------------------|--------------5--5--5--5--|
--5--5--5--5--5--5--5--5--|--3--3--3--3--3--3--3--3--|
--5--5--5--5--5--5--5--5--|--3--3--3--3--3--3--3--3--|
--3--3--3--3--3--3--3--3--|--1--1--1--1--------------|


  PM PM PM PM PM PM PM PM    PM PM PM PM PM PM PM PM  
  E  E  E  E  E  E  E  E     E  E  E  E  E  E  E  E   
--------------------------|--------------------------|
--------------5--5--5--5--|--------------------------|
--------------5--5--5--5--|--------------------------|
--3--3--3--3--3--3--3--3--|--5--5--5--5--5--5--5--5--|
--3--3--3--3--3--3--3--3--|--5--5--5--5--5--5--5--5--|
--1--1--1--1--------------|--3--3--3--3--3--3--3--3--|


  PM PM PM PM PM PM PM PM                                                    
  E  E  E  E  E  E  E  E     E  E  Q    E  E  Q       E  E  Q    E  E  Q     
--------------------------|------------------------|------------------------|
--------------------------|-------------5--5-------|-------------5--5-------|
--------------------------|-------------5--5-------|-------------5--5-------|
--5--5--5--5--5--5--5--5--|--3--3-------3--3-------|--3--3-------3--3-------|
--5--5--5--5--5--5--5--5--|--3--3-------3--3-------|--3--3-------3--3-------|
--3--3--3--3--3--3--3--3--|--1--1------------------|--1--1------------------|


  E  E  Q    Q    Q       E  E  Q    Q    Q       E  E  Q    E  E  Q     
-----------------------|-----------------------|------------------------|
-----------------------|-----------------------|-------------5--5-------|
-----------------------|-----------------------|-------------5--5-------|
--5--5-----------------|--5--5-----------------|--3--3-------3--3-------|
--5--5-----------------|--5--5-----------------|--3--3-------3--3-------|
--3--3-----------------|--3--3-----------------|--1--1------------------|


  E  E  Q    E  E  Q       E  E  E  E  E  E  E  E   
------------------------|--------------------------|
-------------5--5-------|--------------------------|
-------------5--5-------|--------------------------|
--3--3-------3--3-------|--5--5--5--5--5--5--5--5--|
--3--3-------3--3-------|--5--5--5--5--5--5--5--5--|
--1--1------------------|--3--3--3--3--3--3--3--3--|


   E   E   E   E   E   E   E   E     E  E  E  Q    Q    E   
----------------------------------|------------------------|
----------------------------------|------------------------|
--13--13--13--13--13--13--13--13--|--4-------------7----5--|
---x---x---x---x---x---x---x---x--|--5--7--7-------7----5--|
--11--11--11--11--11--11--11--11--|--5--7--7-------5----3--|
----------------------------------|--3--5--5-------5----3--|


  E  E  E  Q    E  E  E     E  E  E  Q    Q    E     E  E  E  Q    E  E  E   
-------------------------|------------------------|-------------------------|
-------------------------|------------------------|-------------------------|
--L--5--5--4----4--4--4--|--4-------------7----5--|--L--5--5--4----4--4--4--|
--L--5--5--5----5--5--5--|--5--7--7-------7----5--|--L--5--5--5----5--5--5--|
--L--3--3--5----5--5--5--|--5--7--7-------5----3--|--L--3--3--5----5--5--5--|
--L--3--3--3----3--3--3--|--3--5--5-------5----3--|--L--3--3--3----3--3--3--|


  E  E  E  Q    Q    E     E  E  E  Q    E  E  E     E  E  E  Q    Q    E   
------------------------|-------------------------|------------------------|
------------------------|-------------------------|------------------------|
--4-------------7----5--|--L--5--5--4----4--4--4--|--4-------------7----5--|
--5--7--7-------7----5--|--L--5--5--5----5--5--5--|--5--7--7-------7----5--|
--5--7--7-------5----3--|--L--3--3--5----5--5--5--|--5--7--7-------5----3--|
--3--5--5-------5----3--|--L--3--3--3----3--3--3--|--3--5--5-------5----3--|


  E  E  E  Q    E  E  E     W                   W                 
-------------------------|-------------------|-------------------|
-------------------------|-------------------|-------------------|
--L--5--5--4----4--4--4--|-------------------|-------------------|
--L--5--5--5----5--5--5--|--7----------------|--L----------------|
--L--3--3--5----5--5--5--|--7----------------|--L----------------|
--L--3--3--3----3--3--3--|--5----------------|--L----------------|


  PM   PM   PM   PM      PM   PM   PM   PM      PM   PM   PM   PM    
  Q    Q    Q    Q       Q    Q    Q    Q       Q    Q    Q    Q     
----------------------|----------------------|----------------------|
----------------------|----------------------|----------------------|
----------------------|----------------------|----------------------|
--7----7----7----7----|--7----7----7----7----|--7----7----7----7----|
--7----7----7----7----|--7----7----7----7----|--7----7----7----7----|
--5----5----5----5----|--5----5----5----5----|--5----5----5----5----|


  PM   PM   PM   PM      PM   PM   PM   PM                        
  Q    Q    Q    Q       Q    Q    Q    Q       W                 
----------------------|----------------------|-------------------|
----------------------|----------------------|-------------------|
----------------------|----------------------|-------------------|
--7----7----7----7----|--7----7----7----7----|--7----------------|
--7----7----7----7----|--7----7----7----7----|--7----------------|
--5----5----5----5----|--5----5----5----5----|--5----------------|


  S S S S S S S S S S S S S S S S     Q.     Q.      Q     
----------------------------------|-----------------------|
----------------------------------|--10-------------10----|
----------------------------------|----------9------------|
--x-x-x-x-x-x-x-x-x-x-x-x-x-x-x-x-|-----------------------|
--x-x-x-x-x-x-x-x-x-x-x-x-x-x-x-x-|-----------------------|
--x-x-x-x-x-x-x-x-x-x-x-x-x-x-x-x-|-----------------------|


  Q.     Q    Q.        Q.     Q    Q.        Q.     Q    Q.      
--8-----------8------|--7-----------7------|---------7----8------|
---------------------|---------8-----------|--5------------------|
---------9-----------|---------------------|---------------------|
---------------------|---------------------|---------------------|
---------------------|---------------------|---------------------|
---------------------|---------------------|---------------------|


  W                   E  E  E  E  E  E  E  E     E  E  E  E  E  E  E  E   
--L----------------|--------------------------|--------------------------|
-------------------|--------------------------|--------------------------|
-------------------|--------------------------|--5--5--5--5--5--5--5--5--|
-------------------|--5--5--5--5--5--5--5--5--|--5--5--5--5--5--5--5--5--|
-------------------|--5--5--5--5--5--5--5--5--|--5--5--5--5--5--5--5--5--|
-------------------|--3--3--3--3--3--3--3--3--|--3--3--3--3--3--3--3--3--|


   E   E   E   E  E  E  E  E     E  E  E  Q    Q    E   
------------------------------|------------------------|
------------------------------|------------------------|
--12--12--12--12--9--9--9--9--|--4-------------7----5--|
---x---x---x---x--x--x--x--x--|--5--7--7-------7----5--|
--10--10--10--10--7--7--7--7--|--5--7--7-------5----3--|
------------------------------|--3--5--5-------5----3--|


  E  E  E  Q    E  E  E     E  E  E  Q    Q    E     E  E  E  Q    E  E  E   
-------------------------|------------------------|-------------------------|
-------------------------|------------------------|-------------------------|
--L--5--5--4----4--4--4--|--4-------------7----5--|--L--5--5--4----4--4--4--|
--L--5--5--5----5--5--5--|--5--7--7-------7----5--|--L--5--5--5----5--5--5--|
--L--3--3--5----5--5--5--|--5--7--7-------5----3--|--L--3--3--5----5--5--5--|
--L--3--3--3----3--3--3--|--3--5--5-------5----3--|--L--3--3--3----3--3--3--|


  E  E  E  Q    Q    E     E  E  E  Q    E  E  E     E  E  E  Q    Q     E   
------------------------|-------------------------|-------------------------|
------------------------|-------------------------|-------------------------|
--4-------------7----5--|--L--5--5--4----4--4--4--|--4-------------5----10--|
--5--7--7-------7----5--|--L--5--5--5----5--5--5--|--5--7--7-------5----10--|
--5--7--7-------5----3--|--L--3--3--5----5--5--5--|--5--7--7-------3-----8--|
--3--5--5-------5----3--|--L--3--3--3----3--3--3--|--3--5--5-------3--------|


   H        E  E  E  E                                                         
------------------------|-----|-----|-----|-----|-----|-----|-----|-----|-----|
------------------------|-----|-----|-----|-----|-----|-----|-----|-----|-----|
---L--------5--5--5-----|-----|-----|-----|-----|-----|-----|-----|-----|-----|
---L--------5--5--5--7--|-----|-----|-----|-----|-----|-----|-----|-----|-----|
---L--------3--3--3--7--|-----|-----|-----|-----|-----|-----|-----|-----|-----|
------------3--3--3--5--|-----|-----|-----|-----|-----|-----|-----|-----|-----|


-----|-----|-----|-----||
-----|-----|-----|-----||
-----|-----|-----|-----||
-----|-----|-----|-----||
-----|-----|-----|-----||
-----|-----|-----|-----||




Duration Legend
---------------
W - whole
H - half
Q - quarter
E - 8th
S - 16th
T - 32nd
X - 64th
. - note dotted
|-n-|  - n-tuplets


Tablature Legend
----------------
L - tied note
x - dead note
g - grace note
(n) - ghost note
> - accentuded note
NH - natural harmonic
AH - artificial harmonic
TH - tapped harmonic
SH - semi harmonic
PH - pitch harmonic
h - hammer on
p - pull off
b - bend
br - bendRelease
pb - preBend
pbr - preBendRelease
brb - bendReleaseBend
\n/ - tremolo bar dip
\n - tremolo bar dive
-/n - tremolo bar Release up
/n\ - tremolo bar inverted dip
/n - tremolo bar return
-\n - tremolo bar Release down
S - shift slide
s - legato slide
/ -  slide into from below or out of upwards
\ -  slide into from above or out of downwards
~ - vibrato
W - wide vibrato
tr - trill
TP - tremolo picking
T - tapping
S - slap
P - pop
< - fade in
^ - brush up
v - brush down
Carcinogen Crush                                 


                                                                             AFI
Jade Puget (Guitar 2)



     W                   W                   W                 
E||-------------------|-------------------|-------------------|
B||-------------------|-------------------|-------------------|
G||-------------------|-------------------|-------------------|
D||-------------------|-------------------|-------------------|
A||-------------------|-------------------|-------------------|
E||-------------------|-------------------|-------------------|


  W                   W                   W                   W                 
-------------------|-------------------|-------------------|-------------------|
-------------------|-------------------|-------------------|-------------------|
-------------------|-------------------|-------------------|-------------------|
-------------------|-------------------|-------------------|-------------------|
-------------------|-------------------|-------------------|-------------------|
-------------------|-------------------|-------------------|-------------------|


  W                   W                   W                   W                 
-------------------|-------------------|-------------------|-------------------|
-------------------|-------------------|-------------------|-------------------|
-------------------|-------------------|-------------------|-------------------|
-------------------|-------------------|-------------------|-------------------|
-------------------|-------------------|-------------------|-------------------|
-------------------|-------------------|-------------------|-------------------|


  W                   W                   W                   W                 
-------------------|-------------------|-------------------|-------------------|
-------------------|-------------------|-------------------|-------------------|
-------------------|-------------------|-------------------|-------------------|
-------------------|-------------------|-------------------|-------------------|
-------------------|-------------------|-------------------|-------------------|
-------------------|-------------------|-------------------|-------------------|


  W                   W                   W                   W                 
-------------------|-------------------|-------------------|-------------------|
-------------------|-------------------|-------------------|-------------------|
-------------------|-------------------|-------------------|-------------------|
-------------------|-------------------|-------------------|-------------------|
-------------------|-------------------|-------------------|-------------------|
-------------------|-------------------|-------------------|-------------------|


  W                   W                   W                   W                 
-------------------|-------------------|-------------------|-------------------|
-------------------|-------------------|-------------------|-------------------|
-------------------|-------------------|-------------------|-------------------|
-------------------|-------------------|-------------------|-------------------|
-------------------|-------------------|-------------------|-------------------|
-------------------|-------------------|-------------------|-------------------|


  W                   W                   W                   W                 
-------------------|-------------------|-------------------|-------------------|
-------------------|-------------------|-------------------|-------------------|
-------------------|-------------------|-------------------|-------------------|
-------------------|-------------------|-------------------|-------------------|
-------------------|-------------------|-------------------|-------------------|
-------------------|-------------------|-------------------|-------------------|


  W                   W                   W                   W                 
-------------------|-------------------|-------------------|-------------------|
-------------------|-------------------|-------------------|-------------------|
-------------------|-------------------|-------------------|-------------------|
-------------------|-------------------|-------------------|-------------------|
-------------------|-------------------|-------------------|-------------------|
-------------------|-------------------|-------------------|-------------------|


  W                   W                   W                   W                 
-------------------|-------------------|-------------------|-------------------|
-------------------|-------------------|-------------------|-------------------|
-------------------|-------------------|-------------------|-------------------|
-------------------|-------------------|-------------------|-------------------|
-------------------|-------------------|-------------------|-------------------|
-------------------|-------------------|-------------------|-------------------|


  W                   W                   W                   W                 
-------------------|-------------------|-------------------|-------------------|
-------------------|-------------------|-------------------|-------------------|
-------------------|-------------------|-------------------|-------------------|
-------------------|-------------------|-------------------|-------------------|
-------------------|-------------------|-------------------|-------------------|
-------------------|-------------------|-------------------|-------------------|


  W                   W                   W                   W                 
-------------------|-------------------|-------------------|-------------------|
-------------------|-------------------|-------------------|-------------------|
-------------------|-------------------|-------------------|-------------------|
-------------------|-------------------|-------------------|-------------------|
-------------------|-------------------|-------------------|-------------------|
-------------------|-------------------|-------------------|-------------------|


  W                   W                   W                   W                 
-------------------|-------------------|-------------------|-------------------|
-------------------|-------------------|-------------------|-------------------|
-------------------|-------------------|-------------------|-------------------|
-------------------|-------------------|-------------------|-------------------|
-------------------|-------------------|-------------------|-------------------|
-------------------|-------------------|-------------------|-------------------|


  W                   W                   W                   W                 
-------------------|-------------------|-------------------|-------------------|
-------------------|-------------------|-------------------|-------------------|
-------------------|-------------------|-------------------|-------------------|
-------------------|-------------------|-------------------|-------------------|
-------------------|-------------------|-------------------|-------------------|
-------------------|-------------------|-------------------|-------------------|


  W                   W                   W                   W                 
-------------------|-------------------|-------------------|-------------------|
-------------------|-------------------|-------------------|-------------------|
-------------------|-------------------|-------------------|-------------------|
-------------------|-------------------|-------------------|-------------------|
-------------------|-------------------|-------------------|-------------------|
-------------------|-------------------|-------------------|-------------------|


  W                   W                   W                   W                 
-------------------|-------------------|-------------------|-------------------|
-------------------|-------------------|-------------------|-------------------|
-------------------|-------------------|-------------------|-------------------|
-------------------|-------------------|-------------------|-------------------|
-------------------|-------------------|-------------------|-------------------|
-------------------|-------------------|-------------------|-------------------|


  W                   W                   W                   W                 
-------------------|-------------------|-------------------|-------------------|
-------------------|-------------------|-------------------|-------------------|
-------------------|-------------------|-------------------|-------------------|
-------------------|-------------------|-------------------|-------------------|
-------------------|-------------------|-------------------|-------------------|
-------------------|-------------------|-------------------|-------------------|


  W                   W                   W                   W                 
-------------------|-------------------|-------------------|-------------------|
-------------------|-------------------|-------------------|-------------------|
-------------------|-------------------|-------------------|-------------------|
-------------------|-------------------|-------------------|-------------------|
-------------------|-------------------|-------------------|-------------------|
-------------------|-------------------|-------------------|-------------------|


  W                   W                   W                   W                 
-------------------|-------------------|-------------------|-------------------|
-------------------|-------------------|-------------------|-------------------|
-------------------|-------------------|-------------------|-------------------|
-------------------|-------------------|-------------------|-------------------|
-------------------|-------------------|-------------------|-------------------|
-------------------|-------------------|-------------------|-------------------|


  W                   W                   W                   W                 
-------------------|-------------------|-------------------|-------------------|
-------------------|-------------------|-------------------|-------------------|
-------------------|-------------------|-------------------|-------------------|
-------------------|-------------------|-------------------|-------------------|
-------------------|-------------------|-------------------|-------------------|
-------------------|-------------------|-------------------|-------------------|


  W                   W                   W                   W                 
-------------------|-------------------|-------------------|-------------------|
-------------------|-------------------|-------------------|-------------------|
-------------------|-------------------|-------------------|-------------------|
-------------------|-------------------|-------------------|-------------------|
-------------------|-------------------|-------------------|-------------------|
-------------------|-------------------|-------------------|-------------------|


  W                   W                   W                   W                 
-------------------|-------------------|-------------------|-------------------|
-------------------|-------------------|-------------------|-------------------|
-------------------|-------------------|-------------------|-------------------|
-------------------|-------------------|-------------------|-------------------|
-------------------|-------------------|-------------------|-------------------|
-------------------|-------------------|-------------------|-------------------|


  E  E  Q.     Q    E     Q    Q    H           E  E  Q.      Q     E   
-----------------------|---------------------|-------------------------|
-----------------------|---------------------|-------------------------|
-----------------------|---------------------|-------------------------|
-----------------------|---------------------|--7--7--9------10----10--|
---------------3----3--|--L----5----7--------|-------------------------|
--5--7--7--------------|---------------------|-------------------------|


   Q    Q    H           W                   W                 
----------------------|-------------------|-------------------|
----------------------|-------------------|-------------------|
--------7----7--------|--9----------------|--L----------------|
---L------------------|-------------------|-------------------|
----------------------|-------------------|-------------------|
----------------------|-------------------|-------------------|


  W                                       W                   W                 
-------------------|-------------------|-------------------|-------------------|
-------------------|-------------------|-------------------|-------------------|
-------------------|-------------------|-------------------|-------------------|
-------------------|-------------------|-------------------|-------------------|
-------------------|-------------------|-------------------|-------------------|
-------------------|-------------------|-------------------|-------------------|


  W                   W                   W                   W                 
-------------------|-------------------|-------------------|-------------------|
-------------------|-------------------|-------------------|-------------------|
-------------------|-------------------|-------------------|-------------------|
-------------------|-------------------|-------------------|-------------------|
-------------------|-------------------|-------------------|-------------------|
-------------------|-------------------|-------------------|-------------------|


  W                   W                   W                   W                 
-------------------|-------------------|-------------------|-------------------|
-------------------|-------------------|-------------------|-------------------|
-------------------|-------------------|-------------------|-------------------|
-------------------|-------------------|-------------------|-------------------|
-------------------|-------------------|-------------------|-------------------|
-------------------|-------------------|-------------------|-------------------|


  W                   W                   W                   W                 
-------------------|-------------------|-------------------|-------------------|
-------------------|-------------------|-------------------|-------------------|
-------------------|-------------------|-------------------|-------------------|
-------------------|-------------------|-------------------|-------------------|
-------------------|-------------------|-------------------|-------------------|
-------------------|-------------------|-------------------|-------------------|


  W                   W                   W                   W                 
-------------------|-------------------|-------------------|-------------------|
-------------------|-------------------|-------------------|-------------------|
-------------------|-------------------|-------------------|-------------------|
-------------------|-------------------|-------------------|-------------------|
-------------------|-------------------|-------------------|-------------------|
-------------------|-------------------|-------------------|-------------------|


  W                   W                   W                                     
-------------------|-------------------|-------------------|-------------------|
-------------------|-------------------|-------------------|-------------------|
-------------------|-------------------|-------------------|-------------------|
-------------------|-------------------|-------------------|-------------------|
-------------------|-------------------|-------------------|-------------------|
-------------------|-------------------|-------------------|-------------------|


-------------------|-------------------|-------------------|-------------------|
-------------------|-------------------|-------------------|-------------------|
-------------------|-------------------|-------------------|-------------------|
-------------------|-------------------|-------------------|-------------------|
-------------------|-------------------|-------------------|-------------------|
-------------------|-------------------|-------------------|-------------------|


-------------------|-------------------|-------------------|-------------------|
-------------------|-------------------|-------------------|-------------------|
-------------------|-------------------|-------------------|-------------------|
-------------------|-------------------|-------------------|-------------------|
-------------------|-------------------|-------------------|-------------------|
-------------------|-------------------|-------------------|-------------------|


-------------------|-------------------|-------------------|
-------------------|-------------------|-------------------|
-------------------|-------------------|-------------------|
-------------------|-------------------|-------------------|
-------------------|-------------------|-------------------|
-------------------|-------------------|-------------------|


-------------------||
-------------------||
-------------------||
-------------------||
-------------------||
-------------------||




Duration Legend
---------------
W - whole
H - half
Q - quarter
E - 8th
S - 16th
T - 32nd
X - 64th
. - note dotted
|-n-|  - n-tuplets


Tablature Legend
----------------
L - tied note
x - dead note
g - grace note
(n) - ghost note
> - accentuded note
NH - natural harmonic
AH - artificial harmonic
TH - tapped harmonic
SH - semi harmonic
PH - pitch harmonic
h - hammer on
p - pull off
b - bend
br - bendRelease
pb - preBend
pbr - preBendRelease
brb - bendReleaseBend
\n/ - tremolo bar dip
\n - tremolo bar dive
-/n - tremolo bar Release up
/n\ - tremolo bar inverted dip
/n - tremolo bar return
-\n - tremolo bar Release down
S - shift slide
s - legato slide
/ -  slide into from below or out of upwards
\ -  slide into from above or out of downwards
~ - vibrato
W - wide vibrato
tr - trill
TP - tremolo picking
T - tapping
S - slap
P - pop
< - fade in
^ - brush up
v - brush down
comments
We did not receive enough feedback on this tab! Please rate:
print report bad tab
1 2 3 4 5
I want to post or [tab]
guest
You may want to rate the tab now too:
select rating
Please do not post tabs as comments. Select "correction" instead!