Oops, an error
Loading. Please wait.

Cold Hands Tab

by Afi
ver2
ver2

Intro

Whole song

Interactive

More versions @911Tabs.com
291 views 1 this week
no commentswrite comment
1 2 3 4 5
excellent!
x 1
Autoscroll
+/-
esc
set tempo
stop
Contributor
WARNING: You are trying to view
                                    content from Ultimate-Guitar.com
                                    in an unauthorized application,
                                    which is prohibited.

                                    Please use an official Ultimate
                                    Guitar Tabs application for iPhone,
                                    iPad or Android to access legitimate
                                    chords, guitar, bass, and drum tabs
                                    from Ultimate-Guitar.com database.

                                    Type "ultimate guitar tabs" in Apple
                                    App Store's or Android Market's
                                    search to find the application.
A Fire Inside
Cold Hands


-------------------------------------------------------------------|
-------------------------------------------------------------------|
-----------------2---2---4-----------------------------------------|
---*-------------2-2-2-2-4-----------------------------------------|
---0-------------0-2-0-2-2-----------------------------------------|
---0---------------0---0-------------------------------------------|
  *volume swell



-------------------------------------------------------------------|
-------------------------------------------------------------------|
-------------------------------------------------2---2----4--------|
----------------------444666---------------------2-2-2-2--4-x------|
-------------------------------------------------0-2-0-2--2-x------|
----22222222-00000-22-------00000-22222222-00000---0---0----0------|



-------------------------------------------------------------------|
-------------------------------------------------------------------|
--------------------------------------------------2---2---44-------|
----PM--------------------------------------------2-2-2-2-44-------|
----============================================--0-2-0-2-22-------|
----2222222-000000-2222222-000000-2222222-000000----0---0----------|



-------------------------------------------------------------------|
-------------------------------------------------------------------|
----------------------======---------------------2---2----4--------|
----pm----------------444666---------------------2-2-2-2--4-x------|
----=================-------====================-0-2-0-2--2-x------|
----22222222-00000-22-------00000-22222222-00000---0---0----0------|



-------------------------------------------------------------------|
-------------------------------------------------------------------|
-------------------------------------------------2---2----4--------|
----------------------444666---------------------2-2-2-2--4-x------|
-------------------------------------------------0-2-0-2--2-x------|
----22222222-00000-22-------00000-22222222-00000---0---0----0------|



-------------------------------------------------------------------|
-------------------------------------------------------------------|
----------------------======---------------------2---2----4--------|
----pm----------------444666---------------------2-2-2----4--------|
----=================-------====================-0-2-0----2--------|
----22222222-00000-22-------00000-22222222-00000---0---------------|



-------------------------------------------------------------------|
-------------------------------------------------------------------|
-------------------------------------------------------------------|
--------------------------------------------------7777-9-xx-9-xx-9-|
-----------------5----5-7-0--2----------7-5-x-5-x-5555-7-xx-7-xx-7-|
---2---4-5-0---------------------2--4-5----------------------------|



chorus
----------------------------------------------------------------------|
----------------------------------------------------------------------|
-14-14-14-14-14-14-14-14-14-14-14-14-14-------------------------------|
-14-14-14-14-14-14-14-14-14-14-14-14-14-14-14-14-14-14-14-14-14-14-14-|
-12-12-12-12-12-12-12-12-12-12-12-12-12-11-11-11-11-11-11-11-11-11-11-|
----------------------------------------------------------------------|



chorus
----------------------------------------------------------------------|
----------------------------------------------------------------------|
----------------------------------------11-11-11-11-11-11-11-99999999-|
-12-12-12-12-12-12-12-12-12-12-12-12-12-11-11-11-11-11-11-11-99999999-|
-12-12-12-12-12-12-12-12-12-12-12-12-12--9--9--9--9--9--9--9-77777777-|
-10-10-10-10-10-10-10-10-10-10-10-10-10-------------------------------|



chorus
----------------------------------------------------------------------|
----------------------------------------------------------------------|
-14-14-14-14-14-14-14-14-14-14-14-14-14-------------------------------|
-14-14-14-14-14-14-14-14-14-14-14-14-14-14-14-14-14-14-14-14-14-14-14-|
-12-12-12-12-12-12-12-12-12-12-12-12-12-11-11-11-11-11-11-11-11-11-11-|
----------------------------------------------------------------------|



chorus
----------------------------------------------------------------------|
----------------------------------------------------------------------|
----------------------------------------11-11-11-11-11-11-11-99999999-|
-12-12-12-12-12-12-12-12-12-12-12-12-12-11-11-11-11-11-11-11-99999999-|
-12-12-12-12-12-12-12-12-12-12-12-12-12--9--9--9--9--9--9--9-77777777-|
-10-10-10-10-10-10-10-10-10-10-10-10-10-------------------------------|



-------------------------------------------------------------------|
-------------------------------------------------------------------|
-------------------------------------------------2---2----4--------|
----------------------444666---------------------2-2-2-2--4-x------|
-------------------------------------------------0-2-0-2--2-x------|
----22222222-00000-22-------00000-22222222-00000---0---0----0------|



-------------------------------------------------------------------|
-------------------------------------------------------------------|
----------------------======---------------------2---2----4--------|
----pm----------------444666---------------------2-2-2-2--4-x------|
----=================-------====================-0-2-0-2--2-x------|
----22222222-00000-22-------00000-22222222-00000---0---0----0------|



-------------------------------------------------------------------|
-------------------------------------------------------------------|
----------------------======---------------------2---2----4--------|
----pm----------------444666---------------------2-2-2-2--4-x------|
----=================-------====================-0-2-0-2--2-x------|
----22222222-00000-22-------00000-22222222-00000---0---0----0------|



-------------------------------------------------------------------|
-------------------------------------------------------------------|
-------------------------------------------------2---2----4--------|
----------------------444666---------------------2-2-2-2--4-x------|
-------------------------------------------------0-2-0-2--2-x------|
----22222222-00000-22-------00000-22222222-00000---0---0----0------|



-------------------------------------------------------------------|
-------------------------------------------------------------------|
----------------------======---------------------2---2----4--------|
----pm----------------444666---------------------2-2-2----4--------|
----=================-------====================-0-2-0----2--------|
----22222222-00000-22-------00000-22222222-00000---0---------------|



-------------------------------------------------------------------|
-------------------------------------------------------------------|
-------------------------------------------------------------------|
--------------------------------------------------7777-9-xx-9-xx-9-|
-----------------5----5-7-0--2----------7-5-x-5-x-5555-7-xx-7-xx-7-|
---2---4-5-0---------------------2--4-5----------------------------|



chorus
----------------------------------------------------------------------|
----------------------------------------------------------------------|
-14-14-14-14-14-14-14-14-14-14-14-14-14-------------------------------|
-14-14-14-14-14-14-14-14-14-14-14-14-14-14-14-14-14-14-14-14-14-14-14-|
-12-12-12-12-12-12-12-12-12-12-12-12-12-11-11-11-11-11-11-11-11-11-11-|
----------------------------------------------------------------------|



chorus
----------------------------------------------------------------------|
----------------------------------------------------------------------|
----------------------------------------11-11-11-11-11-11-11-99999999-|
-12-12-12-12-12-12-12-12-12-12-12-12-12-11-11-11-11-11-11-11-99999999-|
-12-12-12-12-12-12-12-12-12-12-12-12-12--9--9--9--9--9--9--9-77777777-|
-10-10-10-10-10-10-10-10-10-10-10-10-10-------------------------------|



chorus
----------------------------------------------------------------------|
----------------------------------------------------------------------|
-14-14-14-14-14-14-14-14-14-14-14-14-14-------------------------------|
-14-14-14-14-14-14-14-14-14-14-14-14-14-14-14-14-14-14-14-14-14-14-14-|
-12-12-12-12-12-12-12-12-12-12-12-12-12-11-11-11-11-11-11-11-11-11-11-|
----------------------------------------------------------------------|



chorus
----------------------------------------------------------------------|
----------------------------------------------------------------------|
----------------------------------------11-11-11-11-11-11-11-99999999-|
-12-12-12-12-12-12-12-12-12-12-12-12-12-11-11-11-11-11-11-11-99999999-|
-12-12-12-12-12-12-12-12-12-12-12-12-12--9--9--9--9--9--9--9-77777777-|
-10-10-10-10-10-10-10-10-10-10-10-10-10-------------------------------|



BRIDGE, GUITAR ONE
--12-10-9------12-10-9-------12-10-9------9------------12-10-9------|
----------10-9---------9-10----------10-9---12-10-9------------10-9-|
----------------------------------------------------11--------------|
--------------------------------------------------------------------|
--------------------------------------------------------------------|
--------------------------------------------------------------------|



BRIDGE, GUITAR ONE
-99999999999999999999999999999999999999999999999999999999999999999-
-------------------------------------------------------------------|
-------------------------------------------------------------------|
-------------------------------------------------------------------|
-------------------------------------------------------------------|
-------------------------------------------------------------------|



BRIDGE, GUITAR ONE
--9--9--9--9--9--9--9--9-10-10-10-10-10-10-10-10-------------------|
-12-12-12-12-12-12-12-12-------------------------------------------|
-------------------------------------------------------------------|
-------------------------------------------------------------------|
-------------------------------------------------------------------|
-------------------------------------------------------------------|



BRIDGE, GUITAR TWO
---------------------------------------------------------------------|
---------------------------------------------------------------------|
---------------------------------------------------------------------|
--0---0-2----2---------4-----4----------------------4^6-6/7-7^6-6^4--|
---------------4-----4----------5-5/7-7---7\4-4---4------------------|
---------------------------------------------------------------------|



BRIDGE, GUITAR TWO
---------------------------0--0--0--0--0--0--0--0--0--0--0--0--0--0--0--|
--------------------------12-12-12-12-12-12-12-12-15-15-15-15-15-15-15\-|
------------------------------------------------------------------------|
--0----0-2-----2--------------------------------------------------------|
-----------------4----4-------------------------------------------------|
------------------------------------------------------------------------|



------------|
--PM--------|
--========--
--XXXXXXXX--
--XXXXXXXX--
--XXXXXXXX--



chorus
----------------------------------------------------------------------|
----------------------------------------------------------------------|
-14-14-14-14-14-14-14-14-14-14-14-14-14-------------------------------|
-14-14-14-14-14-14-14-14-14-14-14-14-14-14-14-14-14-14-14-14-14-14-14-|
-12-12-12-12-12-12-12-12-12-12-12-12-12-11-11-11-11-11-11-11-11-11-11-|
----------------------------------------------------------------------|



chorus
----------------------------------------------------------------------|
----------------------------------------------------------------------|
----------------------------------------11-11-11-11-11-11-11-99999999-|
-12-12-12-12-12-12-12-12-12-12-12-12-12-11-11-11-11-11-11-11-99999999-|
-12-12-12-12-12-12-12-12-12-12-12-12-12--9--9--9--9--9--9--9-77777777-|
-10-10-10-10-10-10-10-10-10-10-10-10-10-------------------------------|



chorus
----------------------------------------------------------------------|
----------------------------------------------------------------------|
-14-14-14-14-14-14-14-14-14-14-14-14-14-------------------------------|
-14-14-14-14-14-14-14-14-14-14-14-14-14-14-14-14-14-14-14-14-14-14-14-|
-12-12-12-12-12-12-12-12-12-12-12-12-12-11-11-11-11-11-11-11-11-11-11-|
----------------------------------------------------------------------|



chorus
----------------------------------------------------------------------|
----------------------------------------------------------------------|
----------------------------------------11-11-11-11-11-11-11-99999999-|
-12-12-12-12-12-12-12-12-12-12-12-12-12-11-11-11-11-11-11-11-99999999-|
-12-12-12-12-12-12-12-12-12-12-12-12-12--9--9--9--9--9--9--9-77777777-|
-10-10-10-10-10-10-10-10-10-10-10-10-10-------------------------------|



-------------------------------------9---9-9-9-9-9-9-9-9-9-9-9-9-9-|
------------------------------------10--10101010101010101010101010-|
------------------------------------11--11111111111111111111111111-|
--7777777777777777-9999999999999999-11--11111111111111111111111111-|
--7777777777777777-9999999999999999--9---9-9-9-9-9-9-9-9-9-9-9-9-9-|
--5555555555555555-7777777777777777--9---9-9-9-9-9-9-9-9-9-9-9-9-9-|



-----------------------|
-----------------------|
--77777777-99999999----|
--77777777-99999999----|
--55555555-77777777----|
--55555555-77777777----|




-------------------------------------9---9-9-9-9-9-9-9-9-9-9-9-9-9-|
------------------------------------10--10101010101010101010101010-|
------------------------------------11--11111111111111111111111111-|
--7777777777777777-9999999999999999-11--11111111111111111111111111-|
--7777777777777777-9999999999999999--9---9-9-9-9-9-9-9-9-9-9-9-9-9-|
--5555555555555555-7777777777777777--9---9-9-9-9-9-9-9-9-9-9-9-9-9-|



3Xs
|----------------------|-------------------------|
|:--------------------:|-------------------------|
|--77777777-99999999---|-------------------------|
|--77777777-99999999---|--4-4-4-44-44------------|
|:-55555555-77777777--:|--4-4-4-44-44------------|
|--55555555-77777777---|--2-2-2-22-22------------|
comments
We did not receive enough feedback on this tab! Please rate:
print report bad tab
1 2 3 4 5
I want to post or [tab]
guest
You may want to rate the tab now too:
select rating
Please do not post tabs as comments. Select "correction" instead!