Oops, an error
Loading. Please wait.

Dancing Through Sunday Tab

by Afi
ver2
ver2

Solo

Whole song

Interactive

More versions @911Tabs.com
1,017 views 1 this week
no commentswrite comment
1 2 3 4 5
worth learning
x 1
Autoscroll
+/-
esc
set tempo
stop
Contributor
Difficulty
Tuning
intermediate
E A D G B E
WARNING: You are trying to view
                                    content from Ultimate-Guitar.com
                                    in an unauthorized application,
                                    which is prohibited.

                                    Please use an official Ultimate
                                    Guitar Tabs application for iPhone,
                                    iPad or Android to access legitimate
                                    chords, guitar, bass, and drum tabs
                                    from Ultimate-Guitar.com database.

                                    Type "ultimate guitar tabs" in Apple
                                    App Store's or Android Market's
                                    search to find the application.
Dancing Through Sunday
|---------------------------|----------------------------|
|---------------------------|----------------------------|
|-16-15-15-14-14-12-12-9-9--|-16--15-15-14-14-12-12-9-9--|
|--x--x--x--x--x--x--x-x-x--|--x---x--x--x--x--x--x-x-x--|
|-14-13-13-12-12-10-10-7-7--|-14--13-13-12-12-10-10-7-7--|
|--0--0--0--0--0--0--0-0-0--|--0---0--0--0--0--0--0-0-0--|

|----------------------------|---------------------------------|
|----------------------------|---------------------------------|
|-16--15-15-14-14-12-12-9-9--|-16---15-15-14-14-12-12-9-9------|
|--x---x--x--x--x--x--x-x-x--|--x----x--x--x--x--x--x-x-x------|
|-14--13-13-12-12-10-10-7-7--|-14---13-13-12-12-10-10-7-7------|
|--0---0--0--0--0--0--0-0-0--|--0----0--0--0--0--0--0-0-0------|
Verse 1
|--3-3-3-3-3--5-5-5-5-5--|
|--3-3-3-3-3--5-5-5-5-5--|
|--4-4-4-4-4--6-6-6-6-6--|
|--5-5-5-5-5--7-7-7-7-7--|
|--5-5-5-5-5--7-7-7-7-7--|
|--3-3-3-3-3--5-5-5-5-5--|

|------------------------------------------|
|------------------------------------------|
|--16-16-16-15-15-15-14-14-14-12-12-9-9----|
|--x--x--x--x--x--x--x--x--x--x--x--x-x----|
|--14-14-14-13-13-13-12-12-12-10-10-7-7----|
|--0--0--0--0--0--0--0--0--0--0--0--0-0----|

|–-3-3-3-3-3--5-5-5-5-5--|-----------------------------|
|--3-3-3-3-3--5-5-5-5-5--|-----------------------------|
|--4-4-4-4-4--6-6-6-6-6--|--16---15---14---12---9-9--9-|
|--5-5-5-5-5--7-7-7-7-7--|--x----x----x----x----x-x--x-|
|--5-5-5-5-5--7-7-7-7-7--|--14---13---12---10---7-7--7-|
|--3-3-3-3-3--5-5-5-5-5--|--0----0----0----0----0-0--0-|

|–-3-3-3-3-3--5-5-5-5-5--|
|--3-3-3-3-3--5-5-5-5-5--|
|--4-4-4-4-4--6-6-6-6-6--|
|--5-5-5-5-5--7-7-7-7-7--|
|--5-5-5-5-5--7-7-7-7-7--|
|--3-3-3-3-3--5-5-5-5-5--|

|------------------------------------------|------------------------------|
|------------------------------------------|--------------10--------10----|
|--16-16-16-15-15-15-14-14-14-12-12-9-9----|--------------11--------11----|
|--x--x--x--x--x--x--x--x--x--x--x--x-x----|--------------12--------12----|
|--14-14-14-13-13-13-12-12-12-10-10-7-7----|--------------12----12--12----|
|--0--0--0--0--0--0--0--0--0--0--0--0-0----|--8-7-0-8-7-0-10----10--10----|
Chorus 1
|-3-3-3-3-3-3-3-3-3-3-3-3-|-5-5-0-0-0-0-0-0-0-0-0-0-|
|-3-3-3-3-3-3-3-3-3-3-3-3-|-5-5-0-0-0-0-0-0-0-0-0-0-|
|-4-4-4-4-4-4-4-4-4-4-4-4-|-7-7-1-1-1-1-1-1-1-1-1-1-|
|-5-5-5-5-5-5-5-5-5-5-5-5-|-7-7-2-2-2-2-2-2-2-2-2-2-|
|-5-5-5-5-5-5-5-5-5-5-5-5-|-5-5-2-2-2-2-2-2-2-2-2-2-|
|-3-3-3-3-3-3-3-3-3-3-3-3-|-5-5-0-0-0-0-0-0-0-0-0-0-|

|-3-3-3-3-3-3-3-3-3-3-3-3-5-5-|------7--7------7--7------7--|
|-3-3-3-3-3-3-3-3-3-3-3-3-7-7-|------8--8------8--8------8--|
|-4-4-4-4-4-4-4-4-4-4-4-4-7-7-|--9-9-9--9--9-9-9--9--9-9-9--|
|-5-5-5-5-5-5-5-5-5-5-5-5-7-7-|--9-9-------9-9-------9-9----|
|-5-5-5-5-5-5-5-5-5-5-5-5-5-5-|--7-7-------7-7-------7-7----|
|-3-3-3-3-3-3-3-3-3-3-3-3-5-5-|--7-7-------7-7-------7-7----|

|-3-3-3-3-3-3-3-3-3-3-3-3-|-5-5-0-0-0-0-0-0-0-0-0-0-|
|-3-3-3-3-3-3-3-3-3-3-3-3-|-5-5-0-0-0-0-0-0-0-0-0-0-|
|-4-4-4-4-4-4-4-4-4-4-4-4-|-7-7-1-1-1-1-1-1-1-1-1-1-|
|-5-5-5-5-5-5-5-5-5-5-5-5-|-7-7-2-2-2-2-2-2-2-2-2-2-|
|-5-5-5-5-5-5-5-5-5-5-5-5-|-5-5-2-2-2-2-2-2-2-2-2-2-|
|-3-3-3-3-3-3-3-3-3-3-3-3-|-5-5-0-0-0-0-0-0-0-0-0-0-|
|-3-3-3-3-3-3-3-3-|-5-5-5-5-6-6-6-6----|
|–3-3-3-3-3-3-3-3-|-5-5-5-5-6-6-6-6----|
|-4-4-4-4-4-4-4-4-|-7-7-7-7-8-8-8-8----|
|-5-5-5-5-5-5-5-5-|-7-7-7-7-8-8-8-8----|
|-5-5-5-5-5-5-5-5-|-5-5-5-5-6-6-6-6----|
|-3-3-3-3-3-3-3-3-|-5-5-5-5-6-6-6-6----|
Verse 2
|--------------------|--3-3-3-3-3--5-5-5-5-5--|
|--------------------|--3-3-3-3-3--5-5-5-5-5--|
|--------------------|--4-4-4-4-4--6-6-6-6-6--|
|--------------18/---|--5-5-5-5-5--7-7-7-7-7--|
|--------------18/---|--5-5-5-5-5--7-7-7-7-7--|
|--------------16/---|--3-3-3-3-3--5-5-5-5-5--|

|------------------------------------------|
|------------------------------------------|
|--16-16-16-15-15-15-14-14-14-12-12-9-9----|
|--x--x--x--x--x--x--x--x--x--x--x--x-x----|
|--14-14-14-13-13-13-12-12-12-10-10-7-7----|
|--0--0--0--0--0--0--0--0--0--0--0--0-0----|

|–-3-3-3-3-3--5-5-5-5-5--|-----------------------------|
|--3-3-3-3-3--5-5-5-5-5--|-----------------------------|
|--4-4-4-4-4--6-6-6-6-6--|--16---15---14---12---9-9--9-|
|--5-5-5-5-5--7-7-7-7-7--|--x----x----x----x----x-x--x-|
|--5-5-5-5-5--7-7-7-7-7--|--14---13---12---10---7-7--7-|
|--3-3-3-3-3--5-5-5-5-5--|--0----0----0----0----0-0--0-|

|–-3-3-3-3-3--5-5-5-5-5--|
|--3-3-3-3-3--5-5-5-5-5--|
|--4-4-4-4-4--6-6-6-6-6--|
|--5-5-5-5-5--7-7-7-7-7--|
|--5-5-5-5-5--7-7-7-7-7--|
|--3-3-3-3-3--5-5-5-5-5--|

|------------------------------------------|------------------------------|
|------------------------------------------|--------------10--------10----|
|--16-16-16-15-15-15-14-14-14-12-12-9-9----|--------------11--------11----|
|--x--x--x--x--x--x--x--x--x--x--x--x-x----|--------------12--------12----|
|--14-14-14-13-13-13-12-12-12-10-10-7-7----|--------------12----12--12----|
|--0--0--0--0--0--0--0--0--0--0--0--0-0----|--8-7-0-8-7-0-10----10--10----|
Chorus 2
|-3-3-3-3-3-3-3-3-3-3-3-3-|-5-5-0-0-0-0-0-0-0-0-0-0-|
|-3-3-3-3-3-3-3-3-3-3-3-3-|-5-5-0-0-0-0-0-0-0-0-0-0-|
|-4-4-4-4-4-4-4-4-4-4-4-4-|-7-7-1-1-1-1-1-1-1-1-1-1-|
|-5-5-5-5-5-5-5-5-5-5-5-5-|-7-7-2-2-2-2-2-2-2-2-2-2-|
|-5-5-5-5-5-5-5-5-5-5-5-5-|-5-5-2-2-2-2-2-2-2-2-2-2-|
|-3-3-3-3-3-3-3-3-3-3-3-3-|-5-5-0-0-0-0-0-0-0-0-0-0-|

|-3-3-3-3-3-3-3-3-3-3-3-3-5-5-|------7--7------7--7------7--|
|-3-3-3-3-3-3-3-3-3-3-3-3-7-7-|------8--8------8--8------8--|
|-4-4-4-4-4-4-4-4-4-4-4-4-7-7-|--9-9-9--9--9-9-9--9--9-9-9--|
|-5-5-5-5-5-5-5-5-5-5-5-5-7-7-|--9-9-------9-9-------9-9----|
|-5-5-5-5-5-5-5-5-5-5-5-5-5-5-|--7-7-------7-7-------7-7----|
|-3-3-3-3-3-3-3-3-3-3-3-3-5-5-|--7-7-------7-7-------7-7----|

|-3-3-3-3-3-3-3-3-3-3-3-3-|-5-5-0-0-0-0-0-0-0-0-0-0-|
|-3-3-3-3-3-3-3-3-3-3-3-3-|-5-5-0-0-0-0-0-0-0-0-0-0-|
|-4-4-4-4-4-4-4-4-4-4-4-4-|-7-7-1-1-1-1-1-1-1-1-1-1-|
|-5-5-5-5-5-5-5-5-5-5-5-5-|-7-7-2-2-2-2-2-2-2-2-2-2-|
|-5-5-5-5-5-5-5-5-5-5-5-5-|-5-5-2-2-2-2-2-2-2-2-2-2-|
|-3-3-3-3-3-3-3-3-3-3-3-3-|-5-5-0-0-0-0-0-0-0-0-0-0-|

|-3-3-3-3-3-3-3-3-|-5-5-5-5-5-6-6-6-6----|
|–3-3-3-3-3-3-3-3-|-5-5-5-5-5-6-6-6-6----|
|-4-4-4-4-4-4-4-4-|-7-7-7-7-7-8-8-8-8----|
|-5-5-5-5-5-5-5-5-|-7-7-7-7-7-8-8-8-8----|
|-5-5-5-5-5-5-5-5-|-5-5-5-5-5-6-6-6-6----|
|-3-3-3-3-3-3-3-3-|-5-5-5-5-5-6-6-6-6----|

Bridge
|--------------------------------------------------------------|
|–-------------------------------------------------------------|
|--------------------------------------------------------------|
|--------------------------------------------------------------|
|--------------------------------------------------------------|
|--t12p2p0-t12p2p0-t12p2p0-t12p2p0h2--t11p2p0-t11p2p0-t11p2p0--|

|----------------------------------------------------------------------------|
|–---------------------------------------------------------------------------|
|----------------------------------------------------------------------------|
|----------------------------------------------------------------------------|
|----------------------------------------------------------------------------|
|-t11p2p0h2--t10p2p0-t10p2p0-y10p2p0-y10p2p0-t10p2p0h2--t9p2p0-t7p2p0-t5p2p0-|

|-0~--0~–-3--3--0--0-------|
|-0~--0~–-3--3--0--0-------|
|-1~--1~–-4--4--1--1--4--4-|
|-2~--2~--5--5--2--2--4--4-|
|-2~--2~–-5--5--2--2--2--2-|
|-0~--0~–-3--3--0--0-------|

Solo
|--------12h-15p-12------12h-15p-12--------------------------------------|
|----12--------------15---------------15-12h-15p-12-----12h-15p-12----12-|
|---b14---------------------------------------------14--------------13---|
|------------------------------------------------------------------------| 
|------------------------------------------------------------------------| 
|------------------------------------------------------------------------|  

|--------------------------------------------------------------------| 
|--------------------------------------------------------------------|   
|--14p12--14p12----12------------------------------------------------|
|---------------14----14p12--14p12-----------------------------------|
|-----------------------------------14p12--14p12--12p10-12p10--------|
|--------------------------------------------------------------12--/-|

|----7-----8----10----11----12---------------------------------------| 
|--b10---b11---b13---b14---b15--10h12p10--8h10p8---7h8p7-------------|
|--------------------------------------------------------7h9p7h9-----|
|--------------------------------------------------------------------| 
|--------------------------------------------------------------------| 
|--------------------------------------------------------------------|  

|-----------------------------------------------------------------------| 
|-17--12p9-17--12p9--17--13p10-17--12p10-17-12p9-17---------------------|
|-T---------T--------T---------T---------T-------T--9-/-12-/-15-14-12 9-|  
|-----------------------------------------------------------------------|
|-----------------------------------------------------------------------|
|-----------------------------------------------------------------------|

|-----------------------------------------------------------------------| 
|------------------------12----14--12--14-------------------------------|
|-12b trill 16--------------14---------14-------------------------------|
|-----------------------------------------------------------------------|
|-----------------------------------------------------------------------|
|-----------------------------------------------------------------------|

 Outro Chorus
|-3-3-3-3-3-3-3-3-3-3-3-3-|-5-5-0-0-0-0-0-0-0-0-0-0-|
|-3-3-3-3-3-3-3-3-3-3-3-3-|-5-5-0-0-0-0-0-0-0-0-0-0-|
|-4-4-4-4-4-4-4-4-4-4-4-4-|-7-7-1-1-1-1-1-1-1-1-1-1-|
|-5-5-5-5-5-5-5-5-5-5-5-5-|-7-7-2-2-2-2-2-2-2-2-2-2-|
|-5-5-5-5-5-5-5-5-5-5-5-5-|-5-5-2-2-2-2-2-2-2-2-2-2-|
|-3-3-3-3-3-3-3-3-3-3-3-3-|-5-5-0-0-0-0-0-0-0-0-0-0-|

|-3-3-3-3-3-3-3-3-3-3-3-3-5-5-|------7--7------7--7------7--|
|-3-3-3-3-3-3-3-3-3-3-3-3-7-7-|------8--8------8--8------8--|
|-4-4-4-4-4-4-4-4-4-4-4-4-7-7-|--9-9-9--9--9-9-9--9--9-9-9--|
|-5-5-5-5-5-5-5-5-5-5-5-5-7-7-|--9-9-------9-9-------9-9----|
|-5-5-5-5-5-5-5-5-5-5-5-5-5-5-|--7-7-------7-7-------7-7----|
|-3-3-3-3-3-3-3-3-3-3-3-3-5-5-|--7-7-------7-7-------7-7----|

|-3-3-3-3-3-3-3-3-3-3-3-3-|-5-5-0-0-0-0-0-0-0-0-0-0-|
|-3-3-3-3-3-3-3-3-3-3-3-3-|-5-5-0-0-0-0-0-0-0-0-0-0-|
|-4-4-4-4-4-4-4-4-4-4-4-4-|-7-7-1-1-1-1-1-1-1-1-1-1-|
|-5-5-5-5-5-5-5-5-5-5-5-5-|-7-7-2-2-2-2-2-2-2-2-2-2-|
|-5-5-5-5-5-5-5-5-5-5-5-5-|-5-5-2-2-2-2-2-2-2-2-2-2-|
|-3-3-3-3-3-3-3-3-3-3-3-3-|-5-5-0-0-0-0-0-0-0-0-0-0-|

|-3-3-3-3-3-3-3-3-|-5-5-5-5-6-6-6-6----|
|–3-3-3-3-3-3-3-3-|-5-5-5-5-6-6-6-6----|
|-4-4-4-4-4-4-4-4-|-7-7-7-7-8-8-8-8----|
|-5-5-5-5-5-5-5-5-|-7-7-7-7-8-8-8-8----|
|-5-5-5-5-5-5-5-5-|-5-5-5-5-6-6-6-6----|
|-3-3-3-3-3-3-3-3-|-5-5-5-5-6-6-6-6----|


|-3-3-3-3-3-3-3-3-|-5-5-5-5-6-6-6-6---6\-|
|–3-3-3-3-3-3-3-3-|-5-5-5-5-6-6-6-6---6\-|
|-4-4-4-4-4-4-4-4-|-6-6-6-6-7-7-7-7---7\-|
|-5-5-5-5-5-5-5-5-|-7-7-7-7-8-8-8-8---8\-|
|-5-5-5-5-5-5-5-5-|-7-7-7-7-8-8-8-8---8\-|
|-3-3-3-3-3-3-3-3-|-5-5-5-5-6-6-6-6---6\-|
comments
We did not receive enough feedback on this tab! Please rate:
print report bad tab
1 2 3 4 5
I want to post or [tab]
guest
You may want to rate the tab now too:
select rating
Please do not post tabs as comments. Select "correction" instead!