Oops, an error
Loading. Please wait.

Days Of The Phoenix Tab

by Afi
ver7
1,889 views 30 this week
no commentswrite comment
1 2 3 4 5
excellent!
x 1
Autoscroll
+/-
esc
set tempo
stop
Contributor
WARNING: You are trying to view
                                    content from Ultimate-Guitar.com
                                    in an unauthorized application,
                                    which is prohibited.

                                    Please use an official Ultimate
                                    Guitar Tabs application for iPhone,
                                    iPad or Android to access legitimate
                                    chords, guitar, bass, and drum tabs
                                    from Ultimate-Guitar.com database.

                                    Type "ultimate guitar tabs" in Apple
                                    App Store's or Android Market's
                                    search to find the application.
A Fire Inside,
The Days Of The Phoenix


INTRO
----5---2---3---2----3-------------5---2---3---5---7777777777777777-|
--0---0---0---0----0---0-222222--0---0---0---0---0-0000000000000000-|
--4---4---4---4----4---4-222222--4---4---4---4---4-4444444444444444-|
--------------------------------------------------------------------|
--------------------------------------------------------------------|
--------------------------------------------------------------------|


INTRO, GUITAR 1
|-------------------------------------------------------------------|
|-----------10-------10-7-8-10----10---7-8-10-----10---8-7----------|
|---77-6-77---7--7-7-----------77----7---------77----7-----7--------|
|-9----------------------------------------------------------(9)Let-|
|--------------------------------------------------------------ring-|
|-------------------------------------------------------------------|
|
|
|INTRO, GUITAR 2
|-----------------------------------------------------------------------|
|-----------------------------------------------------------------------|
|--4---4---7---7--------------------4---4---7---7--------------------4--|
|--4-X-4-X-7-X-7-X-5-X-5-X-7-X-7-Xx-4-X-4-X-7-X-7-X-5-X-5-X-7-X-7-X--4--|
|--2-X-2-X-5-X-5-X-5-X-5-X-7-X-7-Xx-2-X-2-X-5-X-5-X-5-X-5-X-7-X-7-X--2--|
|--2-X-2-X-5-X-5-X-3-X-3-X-5-X-5-Xx-2-X-2-X-5-X-5-X-3-X-3-X-5-X-5-X--2--|




VERSE
--------------------------------------------------- -5555555555555555-|
--------------------------------------------------- -5555555555555555-|
-(4)-let-------LONG-REST-FOR----------------------- -6666666666666666-|
-(4)-ring--------BASS-&-DRUMS---------------------- -7777777777777777-|
-(2)----------------------------------------------- -7777777777777777-|
-(2)----------------------------------------------- -5555555555555555-|



VERSE for bass
--------------------------------------------|
--------------------------------------------|
--2-2-------------4-5-5------5----7---------|
------2-5-5--5-77-------2-33---44---55-5-5--|



VERSE, Play 3 times…
|------------------------------------555555555555--|
|:-777---555---777---777---333-------555555555555-:|
|--777---666---777---777---444---999-666666666666--|
|--999---777---999---777---555---999-777777777777--|
|:-999-x-777-x-999-x-555-x-555-x-777-777777777777-:|
|--777-O-555-0-777-0-555-0-333-0-777-555555555555--|



VERSE
----------------------------------------------------5555555555555555-|
-777---555---777---777---333-------555-222----------5555555555555555-|
-777---666---777---777---444---999-666-333-4--------6666666666666666-|
-999---777---999---777---555---999-777-444-5-pm-----7777777777777777-|
-999-x-777-x-999-x-555-x-555-x-777-777-444-5-======-7777777777777777-|
-777-O-555-0-777-0-555-0-333-0-777-555-222-3-333333-5555555555555555-|



CHORUS, 3 Xs
|---------------------------------------------------|
|:-----------------------------12--------12--------:|
|--7--7-------11----11---------12-12-----12-12------|
|--9----9-----12-------12------12---12---12---12----|
|:-9------9---12-----------12--10-----10-10-----10-:|
|--77---------10-10------------10--------10---------|



CHORUS
--------------------------------------------------||
-----------------------------12---------14--------||
-7--7-------11----11---------12-12------14-14-----||
-9----9-----12-------12------12---12----14---14---||
-9------9---12-----------12--10-----10--12-----12-||
-77---------10-10------------10---------12--------||



----5---2---3---2----3-------------5---2---3---5---7777777777777777-|
--0---0---0---0----0---0-222222--0---0---0---0---0-0000000000000000-|
--4---4---4---4----4---4-222222--4---4---4---4---4-4444444444444444-|
--------------------------------------------------------------------|
--------------------------------------------------------------------|
--------------------------------------------------------------------|




VERSE 2
|------------------------------------555555555555-|
|--777---555---777---777---333-------555555555555-|
|--777---666---777---777---444---999-666666666666-|
|--999---777---999---777---555---999-777777777777-|
|--999-x-777-x-999-x-555-x-555-x-777-777777777777-|
|--777-O-555-0-777-0-555-0-333-0-777-555555555555-|



VERSE 2
----------------------------------------------------5555555555555555-|
-777---555---777---777---333-------555-222----------5555555555555555-|
-777---666---777---777---444---999-666-333-4--------6666666666666666-|
-999---777---999---777---555---999-777-444-5-pm-----7777777777777777-|
-999-x-777-x-999-x-555-x-555-x-777-777-444-5-======-7777777777777777-|
-777-O-555-0-777-0-555-0-333-0-777-555-222-3-333333-5555555555555555-|



CHORUS, 3 Xs
|---------------------------------------------------|
|:-----------------------------12--------12--------:|
|--7--7-------11----11---------12-12-----12-12------|
|--9----9-----12-------12------12---12---12---12----|
|:-9------9---12-----------12--10-----10-10-----10-:|
|--77---------10-10------------10--------10---------|



CHORUS
--------------------------------------------------||
-----------------------------12---------14--------||
-7--7-------11----11---------12-12------14-14-----||
-9----9-----12-------12------12---12----14---14---||
-9------9---12-----------12--10-----10--12-----12-||
-77---------10-10------------10---------12--------||


BRIDGE, GUITAR 1
|--------------------|
|:----------------3-:|
|------0--------0----|
|----4---4----4------|
|:-2--------2-------:|
|--------------------|


BRIDGE, GUITAR 1
|------------------------------------|---------------------------------|
|----------------3-----------------3-|--------------3------------------|
|-----0--------0--------0--------0---|----0-------0--------------------|
|---4---4----4--------4---4----4-----|---4-4----4----------4-------0---|
|-2--------0-----------------0-------|-2------0----------5---5---4---4-|
|-------------------3----------------|-----------------3--------5------|


BRIDGE, GUITAR 1
---------------------------------------|
-----------------3---------------------|
------0--------0-----------------------|
----4---4----4-----------4--------4----|
--2--------0-----------5---5----4---7--|
---------------------3--------5--------|


BRIDGE GUITAR 2, LEAD PART
|--====-==-==-333-222-000--===-===-==-===-===-==---|------------------|
|:-0000-33-22-000-000-000--222-333-55-222-333-22--:|------------------|
|--4444-44-44-444-444-444--000-000-00-222-222-33---|------------------|
|-------------===-===-===--------------------------|-5---55-x-7-------|
|:------------PM----------------------------------:|-5===55-x-7-------|
|--------------------------------------------------|-333333-0-5-------|



CHORUS, 3 Xs
|---------------------------------------------------|
|:-----------------------------12--------12--------:|
|--7--7-------11----11---------12-12-----12-12------|
|--9----9-----12-------12------12---12---12---12----|
|:-9------9---12-----------12--10-----10-10-----10-:|
|--77---------10-10------------10--------10---------|



CHORUS
--------------------------------------------------||
-----------------------------12---------14--------||
-7--7-------11----11---------12-12------14-14-----||
-9----9-----12-------12------12---12----14---14---||
-9------9---12-----------12--10-----10--12-----12-||
-77---------10-10------------10---------12--------||




----5---2---3---2----3-------------5---2---3---5---7777777777777777-|
--0---0---0---0----0---0-222222--0---0---0---0---0-0000000000000000-|
--4---4---4---4----4---4-222222--4---4---4---4---4-4444444444444444-|
--------------------------------------------------------------------|
--------------------------------------------------------------------|
--------------------------------------------------------------------|



OUTRO, GUITAR 1
|-------------------------------------------------------------------|
|-----------10-------10-7-8-10----10---7-8-10-----10---8-7----------|
|---77-6-77---7--7-7-----------77----7---------77----7-----7--6-----|
|-9----------------------------------------------------------(9)Let-|
|--------------------------------------------------------------ring-|
|-------------------------------------------------------------------|
|
|
|OUTRO, GUITAR 2
|-----------------------------------------------------------------------|
|-----------------------------------------------------------------------|
|--4---4---7---7--------------------4---4---7---7--------------------4--|
|--4-X-4-X-7-X-7-X-5-X-5-X-7-X-7-Xx-4-X-4-X-7-X-7-X-5-X-5-X-7-X-7-X--4--|
|--2-X-2-X-5-X-5-X-5-X-5-X-7-X-7-Xx-2-X-2-X-5-X-5-X-5-X-5-X-7-X-7-X--2--|
|--2-X-2-X-5-X-5-X-3-X-3-X-5-X-5-Xx-2-X-2-X-5-X-5-X-3-X-3-X-5-X-5-X--2--|
comments
We did not receive enough feedback on this tab! Please rate:
print report bad tab
1 2 3 4 5
I want to post or [tab]
guest
You may want to rate the tab now too:
select rating
Please do not post tabs as comments. Select "correction" instead!