Oops, an error
Loading. Please wait.

Decemberunderground Bass Tab

by Afi
3,183 views 1 this week
2 commentsread comments
1 2 3 4 5
accurate
x 4
add to favorites launch autoscroll
font size
0
reset
Autoscroll
+/-
esc
set tempo
stop
Contributor
WARNING: You are trying to view
                                    content from Ultimate-Guitar.com
                                    in an unauthorized application,
                                    which is prohibited.

                                    Please use an official Ultimate
                                    Guitar Tabs application for iPhone,
                                    iPad or Android to access legitimate
                                    chords, guitar, bass, and drum tabs
                                    from Ultimate-Guitar.com database.

                                    Type "ultimate guitar tabs" in Apple
                                    App Store's or Android Market's
                                    search to find the application.
THESE TABS ARE MIXED FROM DIFFERENT SITES LIKE TTABS.COM, BASSMASTA.COM, THIS SITE AND 
ONES. I JUST DECIDED TO MAKE THE ALBUM SO I DIDN'T HAVE TO GET THEM ALL. HAVE FUN. TRY TO 
LIKE HUNTER.

1: Prelude 12/21
2: Kill Caustic
3: Miss Murder
4: Summer Shudder
5: The Interview
6: Love Like Winter
7: Affliction
8: The Missing Frame
9: Kiss and Control
10: The Killing Lights
11: 37mm
12: Endlessly, She Said


1: PRELUDE 12/21

No bass in it!


2: KILL CAUSTIC

Intro/Verse

Start at 0:03

G-----|-------------|------------------|----------------|
D-----|-------------|------------------|----------------|
A-----|-------------|------------------|----------------|
E-----|--2-0-3-2-0-2|---2-2-2-2-2-2-2--|--2-2-0-2/3-2--0|

Pre Chorus

G---9-9-9-9-9-9-9|----------------|-----------------|----------------|
D----------------|--4-4-4-4--4-4-4|-----------------|----------------|
A----------------|----------------|--7-7-7-7-7-7-7-7|-5-5-5-5-5-5-5-5|
E----------------|----------------|-----------------|----------------|

G-----------------|-------------|-------------|-------------|
D-----------------|-------------|-------------|-------------|
A--2-2-2-2-2-2-2-4|-4-4-4-4-4-4-|-4-4-4-4-4-4-|-4-4-4-4-4-4-|
E-----------------|-------------|-------------|-------------|

Chorus

G--------------|---------------------------|----------------|---------------|---------|
D---7---7---7--|---------------------------|----------------|---------------|---------|
A--------------|------------------------5-7|----------------|--------------7|----9/7--|
E-------------5|--5-5--5-5-5|-5-5-5--5-7---|-0-0-0---0-0-0-0|--0-0-0-0-12/--|---------|

G--------------|---------------|--------------|-------------|---------------|
D--------------|---------------|--------------|-------------|---------------|
A--------------|-----9---7-----|--------------|-------------|------------5-7|
E---5/7-7-5-5-2|---------------|--4-5-0-7-0-7/|-5-5-5-5-5-5-|-5-5-5--5--7---|

G------------------|----------------|---------|-------------|-----------|
D------------------|----------------|---------|-------------|-----------|
A------------------|-------------0-0|-9/7-----|-------------|--9---7----|
E---0-0-0--0-0-0-0-|-0-0-0-0-2-2----|---------|--5/7-7-5-5-2|-----------|

Repeat verse then chorus

Bridge

G----------|----------|--------------------|----------|---------------------|---------|
D----------|----------|--------------------|----------|---------------------|---------|
A----------|----------|--------------------|----------|---------------------|---------|
E--2--0--0-|--2--0--2-|--2/5--5--5--5/7-7-7|--2--0--2-|--2/5--5--5--5/7-7-7-|--2--0--2|

G----------|--------------------|---------|---------|----------|---------------------|
D----------|--------------------|---------|---------|----------|---------------------|
A----------|--------------------|---------|---------|----------|---------------------|
E--2--0--2-|--2/5--5--5--5/7-7-7|--2------|--2--2--2|--2--0--2-|---2/5--5-5-5-0-0-0-0|

G----------|---------------------|----------|----------------------|-----------|
D----------|---------------------|----------|----------------------|-----------|
A----------|---------------------|----------|----------------------|-----------|
E--2--0--2-|--2/5--5--5--5/7-7-7-|--2--0--2-|---2/5--5-5-5-0-0-0-0-|--2--0--2--|

Repeat chorus

Ending

G-------|---------------|--------|
D-------|---------------|--------|
A-------|---------------|--------|
E--7/---|---2-0-3-2-0-2-|--------|


3: MISS MURDER

Intro
G:--------6--------4-|
D:---6--------4------|
A:------4--------2---|
E:-4--------2--------|

Chorus
G:---------------------6--------4-|
D:--------6666----6--------4------|
A:-------------------4--------2---|
E:-4444---------4--------2--------|

Verse 1
G:-------------4444-------------------------------|
D:--------6666------6666--4444444444--------------|
A:-----------------------------------6666666666---|
E:-4444-------------------------------------------|

G:-------------4444--------------------------------------|
D:-------6666--------6666--4-4-4-4-4-4-------------------|
A:-------------------------------------6-6-6-6-6-6-6-6---|
E:-4444--------------------------------------------------|

Break
G:--------4444--6666------------------------------------------4444-666666---------|
D:-----6666----------6-6-6-6-6-6-6-6-4-4-4-4-4-4-4-4-----6666-------------6>-4>---|
A:------------------------------------------------------------------------------6-|
E:-4444----------------------------------------------4444-------------------------|

Verse 2
G:--------------------------------------------------------------|
D:-6-6----------------------------------------------------------|
A:-------------------2222-4444------------------6-6-6-6-6-6-6-6-|
E:--------44444444--------------2-2-2-2-2-2-2-2-----------------|

Bridge
G:-------------------------------------|
D:-------------------------------------|
A:-66---6-5-4---6-5-44---6-5-4---------|
E:----4-------4--------4-------44-4>---|

G:-----------------------44---------------------------------|
D:------------------4--6------------------------------------|
A:---6-5-4---6-5-66-------------6666-5555-44----6-5-4-2-/6--|
E:-4-------4---------------4444--------------44-------------|


4: SUMMER SHUDDER

Tunning: Half step down


VERSE
|-----------|-------------|------------|-----------|
|-----------|-------------|------------|-----------|
|------5----|-------5-----|5-5--55-5--5|5-5--55----|
|5-7-7----7-|-5-7-5---7-7-|------------|--------3--|
                                                        x2
|-----------|-------------|------------|-----------|
|-----------|-------------|------------|-----------|
|------5----|-------5-----|5-5--55-5--5|5-5--55----|
|5-7-7---77-|-5-7-5---7-7-|------------|--------3--|

CHORUS 1
|---------|---------|---------|---------|---------|---------|------|-----|
|---------|---------|---------|---------|---------|---------|------|-----|
|---------|---------|---------|---------|---------|---------|------|-----|
|33333----|55555----|77777----|77777-5--|33333----|55555----|5-----|-----|

POST CHORUS
|---------------------------------------------|
|---------------------------7---------7-5-4---|
|------9---------9----5--55---555--55-------5-|
|7--77---777--77---77-------------------------|

|---------------------------------------------|
|-----------------------------7--7------------|
|------9---------9----5-5-5-5-------444-------|
|7--77---777--77---77-------------------------|

VERSE
|-----------|-------------|------------|-----------|
|-----------|-------------|------------|-----------|
|------5----|-------5-----|5-5--55-5--5|5-5--55----|
|5-7-7----7-|-5-7-5---7-7-|------------|--------3--|
                                                        x2
|-----------|-------------|------------|-----------|
|-----------|-------------|------------|-----------|
|------5----|-------5-----|5-5--55-5--5|5-5--55----|
|5-7-7---77-|-5-7-5---7-7-|------------|--------3--|

CHORUS
|---------|---------|---------|---------|
|---------|---------|---------|---------|
|---------|---------|---------|---------|
|33333----|55555----|77777----|77777-5--|

|---------|---------|---------|----------|
|---------|---------|---------|----------|
|---------|---------|---------|-----5555-|
|33333----|55555----|77777----|7--7------|

|---------|---------|---------|---------|
|---------|---------|---------|---------|
|---------|---------|---------|---------|
|33333----|55555----|77777----|77777-5--|

|---------|---------|---------|---------|
|---------|---------|---------|---------|
|---------|---------|---------|---------|
|33333----|55555----|5--------|---------|

POST CHORUS
|---------------------------------------------|
|---------------------------7---------7-5-4---|
|------9---------9----5--55---555--55-------5-|
|7--77---777--77---77-------------------------|

|---------------------------------------------|
|-----------------------------7--7------------|
|------9---------9----5-5-5-5-------444-------|
|7--77---777--77---77-------------------------|

BRIDGE
|-------------|-------------|----------------|----------------|
|-------------|-------------|----------------|----------------|
|5555---------|-------------|----------------|----------------|
|----------5--|77777-----5--|3333333355555555|7777777733333333|

|-------------|-------------|----------------|----------------|
|-------------|-------------|----------------|----------------|
|5555---------|-------------|----------------|----------------|
|----------5--|77777-----5--|3333333355555555|7777777733335555|


|------------7777|------------6666|----------------|-----------------------|
|555555555555----|777777777777----|999999999999999|999999999999/14-14-14-14|
|----------------|----------------|----------------|-----------------------|
|----------------|----------------|----------------|-----------------------|

CHORUS
|---------|---------|---------|---------|
|---------|---------|---------|---------|
|---------|---------|---------|---------|
|33333----|55555----|77777----|77777-5--|

|---------|---------|---------|----------|
|---------|---------|---------|----------|
|---------|---------|---------|-----5555-|
|33333----|55555----|77777----|7--7------|

|---------|---------|---------|---------|
|---------|---------|---------|---------|
|---------|---------|---------|---------|
|33333----|55555----|77777----|77777-5--|

|---------|---------|---------|---------|
|---------|---------|---------|---------|
|---------|---------|---------|---------|
|33333----|55555----|5--------|---------|


5: THE INTERVIEW

 intro     verse x2
G|--------|---------------------------------------------------------------------|
D|--------|----------------------------------------------------4444444444444444-|
A|--4-4---|-1111111111111113------------------1111111111111113------------------|
E|--------|------------------2222222222222222-----------------------------------|

G|---------------------------------------------------------------------------|
D|----------------------------------------------------4444444444444444-------|
A|-1111111111111113------------------1111111111111113------------------------|
E|------------------2222222222222222-----------------------------------------|

G|------------------------------------|
D|------------------------------------|
A|------------------------------------|
E|--44444444444444444444444444444444--|


chorus x2                                  ending 1
G|---------------------------------------|----------------------------------|
D|---------------------------------------|----------------------------------|
A|-----------33334444----------444444447-|-------------------55-577-7-------|
E|--66666666----------22222222-----------|-44444444444444/10----------44-66-|

ending 2
G|----------------------------------|
D|----------------------------------|
A|-------------------66-644-433-11--|
E|--44xxxx44xxxx/12-----------------|

thats a twelve   ^

bridge: rest

verse 2
G|-----------------------------------------------------------------------|
D|----------------------------------------------------4444444444444444---|
A|-1111111111111113------------------1111111111111113--------------------|
E|------------------2222222222222222-------------------------------------|


G|---------------------------------------------------------------|
D|---------------------------------------------------------------|
A|-111111111111113-----------------------------------------------|
E|-----------------2222222222222222-44444444444444444444444/6\4--|


chorus


chorus extension
G|---------------------------------------------------------------------|
D|---------------------------------------------------------------------|
A|---------------33335555--------------55553333--------------33334444--|
E|--666666666666----------222222222222----------444444444444-----------|

G|----------------------------------|
D|----------------------------------|
A|--55-577-7-------55-77-7----77----|
E|-----------44-66---------44----6--|
                                 let ring

| /  slide up
| \  slide down
| h  hammer-on
| p  pull-off
| ~  vibrato
| +  harmonic
| x  Mute note


6: LOVE LIKE WINTER

Intro
G|----19-19--19-19-|
D|-----------------|
A|-----------------|
E|-----------------|

Verse "Press your lips to the.."
G|----------------------------|
D|--44444444444444488888888888|
A|----------------------------|
E|----------------------------|

   "Sugar and ice.."
G|--44444444444444466666666666|
D|----------------------------|
A|----------------------------|
E|----------------------------|

Chorus "It's in the blood..."  Note: Try playing the fith with the r00t
 Play 2 times                        Chorus with fith
G|--------------------------|       G|10101010-66666-8888--------|
D|8888888444444666666--6/8/6|       D|8-8-8-8--44444-6666--6/8/6-|
A|--------------------------|       A|---------------------------|
E|--------------------------|       E|---------------------------|

Hammeron or pulloff for slide
G|-------------------------|       G|-10-10--66--88--------------|
D|--8-8---44--66-6/8/6-----|       D|--8-8---44--66-6/8/6--------|
A|-------------------------|       A|----------------------------|
E|-------------------------|       E|----------------------------|

Verse 2
G|-------------------------|
D|-444444444444444888888888|
A|-------------------------|
E|-------------------------|

G|-------------------------|
D|4444444444444446666666666|
A|-------------------------|
E|-------------------------|

G|--R--------------------------------------------|
D|----E-----------------------888888888888888888-|
A|------S----------------------------------------|
E|--------T--------------------------------------|

G|-------------------------|
D|-44444444444444444444444-|
A|-------------------------|
E|-------------------------|

REPEAT WHOLE CHORUS

BRIDGE               Note: Try to play the fith OR even the power chord.
                     With Fith       Bassist just plays D|-2...
G|-----------|       G|--4-4-4-4-4-|
D|-2-2-2-2-2-|       D|-2-2-2-2-2--|
A|-----------|       A|------------|
E|-----------|       E|------------|

REPEAT CHORUS
outro = BRIDGE


7: AFFLICTION

Intro
G----------------------------------------------------------------------------------------------|
D------------------4---4-66----------------------4---4-66--------------------------4---4-66----|
A-----------4-6-7---6-------6-4----------4-6-7---6-------6-4--------------4-6-7---6-------6-4--|
E----4-6-7--------------------------4-6-7-----------------------------4-6-7--------------------|

G----------------------------------------|
D------------------------------------4---|
A-----------------------------4-6-7------|
E----7-7-777-77-7--4-6-7-----------------|

Verse
G----------------------------------------------------------------------------------------------|
D------------------4---4-66----------------------4---4-66--------------------------4---4-66----|
A-----------4-6-7---6-------6-4----------4-6-7---6-------6-4--------------4-6-7---6-------6-4--|
E----4-6-7--------------------------4-6-7-----------------------------4-6-7--------------------|

G----------------------------------------|
D------------------------------------4---|
A-----------------------------4-6-7------|
E----7-7-777-7-7--4-6-7------------------|

Verse2
G----------------------------------------------------------------------------------------------|
D------------------4---4-66----------------------4---4-66--------------------------4---4-66----|
A-----------4-6-7---6-------6-4----------4-6-7---6-------6-4--------------4-6-7---6-------6-4--|
E----4-6-7--------------------------4-6-7-----------------------------4-6-7--------------------|

G----------------------------------|
D----------------------------------|
A-------------------------4444-----|
E----4444-6666-7777----------------|

PreChorus
G---------------------------------------------------------------------|
D---------------------------------------------------------------------|
A---------------------------------------------------------------------|
E----44-4444--44--4444-666----44-4444--44--4444-6666------------------|

Chorus
G------------------------------------------------------------------------------------------------|
D------------------------------------------------------------------------------------------------|
A----------------------------99-77-66-44-77-66-44-----------------------------------44----44-66--|
E--7777777777777777------------------------------66-444444444444--6666-77----77------------------|

G--------------------------------------------------------------------------------------------|
D--------------------------------------------------------------------------------------------|
A----------------------------99-77-66-44-77-66-44--------------------------66-6666-666-6666--|
E--7777777777777777------------------------------66-444444444444-----------------------------|

Verse
G----------------------------------------------------------------------------------------------|
D------------------4---4-66----------------------4---4-66--------------------------4---4-66----|
A-----------4-6-7---6-------6-4----------4-6-7---6-------6-4--------------4-6-7---6-------6-4--|
E----4-6-7--------------------------4-6-7-----------------------------4-6-7--------------------|

G----------------------------------------|
D------------------------------------4---|
A-----------------------------4-6-7------|
E----7-7-777-77-7--4-6-7-----------------|

G----------------------------------------------------------------------------------------------|
D------------------4---4-66----------------------4---4-66--------------------------4---4-66----|
A-----------4-6-7---6-------6-4----------4-6-7---6-------6-4--------------4-6-7---6-------6-4--|
E----4-6-7--------------------------4-6-7-----------------------------4-6-7--------------------|

G----------------------------------------|
D------------------------------------4---|
A-----------------------------4-6-7------|
E----7-7-777-7-7--4-6-7------------------|

Verse2
G----------------------------------------------------------------------------------------------|
D------------------4---4-66----------------------4---4-66--------------------------4---4-66----|
A-----------4-6-7---6-------6-4----------4-6-7---6-------6-4--------------4-6-7---6-------6-4--|
E----4-6-7--------------------------4-6-7-----------------------------4-6-7--------------------|

G----------------------------------|
D----------------------------------|
A-------------------------4444-----|
E----4444-6666-7777----------------|

PreChorus
G---------------------------------------------------------------------|
D---------------------------------------------------------------------|
A---------------------------------------------------------------------|
E----44-4444--44--4444-666----44-4444--44--4444-6666------------------|

Chorus
G------------------------------------------------------------------------------------------------|
D------------------------------------------------------------------------------------------------|
A----------------------------99-77-66-44-77-66-44-----------------------------------44----44-66--|
E--7777777777777777------------------------------66-444444444444--6666-77----77------------------|

G--------------------------------------------------------------------------------------------|
D--------------------------------------------------------------------------------------------|
A----------------------------99-77-66-44-77-66-44--------------------------66-6666-666-6666--|
E--7777777777777777------------------------------66-444444444444-----------------------------|

G---------------------------------|
D---------------------------------|
A--66666666666666666--------------|
E-----------------------------4---|

Bridge
G-----------11-13--11-8-11-8-6-4-6-8-6-8-6-4------------|
D-------------------------------------------------------|
A---6/11------------------------------------------------|
E-------------------------------------------------------|

Bridge2
G-----------4---------------------------------4----------------------------------|
D---6--6-8--8-6-8-6----------------6--6-8--8-6-8-6--------------------4----------|
A------------------------7-777-6-------------------------7-7777-6666-6-----------|
E--------------------------------------------------------------------------------|

G-----------4---------------------------------4---------------------------------------|
D---6--6-8--8-6-8-6----------------6--6-8--8-6-8-6------------------------------------|
A------------------------7-777-6-------------------------7-7777-66-44-----------------|
E---------------------------------------------------------------------------77-66-4---|

PreChorus
G---------------------------------------------------------------------|
D---------------------------------------------------------------------|
A---------------------------------------------------------------------|
E----44-4444--44--4444-666----44-4444--44--4444-6666------------------|

Chorus
G------------------------------------------------------------------------------------------------|
D------------------------------------------------------------------------------------------------|
A----------------------------99-77-66-44-77-66-44-----------------------------------44----44-66--|
E--7777777777777777------------------------------66-444444444444--6666-77----77------------------|

G--------------------------------------------------------------------------------------------|
D--------------------------------------------------------------------------------------------|
A----------------------------99-77-66-44-77-66-44--------------------------66-6666-666-6666--|
E--7777777777777777------------------------------66-444444444444-----------------------------|

Outro
G-------------------------------------------------------------|
D-------------------------------------------------------------|
A-------------------------------------------------------------|
E--4--6-4-6-7---4--6-4-6-7---4--6-4-6-7---4-44-666------------|

G----------------------------------------------------------------|
D----------------------------------------------------------------|
A----------------------------------------------------------------|
E--4--6-4-6-7---4--6-4-6-7---4--6-4-6-7---4-44-666--4------------|


8: THE MISSING FRAME

Intro (when drums and bass come in)
Gb:----------------------------------------------|
Db:----------------------------------------------|
Ab:22--2-22--2-22--2-22--4-----------------------| 2x
Eb:-----------------------33--3-33--3-33--3-33--3|

Verse(same as Intro)

("I can see that I...)
Gb:--------------------------------------------|
Db:--------------------------------------------|
Ab:55--5-55--5-55--5-55--5-00--0-00--0-00--0-00| back to verse
Eb:--------------------------------------------|

Chorus
Gb:-------------------------------------------------------------|
Db:-------------------------------------------------------------|
Ab:5555555555555555555555555555555552222222222222222222222222222|
Eb"-------------------------------------------------------------|

Gb:-------------------------------------------------------------|
Db:-------------------------------------------------------------|
Ab:000000000000000000000000000000000----------------------------|
Eb:---------------------------------3333333333333333333333333333|

back to intro


Bridge
Gb:---------------------------------|--------------|
Db:---------------------------------|--------------|
Ab:22222222----------------000000000|-------0(hold)|
Eb:--------2222222233333333---------|--------------|

Back to Chorus until the end.

P.S. End on Gb:-----------|
            Db:-----------|
            Ab:----2(hold)|
            Eb:-----------|


9: KISS AND CONTROL

I don't know


10: THE KILLING LIGHTS

intro bass in at 8seconds.
G:1-1-1-1-4-6/8-|
D:--------------|
A:--------------|
E:--------------|

verse- NOT EXACT AMOUNT OF TIMES TO PLAY NOTE, JUST PLAY TO THE RYTHYM OF THE SONG.

G:------------------------------------------------------------------|
D:------------------------------------------------------------------|
A:2-2-2-2-2-2-2-2-2-4-4-4-4-4-4-4-4---------------------------------|
E:----------------------------------4-4-4-4-4-4-4-4-4-4-4-4-4-4-4-4-|
NOT SURE HOW MANY TIMES PLAYED.

CHORUS

G:---------------------------------------------------------------|
D:---------------------------------------------------------------|
A:----------------2-2-2-2----------------------------------------|
E:4-4-4-4-2-2-2-2--------0-0-0-0-4-4-4-4-2-2-2-2-0-0-0-0-0-0-0-0-|
PLAY CHORUS ONCE

VERSE
G:------------------------------------------------------------------|
D:------------------------------------------------------------------|
A:2-2-2-2-2-2-2-2-2-4-4-4-4-4-4-4-4---------------------------------|
E:----------------------------------4-4-4-4-4-4-4-4-4-4-4-4-4-4-4-4-|
PLAY IN RYTHYM AGAIN.

CHORUS
G:---------------------------------------------------------------|
D:---------------------------------------------------------------|
A:----------------2-2-2-2----------------------------------------|
E:4-4-4-4-2-2-2-2--------0-0-0-0-4-4-4-4-2-2-2-2-0-0-0-0-0-0-0-0-|
PLAY CHORUS TWICE.

BRIDGE SORTA THING.
G:------------------------|
D:------------------------|
A:--------5-5-5-5-2-2-2-2-|
E:4-4-4-4-----------------|

KEEP REPEATING UNTIL THE GUITAR BREAKS INTO A SOLO SORTA THING.

THEN PLAY
G:----9-----11------13-----13--|
D:--9--9--11--11--13-13--13-13-|
A:7------9------11-----11------|
E:-----------------------------|
TRY AND PLAY THAT TWICE.

THEN PLAY
CHORUS
G:---------------------------------------------------------------|
D:---------------------------------------------------------------|
A:----------------2-2-2-2----------------------------------------|
E:4-4-4-4-2-2-2-2--------0-0-0-0-4-4-4-4-2-2-2-2-0-0-0-0-0-0-0-0-|


11: 37 MM

Intro/Verse
-----------------|-----------------|-----------------|-----------------|
-----------------|-----------------|-----------------|-----------------|
-----------------|-----------------|-2-2-2-222-2-2-2-|-2-2-2-222-2-2-4-|
-4-4-4-444-4-4-4-|-4-4-4-444-4-4-4-|-----------------|-----------------|

-----------------|-----------------|-----------------|-----------------|
-----------------|-----------------|-----------------|-----------------|
-----------------|-----------------|-----------------|-------------2-4-|
-4-4-4-444-4-4-4-|-4-4-4-444-4-4-4-|-2-2-2-222-2-2-2-|-2-2-2-222-4-----|


-----------------|-----------------|-----------------|-----------------|
-----------------|-----------------|-----------------|-----------------|
-----------------|-----------------|-2-2-2-222-2-2-2-|-2-2-2-222-2-2-4-|
-4-4-4-444-4-4-4-|-4-4-4-444-4-4-4-|-----------------|-----------------|

-----------------|------------------|-----------------|-----------------|
-----------------|------------------|-4-4-4-444-4-4-4-|-4-4-4-444-2-1-1-|
-----------------|------------------|-----------------|-----------------|
-2-2-2-222-2-2-2-|-2-2-2-222-2-2-2--|-----------------|-----------------|


Chorus
-----------------|-----------------|-----------------|-----------------|
-----------------|-----------------|-----------------|-----------------|
-2-2-2-222-2-2-2-|-2-2-2-222-2-2-2-|-4-4-4-444-4-4-4-|-4-4-4-444-4-4-4-|
-----------------|-----------------|-----------------|-----------------|

-----------------|-----------------|-----------------|-----------------|
-----------------|-----------------|-4-4-4-444-4-4-4-|-4-4-4-444-2-1-1-|
-2-2-2-222-2-2-2-|-2-2-2-222-2-2-2-|-----------------|-----------------|
-----------------|-----------------|-----------------|-----------------|x1

Bridge
-9-8---------------------------------------------------|
-----9-8---------2--9-9/11----13-----------------------|
---------------------------11----11------14------16----|
---------7-6-2(2)-------------------1212----1414-------|x4

then
-----------------|-----------------|-----------------|-----------------|
-----------------|-----------------|-----------------|-----------------|
-4-4-4-4-4-4-4-4-|-2-2-2-2-2-2-2-2-|-----------------|-----------------|
-----------------|-----------------|-2-2-2-2-2-2-2-2-|-2-2-2-2-2-2-0-0-|


-----------------|-----------------|-----------------|-----------------|
-----------------|-----------------|-----------------|-----------------|
-4-4-4-4-4-4-4-4-|-2-2-2-2-2-2-2-2-|-----------------|-----------------|
-----------------|-----------------|-2-2-2-2-2-2-2-2-|-2-2-2-2-2-2-2-2-|


Chorus
-----------------|-----------------|-----------------|-----------------|
-----------------|-----------------|-----------------|-----------------|
-2-2-2-222-2-2-2-|-2-2-2-222-2-2-2-|-4-4-4-444-4-4-4-|-4-4-4-444-4-4-4-|
-----------------|-----------------|-----------------|-----------------|

-----------------|-----------------|-----------------|-----------------|
-----------------|-----------------|-4-4-4-444-4-4-4-|-4-4-4-444-2-1-1-|
-2-2-2-222-2-2-2-|-2-2-2-222-2-2-2-|-----------------|-----------------|
-----------------|-----------------|-----------------|-----------------|x2

|------|
|------|
|--4---|
|------|


12: ENDLESSLY, SHE SAID

Intro, before singing.

G|----------------------------------|
D|----7---------------7--9----9-----| X2
A|---9------9-10-----7-----9-9--9-9-|
E|7------7--------5-----------------|

Verse 1

G|--------------------------------------|
D|----7-------------------7--9----9-----| X2
A|---9------9-10-9-7-----7-----9-9--9-9-|
E|7------7------------5-----------------|

 Pre-Chorus

G|---------------------------------------------|
D|---------------------------------------------|
A|----------------------------14------14-------|
E|/777----/777----/777---7/12----12-12---12-12-|

G|------------------------------------------------|
D|-------7-------------------7---9---9---9--------|
A|----999------99910-----999---9---9---9---9------|
E|/777-----/777------/777--------------------5--3-|

 Chorus
 I think this is right. I know I'm missing a few parts, but it's really hard to hear.

G|-------------------------------------------------|
D|------------------------------------------7------|
A|2---2h5-2h5-2---2h5-2h5-0---0h5-0h5-----7--------|
E|--------------------------------------5-----5--3-|

G|-------------------------------------------------------4-|
D|----------------------------------7------------------4---|
A|2---2h5-2h5---5---5h7-5h7-0-----7----------2~~~~~2-5-----|
E|------------------------------5------5--3----------------|

 Verse 2

G|--------------------------|-----------------------------------|
D|----7-------------------7-|----7--9---7-7------7---9----9-----|
A|---9---9---9-10-9-7---7---|---9--9---9-9-----7-------9-9--9-9-|
E|7-------7-----------5-----|7---------------5------------------|

 Bridge

G|---|-----------------------------------------------|
D|---|-----------------------------------------------|
A|---|2222222--------0000000--------2222222---5-5--7-|
E|---|-------------------------------------0---5-----|

G|-------------------|-----------------|----------------------------|
D|-------------------|-----------------|------------------2--5-5--7-|
A|5h7777-------------|5h7777-----------|5h7777----------------5-----|
E|-------5555555h7p5-|-------5555557---|-------55555557-3-----------|

 Building up to clean electric part before chorus

G|------------------------------------|
D|------------------------------------|
A|5-55-5-5-5-7-77-7-7-7-9-99-9-9-9-10-|
E|------------------------------------|

Screaming Outro part

G|-------------------------------------|
D|9----9-----7----7-----5----5-----4~~~| X2
A|--9-9--9-9---7-7--7-7---5-5--5-5-----|
E|-------------------------------------|

 Girly sounding outro (very end)

G|--------------------------------------------------------|
D|---9-----7------5------7----9------7-----5-7-5---4~~~~~~|
A|--------7------5------7-----------7---------------------|
E|7----5------3------5------7----5------3--------5--------|

Thanks! Heres my e-mail!
die666e@yahoo.com
2 comments total.
+1 reply
fenderbassdude wrote on March 26 2008, 07:20 pm

overall pretty good some were inaccurate others were really good 4 stars

+1 reply
charlie1234 wrote on August 6 2008, 06:02 am

good ;)

I want to post or [tab]
guest
You may want to rate the tab now too:
select rating
Please do not post tabs as comments. Select "correction" instead!